  0
SECTION
  2
HEADER
  9
$ACADVER
  1
AC1015
  9
$ACADMAINTVER
 70
     6
  9
$DWGCODEPAGE
  3
ANSI_1252
  9
$INSBASE
 10
0.0
 20
0.0
 30
0.0
  9
$EXTMIN
 10
0.0
 20
-56.0
 30
0.0
  9
$EXTMAX
 10
2947.1815808475
 20
1194.0
 30
0.0
  9
$LIMMIN
 10
0.0
 20
0.0
  9
$LIMMAX
 10
420.0
 20
297.0
  9
$ORTHOMODE
 70
     0
  9
$REGENMODE
 70
     1
  9
$FILLMODE
 70
     1
  9
$QTEXTMODE
 70
     0
  9
$MIRRTEXT
 70
     1
  9
$LTSCALE
 40
1.0
  9
$ATTMODE
 70
     1
  9
$TEXTSIZE
 40
3.5
  9
$TRACEWID
 40
1.0
  9
$TEXTSTYLE
  7
Standard
  9
$CLAYER
  8
0
  9
$CELTYPE
  6
ByLayer
  9
$CECOLOR
 62
   256
  9
$CELTSCALE
 40
1.0
  9
$DISPSILH
 70
     0
  9
$DIMSCALE
 40
1.0
  9
$DIMASZ
 40
3.556
  9
$DIMEXO
 40
0.0
  9
$DIMDLI
 40
3.75
  9
$DIMRND
 40
0.0
  9
$DIMDLE
 40
0.0
  9
$DIMEXE
 40
1.0
  9
$DIMTP
 40
0.0
  9
$DIMTM
 40
0.0
  9
$DIMTXT
 40
3.5
  9
$DIMCEN
 40
2.5
  9
$DIMTSZ
 40
0.0
  9
$DIMTOL
 70
     0
  9
$DIMLIM
 70
     0
  9
$DIMTIH
 70
     1
  9
$DIMTOH
 70
     1
  9
$DIMSE1
 70
     0
  9
$DIMSE2
 70
     0
  9
$DIMTAD
 70
     1
  9
$DIMZIN
 70
     0
  9
$DIMBLK
  1

  9
$DIMASO
 70
     1
  9
$DIMSHO
 70
     1
  9
$DIMPOST
  1

  9
$DIMAPOST
  1

  9
$DIMALT
 70
     0
  9
$DIMALTD
 70
     3
  9
$DIMALTF
 40
0.0393700787
  9
$DIMLFAC
 40
1.0
  9
$DIMTOFL
 70
     1
  9
$DIMTVP
 40
0.0
  9
$DIMTIX
 70
     0
  9
$DIMSOXD
 70
     0
  9
$DIMSAH
 70
     0
  9
$DIMBLK1
  1

  9
$DIMBLK2
  1

  9
$DIMSTYLE
  2
ISO-25
  9
$DIMCLRD
 70
     0
  9
$DIMCLRE
 70
     0
  9
$DIMCLRT
 70
     0
  9
$DIMTFAC
 40
1.0
  9
$DIMGAP
 40
1.524
  9
$DIMJUST
 70
     0
  9
$DIMSD1
 70
     0
  9
$DIMSD2
 70
     0
  9
$DIMTOLJ
 70
     0
  9
$DIMTZIN
 70
     0
  9
$DIMALTZ
 70
     0
  9
$DIMALTTZ
 70
     0
  9
$DIMUPT
 70
     0
  9
$DIMDEC
 70
     2
  9
$DIMTDEC
 70
     2
  9
$DIMALTU
 70
     2
  9
$DIMALTTD
 70
     3
  9
$DIMTXSTY
  7
Standard
  9
$DIMAUNIT
 70
     0
  9
$DIMADEC
 70
     0
  9
$DIMALTRND
 40
0.0
  9
$DIMAZIN
 70
     0
  9
$DIMDSEP
 70
    44
  9
$DIMATFIT
 70
     3
  9
$DIMFRAC
 70
     0
  9
$DIMLDRBLK
  1

  9
$DIMLUNIT
 70
     2
  9
$DIMLWD
 70
    -2
  9
$DIMLWE
 70
    -2
  9
$DIMTMOVE
 70
     0
  9
$LUNITS
 70
     2
  9
$LUPREC
 70
     0
  9
$SKETCHINC
 40
1.0
  9
$FILLETRAD
 40
0.0
  9
$AUNITS
 70
     0
  9
$AUPREC
 70
     0
  9
$MENU
  1
.
  9
$ELEVATION
 40
0.0
  9
$PELEVATION
 40
0.0
  9
$THICKNESS
 40
0.0
  9
$LIMCHECK
 70
     0
  9
$CHAMFERA
 40
0.0
  9
$CHAMFERB
 40
0.0
  9
$CHAMFERC
 40
0.0
  9
$CHAMFERD
 40
0.0
  9
$SKPOLY
 70
     0
  9
$TDCREATE
 40
2460269.594106238
  9
$TDUCREATE
 40
2460269.552439572
  9
$TDUPDATE
 40
2460269.594130833
  9
$TDUUPDATE
 40
2460269.552464167
  9
$TDINDWG
 40
0.0000000116
  9
$TDUSRTIMER
 40
0.0000000116
  9
$USRTIMER
 70
     1
  9
$ANGBASE
 50
0.0
  9
$ANGDIR
 70
     0
  9
$PDMODE
 70
     0
  9
$PDSIZE
 40
-1.0
  9
$PLINEWID
 40
0.0
  9
$SPLFRAME
 70
     0
  9
$SPLINETYPE
 70
     6
  9
$SPLINESEGS
 70
     8
  9
$HANDSEED
  5
A2
  9
$SURFTAB1
 70
     6
  9
$SURFTAB2
 70
     6
  9
$SURFTYPE
 70
     6
  9
$SURFU
 70
     6
  9
$SURFV
 70
     6
  9
$UCSBASE
  2

  9
$UCSNAME
  2

  9
$UCSORG
 10
0.0
 20
0.0
 30
0.0
  9
$UCSXDIR
 10
1.0
 20
0.0
 30
0.0
  9
$UCSYDIR
 10
0.0
 20
1.0
 30
0.0
  9
$UCSORTHOREF
  2

  9
$UCSORTHOVIEW
 70
     0
  9
$UCSORGTOP
 10
0.0
 20
0.0
 30
0.0
  9
$UCSORGBOTTOM
 10
0.0
 20
0.0
 30
0.0
  9
$UCSORGLEFT
 10
0.0
 20
0.0
 30
0.0
  9
$UCSORGRIGHT
 10
0.0
 20
0.0
 30
0.0
  9
$UCSORGFRONT
 10
0.0
 20
0.0
 30
0.0
  9
$UCSORGBACK
 10
0.0
 20
0.0
 30
0.0
  9
$PUCSBASE
  2

  9
$PUCSNAME
  2

  9
$PUCSORG
 10
0.0
 20
0.0
 30
0.0
  9
$PUCSXDIR
 10
1.0
 20
0.0
 30
0.0
  9
$PUCSYDIR
 10
0.0
 20
1.0
 30
0.0
  9
$PUCSORTHOREF
  2

  9
$PUCSORTHOVIEW
 70
     0
  9
$PUCSORGTOP
 10
0.0
 20
0.0
 30
0.0
  9
$PUCSORGBOTTOM
 10
0.0
 20
0.0
 30
0.0
  9
$PUCSORGLEFT
 10
0.0
 20
0.0
 30
0.0
  9
$PUCSORGRIGHT
 10
0.0
 20
0.0
 30
0.0
  9
$PUCSORGFRONT
 10
0.0
 20
0.0
 30
0.0
  9
$PUCSORGBACK
 10
0.0
 20
0.0
 30
0.0
  9
$USERI1
 70
     0
  9
$USERI2
 70
     0
  9
$USERI3
 70
     0
  9
$USERI4
 70
     0
  9
$USERI5
 70
     0
  9
$USERR1
 40
0.0
  9
$USERR2
 40
0.0
  9
$USERR3
 40
0.0
  9
$USERR4
 40
0.0
  9
$USERR5
 40
0.0
  9
$WORLDVIEW
 70
     1
  9
$SHADEDGE
 70
     3
  9
$SHADEDIF
 70
    70
  9
$TILEMODE
 70
     1
  9
$MAXACTVP
 70
    64
  9
$PINSBASE
 10
0.0
 20
0.0
 30
0.0
  9
$PLIMCHECK
 70
     0
  9
$PEXTMIN
 10
1.0000000000E+20
 20
1.0000000000E+20
 30
1.0000000000E+20
  9
$PEXTMAX
 10
-1.0000000000E+20
 20
-1.0000000000E+20
 30
-1.0000000000E+20
  9
$PLIMMIN
 10
0.0
 20
0.0
  9
$PLIMMAX
 10
420.0
 20
297.0
  9
$UNITMODE
 70
     0
  9
$VISRETAIN
 70
     1
  9
$PLINEGEN
 70
     0
  9
$PSLTSCALE
 70
     1
  9
$TREEDEPTH
 70
  3020
  9
$CMLSTYLE
  2
Standard
  9
$CMLJUST
 70
     0
  9
$CMLSCALE
 40
20.0
  9
$PROXYGRAPHICS
 70
     1
  9
$MEASUREMENT
 70
     1
  9
$CELWEIGHT
370
    -1
  9
$ENDCAPS
280
     0
  9
$JOINSTYLE
280
     0
  9
$LWDISPLAY
290
     1
  9
$INSUNITS
 70
     4
  9
$HYPERLINKBASE
  1

  9
$STYLESHEET
  1

  9
$XEDIT
290
     1
  9
$CEPSNTYPE
380
     0
  9
$PSTYLEMODE
290
     1
  9
$FINGERPRINTGUID
  2
{332c2b82-0114-46bd-83c7-1c67462f7dc0}
  9
$VERSIONGUID
  2
{FAEB1C32-E019-11D5-929B-00C0DF256EC4}
  9
$EXTNAMES
290
     1
  9
$PSVPSCALE
 40
0.0
  9
$OLESTARTUP
290
     0
  0
ENDSEC
  0
SECTION
  2
CLASSES
  0
CLASS
  1
ACDBDICTIONARYWDFLT
  2
AcDbDictionaryWithDefault
  3
ObjectDBX Classes
 90
        0
280
     0
281
     0
  0
CLASS
  1
VISUALSTYLE
  2
AcDbVisualStyle
  3
ObjectDBX Classes
 90
     4095
280
     0
281
     0
  0
CLASS
  1
MATERIAL
  2
AcDbMaterial
  3
ObjectDBX Classes
 90
     1153
280
     0
281
     0
  0
CLASS
  1
SCALE
  2
AcDbScale
  3
ObjectDBX Classes
 90
     1153
280
     0
281
     0
  0
CLASS
  1
TABLESTYLE
  2
AcDbTableStyle
  3
ObjectDBX Classes
 90
     4095
280
     0
281
     0
  0
CLASS
  1
MLEADERSTYLE
  2
AcDbMLeaderStyle
  3
ACDB_MLEADERSTYLE_CLASS
 90
     4095
280
     0
281
     0
  0
CLASS
  1
SUN
  2
AcDbSun
  3
SCENEOE
 90
     1153
280
     0
281
     0
  0
CLASS
  1
ACDBPLACEHOLDER
  2
AcDbPlaceHolder
  3
ObjectDBX Classes
 90
        0
280
     0
281
     0
  0
CLASS
  1
LAYOUT
  2
AcDbLayout
  3
ObjectDBX Classes
 90
        0
280
     0
281
     0
  0
ENDSEC
  0
SECTION
  2
TABLES
  0
TABLE
  2
VPORT
  5
8
330
0
100
AcDbSymbolTable
 70
     1
  0
VPORT
  5
29
330
8
100
AcDbSymbolTableRecord
100
AcDbViewportTableRecord
  2
*Active
 70
     0
 10
0.0
 20
0.0
 11
1.0
 21
1.0
 12
1473.5907904238
 22
569.0
 13
0.0
 23
0.0
 14
10.0
 24
10.0
 15
10.0
 25
10.0
 16
0.0
 26
0.0
 36
1.0
 17
0.0
 27
0.0
 37
0.0
 40
1275.0
 41
2.3577452647
 42
50.0
 43
0.0
 44
0.0
 50
0.0
 51
0.0
 71
     0
 72
   100
 73
     1
 74
     3
 75
     0
 76
     0
 77
     0
 78
     0
281
     0
 65
     1
110
0.0
120
0.0
130
0.0
111
1.0
121
0.0
131
0.0
112
0.0
122
1.0
132
0.0
 79
     0
146
0.0
  0
ENDTAB
  0
TABLE
  2
LTYPE
  5
5
330
0
100
AcDbSymbolTable
 70
     6
  0
LTYPE
  5
14
330
5
100
AcDbSymbolTableRecord
100
AcDbLinetypeTableRecord
  2
ByBlock
 70
     0
  3

 72
    65
 73
     0
 40
0.0
  0
LTYPE
  5
15
330
5
100
AcDbSymbolTableRecord
100
AcDbLinetypeTableRecord
  2
ByLayer
 70
     0
  3

 72
    65
 73
     0
 40
0.0
  0
LTYPE
  5
16
330
5
100
AcDbSymbolTableRecord
100
AcDbLinetypeTableRecord
  2
Continuous
 70
     0
  3
Solid line
 72
    65
 73
     0
 40
0.0
  0
LTYPE
  5
5E
330
5
100
AcDbSymbolTableRecord
100
AcDbLinetypeTableRecord
  2
HIDDEN
 70
     0
  3
Hidden __ __ __ __ __ __ __ __ __ __ __ __ __ __
 72
    65
 73
     2
 40
1.905
 49
1.27
 74
     0
 49
-0.635
 74
     0
  0
LTYPE
  5
5F
330
5
100
AcDbSymbolTableRecord
100
AcDbLinetypeTableRecord
  2
PHANTOM
 70
     0
  3
Phantom ______  __  __  ______  __  __  ______
 72
    65
 73
     6
 40
12.7
 49
6.35
 74
     0
 49
-1.27
 74
     0
 49
1.27
 74
     0
 49
-1.27
 74
     0
 49
1.27
 74
     0
 49
-1.27
 74
     0
  0
LTYPE
  5
60
330
5
100
AcDbSymbolTableRecord
100
AcDbLinetypeTableRecord
  2
CENTER
 70
     0
  3
Center ____ _ ____ _ ____ _ ____ _ ____ _ ____
 72
    65
 73
     4
 40
10.16
 49
6.35
 74
     0
 49
-1.27
 74
     0
 49
1.27
 74
     0
 49
-1.27
 74
     0
  0
LTYPE
  5
61
330
5
100
AcDbSymbolTableRecord
100
AcDbLinetypeTableRecord
  2
CENTERX2
 70
     0
  3
Center (2x) ________  __  ________  __  _____
 72
    65
 73
     4
 40
20.32
 49
12.7
 74
     0
 49
-2.54
 74
     0
 49
2.54
 74
     0
 49
-2.54
 74
     0
  0
LTYPE
  5
62
330
5
100
AcDbSymbolTableRecord
100
AcDbLinetypeTableRecord
  2
DOT2
 70
     0
  3
Dot (.5x) ........................................
 72
    65
 73
     2
 40
0.635
 49
0.0
 74
     0
 49
-0.635
 74
     0
  0
ENDTAB
  0
TABLE
  2
LAYER
  5
2
330
0
100
AcDbSymbolTable
 70
     1
  0
LAYER
  5
10
330
2
100
AcDbSymbolTableRecord
100
AcDbLayerTableRecord
  2
0
 70
     0
 62
     7
  6
Continuous
370
    -3
390
F
  0
ENDTAB
  0
TABLE
  2
STYLE
  5
3
330
0
100
AcDbSymbolTable
 70
     1
  0
STYLE
  5
11
330
3
100
AcDbSymbolTableRecord
100
AcDbTextStyleTableRecord
  2
Standard
 70
     0
 40
0.0
 41
1.0
 50
0.0
 71
     0
 42
3.5
  3
txt
  4

  0
ENDTAB
  0
TABLE
  2
VIEW
  5
6
330
0
100
AcDbSymbolTable
 70
     0
  0
ENDTAB
  0
TABLE
  2
UCS
  5
7
330
0
100
AcDbSymbolTable
 70
     0
  0
ENDTAB
  0
TABLE
  2
APPID
  5
9
330
0
100
AcDbSymbolTable
 70
     1
  0
APPID
  5
12
330
9
100
AcDbSymbolTableRecord
100
AcDbRegAppTableRecord
  2
ACAD
 70
     0
  0
ENDTAB
  0
TABLE
  2
DIMSTYLE
  5
A
330
0
100
AcDbSymbolTable
 70
     1
100
AcDbDimStyleTable
  0
DIMSTYLE
105
27
330
A
100
AcDbSymbolTableRecord
100
AcDbDimStyleTableRecord
  2
ISO-25
 70
     0
 41
2.5
 42
0.625
 43
3.75
 44
1.25
 73
     0
 74
     0
 77
     1
 78
     8
140
2.5
141
2.5
143
0.0393700787
147
0.625
171
     3
172
     1
178
     0
271
     2
272
     2
274
     3
278
    44
283
     0
284
     8
340
11
  0
ENDTAB
  0
TABLE
  2
BLOCK_RECORD
  5
1
330
0
100
AcDbSymbolTable
 70
     1
  0
BLOCK_RECORD
  5
1F
330
1
100
AcDbSymbolTableRecord
100
AcDbBlockTableRecord
  2
*Model_Space
340
22
  0
BLOCK_RECORD
  5
1B
330
1
100
AcDbSymbolTableRecord
100
AcDbBlockTableRecord
  2
*Paper_Space
340
1E
  0
BLOCK_RECORD
  5
23
330
1
100
AcDbSymbolTableRecord
100
AcDbBlockTableRecord
  2
*Paper_Space0
340
26
  0
ENDTAB
  0
ENDSEC
  0
SECTION
  2
BLOCKS
  0
BLOCK
  5
20
330
1F
100
AcDbEntity
  8
0
100
AcDbBlockBegin
  2
*Model_Space
 70
     0
 10
0.0
 20
0.0
 30
0.0
  3
*Model_Space
  1

  0
ENDBLK
  5
21
330
1F
100
AcDbEntity
  8
0
100
AcDbBlockEnd
  0
BLOCK
  5
1C
330
1B
100
AcDbEntity
 67
     1
  8
0
100
AcDbBlockBegin
  2
*Paper_Space
 70
     0
 10
0.0
 20
0.0
 30
0.0
  3
*Paper_Space
  1

  0
ENDBLK
  5
1D
330
1B
100
AcDbEntity
 67
     1
  8
0
100
AcDbBlockEnd
  0
BLOCK
  5
24
330
23
100
AcDbEntity
  8
0
100
AcDbBlockBegin
  2
*Paper_Space0
 70
     0
 10
0.0
 20
0.0
 30
0.0
  3
*Paper_Space0
  1

  0
ENDBLK
  5
25
330
23
100
AcDbEntity
  8
0
100
AcDbBlockEnd
  0
ENDSEC
  0
SECTION
  2
ENTITIES
  0
SPLINE
  5
63
330
1F
100
AcDbEntity
  8
0
  6
Continuous
 62
     7
370
    25
100
AcDbSpline
210
0.0
220
0.0
230
1.0
 70
    11
 71
     3
 72
    11
 73
     7
 74
     0
 42
0.00000001
 43
0.00000001
 40
0.0
 40
0.0
 40
0.0
 40
0.0
 40
1.0
 40
1.0
 40
1.0
 40
2.0
 40
2.0
 40
2.0
 40
2.0
 10
2926.197299405441
 20
1169.0
 30
0.0
 10
2926.1973095141
 20
1166.770149711927
 30
0.0
 10
2921.99650319443
 20
1166.768142372303
 30
0.0
 10
2921.997295783236
 20
1168.999995717073
 30
0.0
 10
2921.998088372041
 20
1171.231849061844
 30
0.0
 10
2926.197289315436
 20
1171.225735242069
 30
0.0
 10
2926.197299405441
 20
1169.0
 30
0.0
  0
SPLINE
  5
64
330
1F
100
AcDbEntity
  8
0
  6
Continuous
 62
     7
370
    25
100
AcDbSpline
210
0.0
220
0.0
230
1.0
 70
    11
 71
     3
 72
    11
 73
     7
 74
     0
 42
0.00000001
 43
0.00000001
 40
0.0
 40
0.0
 40
0.0
 40
0.0
 40
1.0
 40
1.0
 40
1.0
 40
2.0
 40
2.0
 40
2.0
 40
2.0
 10
1764.561999814067
 20
1169.0
 30
0.0
 10
1764.562009922729
 20
1166.770149712325
 30
0.0
 10
1760.361203604381
 20
1166.768142375282
 30
0.0
 10
1760.361996191863
 20
1168.999995717073
 30
0.0
 10
1760.362788779346
 20
1171.231849058865
 30
0.0
 10
1764.561989724058
 20
1171.225735242023
 30
0.0
 10
1764.561999814067
 20
1169.0
 30
0.0
  0
SPLINE
  5
65
330
1F
100
AcDbEntity
  8
0
  6
Continuous
 62
     7
370
    25
100
AcDbSpline
210
0.0
220
0.0
230
1.0
 70
    11
 71
     3
 72
    11
 73
     7
 74
     0
 42
0.00000001
 43
0.00000001
 40
0.0
 40
0.0
 40
0.0
 40
0.0
 40
1.0
 40
1.0
 40
1.0
 40
2.0
 40
2.0
 40
2.0
 40
2.0
 10
602.9267002227056
 20
1169.0
 30
0.0
 10
602.9267103313774
 20
1166.770149712353
 30
0.0
 10
598.7259040126887
 20
1166.768142374289
 30
0.0
 10
598.7266966005021
 20
1168.999995717074
 30
0.0
 10
598.7274891883156
 20
1171.231849059859
 30
0.0
 10
602.9266901326885
 20
1171.22573524482
 30
0.0
 10
602.9267002227056
 20
1169.0
 30
0.0
  0
SPLINE
  5
66
330
1F
100
AcDbEntity
  8
0
  6
Continuous
 62
     7
370
    25
100
AcDbSpline
210
0.0
220
0.0
230
1.0
 70
    11
 71
     3
 72
    11
 73
     7
 74
     0
 42
0.00000001
 43
0.00000001
 40
0.0
 40
0.0
 40
0.0
 40
0.0
 40
1.0
 40
1.0
 40
1.0
 40
2.0
 40
2.0
 40
2.0
 40
2.0
 10
2345.379649609756
 20
-31.00000000000003
 30
0.0
 10
2345.37965971843
 20
-33.22985028684404
 30
0.0
 10
2341.178853398912
 20
-33.23185762754832
 30
0.0
 10
2341.179645987553
 20
-31.0000042829266
 30
0.0
 10
2341.180438576193
 20
-28.76815093830487
 30
0.0
 10
2345.379639519737
 20
-28.77426475613202
 30
0.0
 10
2345.379649609756
 20
-31.00000000000003
 30
0.0
  0
SPLINE
  5
67
330
1F
100
AcDbEntity
  8
0
  6
Continuous
 62
     7
370
    25
100
AcDbSpline
210
0.0
220
0.0
230
1.0
 70
    11
 71
     3
 72
    11
 73
     7
 74
     0
 42
0.00000001
 43
0.00000001
 40
0.0
 40
0.0
 40
0.0
 40
0.0
 40
1.0
 40
1.0
 40
1.0
 40
2.0
 40
2.0
 40
2.0
 40
2.0
 10
1183.744350018388
 20
-31.00000000000003
 30
0.0
 10
1183.744360127051
 20
-33.22985028726859
 30
0.0
 10
1179.54355380804
 20
-33.23185762574165
 30
0.0
 10
1179.544346396184
 20
-31.00000428292649
 30
0.0
 10
1179.545138984328
 20
-28.76815094011132
 30
0.0
 10
1183.74433992838
 20
-28.77426475573471
 30
0.0
 10
1183.744350018388
 20
-31.00000000000003
 30
0.0
  0
SPLINE
  5
68
330
1F
100
AcDbEntity
  8
0
  6
Continuous
 62
     7
370
    25
100
AcDbSpline
210
0.0
220
0.0
230
1.0
 70
    11
 71
     3
 72
    11
 73
     7
 74
     0
 42
0.00000001
 43
0.00000001
 40
0.0
 40
0.0
 40
0.0
 40
0.0
 40
1.0
 40
1.0
 40
1.0
 40
2.0
 40
2.0
 40
2.0
 40
2.0
 10
2926.197299405441
 20
88.99999999999997
 30
0.0
 10
2926.197309514136
 20
86.7701497126426
 30
0.0
 10
2921.996503195755
 20
86.76814237565515
 30
0.0
 10
2921.997295783237
 20
88.99999571707352
 30
0.0
 10
2921.998088370719
 20
91.23184905849187
 30
0.0
 10
2926.197289315401
 20
91.2257352463016
 30
0.0
 10
2926.197299405441
 20
88.99999999999997
 30
0.0
  0
SPLINE
  5
69
330
1F
100
AcDbEntity
  8
0
  6
Continuous
 62
     7
370
    25
100
AcDbSpline
210
0.0
220
0.0
230
1.0
 70
    11
 71
     3
 72
    11
 73
     7
 74
     0
 42
0.00000001
 43
0.00000001
 40
0.0
 40
0.0
 40
0.0
 40
0.0
 40
1.0
 40
1.0
 40
1.0
 40
2.0
 40
2.0
 40
2.0
 40
2.0
 10
1764.561999814066
 20
88.99999999999997
 30
0.0
 10
1764.562009922748
 20
86.77014971257036
 30
0.0
 10
1760.36120360405
 20
86.7681423738556
 30
0.0
 10
1760.361996191863
 20
88.9999957170734
 30
0.0
 10
1760.362788779677
 20
91.23184906029121
 30
0.0
 10
1764.56198972404
 20
91.22573524547914
 30
0.0
 10
1764.561999814066
 20
88.99999999999997
 30
0.0
  0
SPLINE
  5
6A
330
1F
100
AcDbEntity
  8
0
  6
Continuous
 62
     7
370
    25
100
AcDbSpline
210
0.0
220
0.0
230
1.0
 70
    11
 71
     3
 72
    11
 73
     7
 74
     0
 42
0.00000001
 43
0.00000001
 40
0.0
 40
0.0
 40
0.0
 40
0.0
 40
1.0
 40
1.0
 40
1.0
 40
2.0
 40
2.0
 40
2.0
 40
2.0
 10
602.9267002227052
 20
88.99999999999997
 30
0.0
 10
602.9267103313824
 20
86.77014971275985
 30
0.0
 10
598.7259040125232
 20
86.76814237405524
 30
0.0
 10
598.7266966005018
 20
88.99999571707352
 30
0.0
 10
598.7274891884804
 20
91.23184906009178
 30
0.0
 10
602.9266901326829
 20
91.22573524467148
 30
0.0
 10
602.9267002227052
 20
88.99999999999997
 30
0.0
  0
SPLINE
  5
6B
330
1F
100
AcDbEntity
  8
0
  6
Continuous
 62
     7
370
    25
100
AcDbSpline
210
0.0
220
0.0
230
1.0
 70
    11
 71
     3
 72
    11
 73
     7
 74
     0
 42
0.00000001
 43
0.00000001
 40
0.0
 40
0.0
 40
0.0
 40
0.0
 40
1.0
 40
1.0
 40
1.0
 40
2.0
 40
2.0
 40
2.0
 40
2.0
 10
2345.379649609756
 20
209.0000000000001
 30
0.0
 10
2345.379659718448
 20
206.7701497126344
 30
0.0
 10
2341.178853400071
 20
206.7681423766753
 30
0.0
 10
2341.179645987553
 20
208.9999957170734
 30
0.0
 10
2341.180438575035
 20
211.2318490574715
 30
0.0
 10
2345.37963951972
 20
211.2257352446976
 30
0.0
 10
2345.379649609756
 20
209.0000000000001
 30
0.0
  0
SPLINE
  5
6C
330
1F
100
AcDbEntity
  8
0
  6
Continuous
 62
     7
370
    25
100
AcDbSpline
210
0.0
220
0.0
230
1.0
 70
    11
 71
     3
 72
    11
 73
     7
 74
     0
 42
0.00000001
 43
0.00000001
 40
0.0
 40
0.0
 40
0.0
 40
0.0
 40
1.0
 40
1.0
 40
1.0
 40
2.0
 40
2.0
 40
2.0
 40
2.0
 10
1183.744350018388
 20
209.0000000000001
 30
0.0
 10
1183.744360127044
 20
206.7701497123531
 30
0.0
 10
1179.543553808372
 20
206.7681423752478
 30
0.0
 10
1179.544346396184
 20
208.9999957170735
 30
0.0
 10
1179.545138983997
 20
211.2318490588993
 30
0.0
 10
1183.744339928387
 20
211.2257352446136
 30
0.0
 10
1183.744350018388
 20
209.0000000000001
 30
0.0
  0
SPLINE
  5
6D
330
1F
100
AcDbEntity
  8
0
  6
Continuous
 62
     7
370
    25
100
AcDbSpline
210
0.0
220
0.0
230
1.0
 70
    11
 71
     3
 72
    11
 73
     7
 74
     0
 42
0.00000001
 43
0.00000001
 40
0.0
 40
0.0
 40
0.0
 40
0.0
 40
1.0
 40
1.0
 40
1.0
 40
2.0
 40
2.0
 40
2.0
 40
2.0
 10
2926.197299405441
 20
328.9999999999999
 30
0.0
 10
2926.197309514118
 20
326.7701497126773
 30
0.0
 10
2921.996503195092
 20
326.7681423739819
 30
0.0
 10
2921.997295783236
 20
328.9999957170733
 30
0.0
 10
2921.99808837138
 20
331.2318490601647
 30
0.0
 10
2926.197289315418
 20
331.2257352439618
 30
0.0
 10
2926.197299405441
 20
328.9999999999999
 30
0.0
  0
SPLINE
  5
6E
330
1F
100
AcDbEntity
  8
0
  6
Continuous
 62
     7
370
    25
100
AcDbSpline
210
0.0
220
0.0
230
1.0
 70
    11
 71
     3
 72
    11
 73
     7
 74
     0
 42
0.00000001
 43
0.00000001
 40
0.0
 40
0.0
 40
0.0
 40
0.0
 40
1.0
 40
1.0
 40
1.0
 40
2.0
 40
2.0
 40
2.0
 40
2.0
 10
1764.561999814066
 20
328.9999999999998
 30
0.0
 10
1764.562009922762
 20
326.7701497126054
 30
0.0
 10
1760.361203603968
 20
326.7681423752496
 30
0.0
 10
1760.361996191863
 20
328.9999957170733
 30
0.0
 10
1760.362788779759
 20
331.231849058897
 30
0.0
 10
1764.561989724026
 20
331.2257352449982
 30
0.0
 10
1764.561999814066
 20
328.9999999999998
 30
0.0
  0
SPLINE
  5
6F
330
1F
100
AcDbEntity
  8
0
  6
Continuous
 62
     7
370
    25
100
AcDbSpline
210
0.0
220
0.0
230
1.0
 70
    11
 71
     3
 72
    11
 73
     7
 74
     0
 42
0.00000001
 43
0.00000001
 40
0.0
 40
0.0
 40
0.0
 40
0.0
 40
1.0
 40
1.0
 40
1.0
 40
2.0
 40
2.0
 40
2.0
 40
2.0
 10
602.9267002227056
 20
328.9999999999999
 30
0.0
 10
602.9267103313767
 20
326.7701497122698
 30
0.0
 10
598.725904012358
 20
326.7681423738914
 30
0.0
 10
598.7266966005018
 20
328.9999957170734
 30
0.0
 10
598.7274891886456
 20
331.2318490602554
 30
0.0
 10
602.9266901326896
 20
331.2257352454536
 30
0.0
 10
602.9267002227056
 20
328.9999999999999
 30
0.0
  0
SPLINE
  5
70
330
1F
100
AcDbEntity
  8
0
  6
Continuous
 62
     7
370
    25
100
AcDbSpline
210
0.0
220
0.0
230
1.0
 70
    11
 71
     3
 72
    11
 73
     7
 74
     0
 42
0.00000001
 43
0.00000001
 40
0.0
 40
0.0
 40
0.0
 40
0.0
 40
1.0
 40
1.0
 40
1.0
 40
2.0
 40
2.0
 40
2.0
 40
2.0
 10
2345.379649609756
 20
448.9999999999999
 30
0.0
 10
2345.379659718444
 20
446.7701497127006
 30
0.0
 10
2341.178853399574
 20
446.7681423744565
 30
0.0
 10
2341.179645987552
 20
448.9999957170733
 30
0.0
 10
2341.180438575531
 20
451.2318490596901
 30
0.0
 10
2345.379639519723
 20
451.2257352446096
 30
0.0
 10
2345.379649609756
 20
448.9999999999999
 30
0.0
  0
SPLINE
  5
71
330
1F
100
AcDbEntity
  8
0
  6
Continuous
 62
     7
370
    25
100
AcDbSpline
210
0.0
220
0.0
230
1.0
 70
    11
 71
     3
 72
    11
 73
     7
 74
     0
 42
0.00000001
 43
0.00000001
 40
0.0
 40
0.0
 40
0.0
 40
0.0
 40
1.0
 40
1.0
 40
1.0
 40
2.0
 40
2.0
 40
2.0
 40
2.0
 10
1183.744350018388
 20
448.9999999999999
 30
0.0
 10
1183.74436012707
 20
446.7701497125263
 30
0.0
 10
1179.543553807875
 20
446.7681423732543
 30
0.0
 10
1179.544346396184
 20
448.9999957170734
 30
0.0
 10
1179.545138984494
 20
451.2318490608925
 30
0.0
 10
1183.744339928362
 20
451.2257352436335
 30
0.0
 10
1183.744350018388
 20
448.9999999999999
 30
0.0
  0
SPLINE
  5
72
330
1F
100
AcDbEntity
  8
0
  6
Continuous
 62
     7
370
    25
100
AcDbSpline
210
0.0
220
0.0
230
1.0
 70
    11
 71
     3
 72
    11
 73
     7
 74
     0
 42
0.00000001
 43
0.00000001
 40
0.0
 40
0.0
 40
0.0
 40
0.0
 40
1.0
 40
1.0
 40
1.0
 40
2.0
 40
2.0
 40
2.0
 40
2.0
 10
2926.197299405441
 20
568.9999999999998
 30
0.0
 10
2926.197309514139
 20
566.7701497104374
 30
0.0
 10
2921.996503194431
 20
566.7681423724638
 30
0.0
 10
2921.997295783237
 20
568.9999957170736
 30
0.0
 10
2921.998088372042
 20
571.2318490616834
 30
0.0
 10
2926.197289315397
 20
571.2257352391423
 30
0.0
 10
2926.197299405441
 20
568.9999999999998
 30
0.0
  0
SPLINE
  5
73
330
1F
100
AcDbEntity
  8
0
  6
Continuous
 62
     7
370
    25
100
AcDbSpline
210
0.0
220
0.0
230
1.0
 70
    11
 71
     3
 72
    11
 73
     7
 74
     0
 42
0.00000001
 43
0.00000001
 40
0.0
 40
0.0
 40
0.0
 40
0.0
 40
1.0
 40
1.0
 40
1.0
 40
2.0
 40
2.0
 40
2.0
 40
2.0
 10
1764.561999814066
 20
568.9999999999999
 30
0.0
 10
1764.562009922734
 20
566.7701497131683
 30
0.0
 10
1760.361203602974
 20
566.7681423710387
 30
0.0
 10
1760.361996191863
 20
568.9999957170735
 30
0.0
 10
1760.362788780752
 20
571.2318490631083
 30
0.0
 10
1764.561989724054
 20
571.2257352438857
 30
0.0
 10
1764.561999814066
 20
568.9999999999999
 30
0.0
  0
SPLINE
  5
74
330
1F
100
AcDbEntity
  8
0
  6
Continuous
 62
     7
370
    25
100
AcDbSpline
210
0.0
220
0.0
230
1.0
 70
    11
 71
     3
 72
    11
 73
     7
 74
     0
 42
0.00000001
 43
0.00000001
 40
0.0
 40
0.0
 40
0.0
 40
0.0
 40
1.0
 40
1.0
 40
1.0
 40
2.0
 40
2.0
 40
2.0
 40
2.0
 10
602.9267002227056
 20
569.0
 30
0.0
 10
602.9267103313767
 20
566.7701497125166
 30
0.0
 10
598.725904012358
 20
566.7681423741236
 30
0.0
 10
598.7266966005018
 20
568.9999957170735
 30
0.0
 10
598.7274891886456
 20
571.2318490600234
 30
0.0
 10
602.9266901326896
 20
571.2257352454535
 30
0.0
 10
602.9267002227056
 20
569.0
 30
0.0
  0
SPLINE
  5
75
330
1F
100
AcDbEntity
  8
0
  6
Continuous
 62
     7
370
    25
100
AcDbSpline
210
0.0
220
0.0
230
1.0
 70
    11
 71
     3
 72
    11
 73
     7
 74
     0
 42
0.00000001
 43
0.00000001
 40
0.0
 40
0.0
 40
0.0
 40
0.0
 40
1.0
 40
1.0
 40
1.0
 40
2.0
 40
2.0
 40
2.0
 40
2.0
 10
2345.379649609756
 20
689.0
 30
0.0
 10
2345.379659718437
 20
686.7701497134009
 30
0.0
 10
2341.178853399574
 20
686.7681423732614
 30
0.0
 10
2341.179645987553
 20
688.9999957170734
 30
0.0
 10
2341.180438575531
 20
691.2318490608853
 30
0.0
 10
2345.37963951973
 20
691.2257352457161
 30
0.0
 10
2345.379649609756
 20
689.0
 30
0.0
  0
SPLINE
  5
76
330
1F
100
AcDbEntity
  8
0
  6
Continuous
 62
     7
370
    25
100
AcDbSpline
210
0.0
220
0.0
230
1.0
 70
    11
 71
     3
 72
    11
 73
     7
 74
     0
 42
0.00000001
 43
0.00000001
 40
0.0
 40
0.0
 40
0.0
 40
0.0
 40
1.0
 40
1.0
 40
1.0
 40
2.0
 40
2.0
 40
2.0
 40
2.0
 10
1183.744350018388
 20
688.9999999999999
 30
0.0
 10
1183.744360127051
 20
686.7701497130964
 30
0.0
 10
1179.54355380804
 20
686.7681423744906
 30
0.0
 10
1179.544346396184
 20
688.9999957170735
 30
0.0
 10
1179.545138984328
 20
691.2318490596564
 30
0.0
 10
1183.74433992838
 20
691.2257352448721
 30
0.0
 10
1183.744350018388
 20
688.9999999999999
 30
0.0
  0
SPLINE
  5
77
330
1F
100
AcDbEntity
  8
0
  6
Continuous
 62
     7
370
    25
100
AcDbSpline
210
0.0
220
0.0
230
1.0
 70
    11
 71
     3
 72
    11
 73
     7
 74
     0
 42
0.00000001
 43
0.00000001
 40
0.0
 40
0.0
 40
0.0
 40
0.0
 40
1.0
 40
1.0
 40
1.0
 40
2.0
 40
2.0
 40
2.0
 40
2.0
 10
2926.197299405441
 20
808.9999999999999
 30
0.0
 10
2926.197309514139
 20
806.7701497106023
 30
0.0
 10
2921.996503194431
 20
806.768142372464
 30
0.0
 10
2921.997295783237
 20
808.9999957170736
 30
0.0
 10
2921.998088372042
 20
811.2318490616832
 30
0.0
 10
2926.197289315397
 20
811.2257352391418
 30
0.0
 10
2926.197299405441
 20
808.9999999999999
 30
0.0
  0
SPLINE
  5
78
330
1F
100
AcDbEntity
  8
0
  6
Continuous
 62
     7
370
    25
100
AcDbSpline
210
0.0
220
0.0
230
1.0
 70
    11
 71
     3
 72
    11
 73
     7
 74
     0
 42
0.00000001
 43
0.00000001
 40
0.0
 40
0.0
 40
0.0
 40
0.0
 40
1.0
 40
1.0
 40
1.0
 40
2.0
 40
2.0
 40
2.0
 40
2.0
 10
1764.561999814066
 20
808.9999999999998
 30
0.0
 10
1764.562009922734
 20
806.7701497130033
 30
0.0
 10
1760.361203602974
 20
806.7681423710387
 30
0.0
 10
1760.361996191863
 20
808.9999957170735
 30
0.0
 10
1760.362788780752
 20
811.2318490631083
 30
0.0
 10
1764.561989724054
 20
811.225735245847
 30
0.0
 10
1764.561999814066
 20
808.9999999999998
 30
0.0
  0
SPLINE
  5
79
330
1F
100
AcDbEntity
  8
0
  6
Continuous
 62
     7
370
    25
100
AcDbSpline
210
0.0
220
0.0
230
1.0
 70
    11
 71
     3
 72
    11
 73
     7
 74
     0
 42
0.00000001
 43
0.00000001
 40
0.0
 40
0.0
 40
0.0
 40
0.0
 40
1.0
 40
1.0
 40
1.0
 40
2.0
 40
2.0
 40
2.0
 40
2.0
 10
602.9267002227056
 20
809.0
 30
0.0
 10
602.9267103313767
 20
806.7701497124191
 30
0.0
 10
598.725904012358
 20
806.7681423742889
 30
0.0
 10
598.7266966005018
 20
808.9999957170735
 30
0.0
 10
598.7274891886456
 20
811.2318490598581
 30
0.0
 10
602.9266901326896
 20
811.2257352446544
 30
0.0
 10
602.9267002227056
 20
809.0
 30
0.0
  0
SPLINE
  5
7A
330
1F
100
AcDbEntity
  8
0
  6
Continuous
 62
     7
370
    25
100
AcDbSpline
210
0.0
220
0.0
230
1.0
 70
    11
 71
     3
 72
    11
 73
     7
 74
     0
 42
0.00000001
 43
0.00000001
 40
0.0
 40
0.0
 40
0.0
 40
0.0
 40
1.0
 40
1.0
 40
1.0
 40
2.0
 40
2.0
 40
2.0
 40
2.0
 10
2345.379649609756
 20
929.0
 30
0.0
 10
2345.379659718437
 20
926.7701497135658
 30
0.0
 10
2341.178853399904
 20
926.7681423740593
 30
0.0
 10
2341.179645987553
 20
928.9999957170735
 30
0.0
 10
2341.180438575201
 20
931.2318490600877
 30
0.0
 10
2345.37963951973
 20
931.2257352430868
 30
0.0
 10
2345.379649609756
 20
929.0
 30
0.0
  0
SPLINE
  5
7B
330
1F
100
AcDbEntity
  8
0
  6
Continuous
 62
     7
370
    25
100
AcDbSpline
210
0.0
220
0.0
230
1.0
 70
    11
 71
     3
 72
    11
 73
     7
 74
     0
 42
0.00000001
 43
0.00000001
 40
0.0
 40
0.0
 40
0.0
 40
0.0
 40
1.0
 40
1.0
 40
1.0
 40
2.0
 40
2.0
 40
2.0
 40
2.0
 10
1183.744350018388
 20
928.9999999999998
 30
0.0
 10
1183.744360127051
 20
926.7701497129315
 30
0.0
 10
1179.54355380804
 20
926.7681423743252
 30
0.0
 10
1179.544346396184
 20
928.9999957170734
 30
0.0
 10
1179.545138984328
 20
931.2318490598216
 30
0.0
 10
1183.74433992838
 20
931.2257352450371
 30
0.0
 10
1183.744350018388
 20
928.9999999999998
 30
0.0
  0
SPLINE
  5
7C
330
1F
100
AcDbEntity
  8
0
  6
Continuous
 62
     7
370
    25
100
AcDbSpline
210
0.0
220
0.0
230
1.0
 70
    11
 71
     3
 72
    11
 73
     7
 74
     0
 42
0.00000001
 43
0.00000001
 40
0.0
 40
0.0
 40
0.0
 40
0.0
 40
1.0
 40
1.0
 40
1.0
 40
2.0
 40
2.0
 40
2.0
 40
2.0
 10
2926.197299405441
 20
1049.0
 30
0.0
 10
2926.1973095141
 20
1046.770149712723
 30
0.0
 10
2921.996503195092
 20
1046.76814237423
 30
0.0
 10
2921.997295783236
 20
1048.999995717073
 30
0.0
 10
2921.99808837138
 20
1051.231849059917
 30
0.0
 10
2926.197289315436
 20
1051.2257352424
 30
0.0
 10
2926.197299405441
 20
1049.0
 30
0.0
  0
SPLINE
  5
7D
330
1F
100
AcDbEntity
  8
0
  6
Continuous
 62
     7
370
    25
100
AcDbSpline
210
0.0
220
0.0
230
1.0
 70
    11
 71
     3
 72
    11
 73
     7
 74
     0
 42
0.00000001
 43
0.00000001
 40
0.0
 40
0.0
 40
0.0
 40
0.0
 40
1.0
 40
1.0
 40
1.0
 40
2.0
 40
2.0
 40
2.0
 40
2.0
 10
1764.561999814067
 20
1049.0
 30
0.0
 10
1764.562009922729
 20
1046.770149710734
 30
0.0
 10
1760.361203604381
 20
1046.768142375281
 30
0.0
 10
1760.361996191863
 20
1048.999995717074
 30
0.0
 10
1760.362788779346
 20
1051.231849058867
 30
0.0
 10
1764.561989724058
 20
1051.225735242351
 30
0.0
 10
1764.561999814067
 20
1049.0
 30
0.0
  0
SPLINE
  5
7E
330
1F
100
AcDbEntity
  8
0
  6
Continuous
 62
     7
370
    25
100
AcDbSpline
210
0.0
220
0.0
230
1.0
 70
    11
 71
     3
 72
    11
 73
     7
 74
     0
 42
0.00000001
 43
0.00000001
 40
0.0
 40
0.0
 40
0.0
 40
0.0
 40
1.0
 40
1.0
 40
1.0
 40
2.0
 40
2.0
 40
2.0
 40
2.0
 10
602.9267002227056
 20
1049.0
 30
0.0
 10
602.9267103313774
 20
1046.770149712287
 30
0.0
 10
598.7259040123582
 20
1046.768142373819
 30
0.0
 10
598.7266966005021
 20
1048.999995717074
 30
0.0
 10
598.727489188646
 20
1051.231849060328
 30
0.0
 10
602.9266901326885
 20
1051.225735244161
 30
0.0
 10
602.9267002227056
 20
1049.0
 30
0.0
  0
LINE
  5
7F
330
1F
100
AcDbEntity
  8
0
  6
Continuous
 62
     7
370
    25
100
AcDbLine
 10
2947.1815808475
 20
-56.0
 30
0.0
 11
2947.1815808475
 21
1194.0
 31
0.0
  0
LINE
  5
80
330
1F
100
AcDbEntity
  8
0
  6
Continuous
 62
     7
370
    25
100
AcDbLine
 10
2947.1815808475
 20
1194.0
 30
0.0
 11
0.0
 21
1194.0
 31
0.0
  0
LINE
  5
81
330
1F
100
AcDbEntity
  8
0
  6
Continuous
 62
     7
370
    25
100
AcDbLine
 10
0.0
 20
1194.0
 30
0.0
 11
0.0
 21
415.0
 31
0.0
  0
LINE
  5
82
330
1F
100
AcDbEntity
  8
0
  6
Continuous
 62
     7
370
    25
100
AcDbLine
 10
0.0
 20
415.0
 30
0.0
 11
574.0913398913
 21
415.0
 31
0.0
  0
LINE
  5
83
330
1F
100
AcDbEntity
  8
0
  6
Continuous
 62
     7
370
    25
100
AcDbLine
 10
574.0913398913
 20
415.0
 30
0.0
 11
574.0913398913
 21
-56.0
 31
0.0
  0
LINE
  5
84
330
1F
100
AcDbEntity
  8
0
  6
Continuous
 62
     7
370
    25
100
AcDbLine
 10
574.0913398913
 20
-56.0
 30
0.0
 11
2947.1815808475
 21
-56.0
 31
0.0
  0
SPLINE
  5
85
330
1F
100
AcDbEntity
  8
0
  6
Continuous
 62
     7
370
    25
100
AcDbSpline
210
0.0
220
0.0
230
1.0
 70
    11
 71
     3
 72
    11
 73
     7
 74
     0
 42
0.00000001
 43
0.00000001
 40
0.0
 40
0.0
 40
0.0
 40
0.0
 40
1.0
 40
1.0
 40
1.0
 40
2.0
 40
2.0
 40
2.0
 40
2.0
 10
1183.744350018388
 20
1049.0
 30
0.0
 10
1183.744360127051
 20
1046.770149712931
 30
0.0
 10
1179.543553808702
 20
1046.768142375286
 30
0.0
 10
1179.544346396184
 20
1048.999995717073
 30
0.0
 10
1179.545138983667
 20
1051.231849058861
 30
0.0
 10
1183.74433992838
 20
1051.225735244807
 30
0.0
 10
1183.744350018388
 20
1049.0
 30
0.0
  0
SPLINE
  5
86
330
1F
100
AcDbEntity
  8
0
  6
Continuous
 62
     7
370
    25
100
AcDbSpline
210
0.0
220
0.0
230
1.0
 70
    11
 71
     3
 72
    11
 73
     7
 74
     0
 42
0.00000001
 43
0.00000001
 40
0.0
 40
0.0
 40
0.0
 40
0.0
 40
1.0
 40
1.0
 40
1.0
 40
2.0
 40
2.0
 40
2.0
 40
2.0
 10
2345.379649609757
 20
1049.0
 30
0.0
 10
2345.379659718434
 20
1046.770149713177
 30
0.0
 10
2341.178853400071
 20
1046.768142377016
 30
0.0
 10
2341.179645987553
 20
1048.999995717074
 30
0.0
 10
2341.180438575035
 20
1051.231849057132
 30
0.0
 10
2345.379639519734
 20
1051.225735244491
 30
0.0
 10
2345.379649609757
 20
1049.0
 30
0.0
  0
SPLINE
  5
87
330
1F
100
AcDbEntity
  8
0
  6
Continuous
 62
     7
370
    25
100
AcDbSpline
210
0.0
220
0.0
230
1.0
 70
    11
 71
     3
 72
    11
 73
     7
 74
     0
 42
0.00000001
 43
0.00000001
 40
0.0
 40
0.0
 40
0.0
 40
0.0
 40
1.0
 40
1.0
 40
1.0
 40
2.0
 40
2.0
 40
2.0
 40
2.0
 10
602.9267002227056
 20
928.9999999999998
 30
0.0
 10
602.9267103313767
 20
926.7701497123516
 30
0.0
 10
598.725904012358
 20
926.7681423742879
 30
0.0
 10
598.7266966005018
 20
928.9999957170733
 30
0.0
 10
598.7274891886456
 20
931.2318490598586
 30
0.0
 10
602.9266901326896
 20
931.2257352456179
 30
0.0
 10
602.9267002227056
 20
928.9999999999998
 30
0.0
  0
SPLINE
  5
88
330
1F
100
AcDbEntity
  8
0
  6
Continuous
 62
     7
370
    25
100
AcDbSpline
210
0.0
220
0.0
230
1.0
 70
    11
 71
     3
 72
    11
 73
     7
 74
     0
 42
0.00000001
 43
0.00000001
 40
0.0
 40
0.0
 40
0.0
 40
0.0
 40
1.0
 40
1.0
 40
1.0
 40
2.0
 40
2.0
 40
2.0
 40
2.0
 10
1764.561999814066
 20
928.9999999999997
 30
0.0
 10
1764.562009922734
 20
926.7701497130039
 30
0.0
 10
1760.361203602974
 20
926.7681423708731
 30
0.0
 10
1760.361996191863
 20
928.9999957170734
 30
0.0
 10
1760.362788780752
 20
931.2318490632736
 30
0.0
 10
1764.561989724054
 20
931.2257352446492
 30
0.0
 10
1764.561999814066
 20
928.9999999999997
 30
0.0
  0
SPLINE
  5
89
330
1F
100
AcDbEntity
  8
0
  6
Continuous
 62
     7
370
    25
100
AcDbSpline
210
0.0
220
0.0
230
1.0
 70
    11
 71
     3
 72
    11
 73
     7
 74
     0
 42
0.00000001
 43
0.00000001
 40
0.0
 40
0.0
 40
0.0
 40
0.0
 40
1.0
 40
1.0
 40
1.0
 40
2.0
 40
2.0
 40
2.0
 40
2.0
 10
2926.197299405441
 20
928.9999999999998
 30
0.0
 10
2926.197309514139
 20
926.7701497102721
 30
0.0
 10
2921.996503194431
 20
926.7681423726275
 30
0.0
 10
2921.997295783237
 20
928.9999957170735
 30
0.0
 10
2921.998088372042
 20
931.2318490615195
 30
0.0
 10
2926.197289315397
 20
931.2257352405735
 30
0.0
 10
2926.197299405441
 20
928.9999999999998
 30
0.0
  0
SPLINE
  5
8A
330
1F
100
AcDbEntity
  8
0
  6
Continuous
 62
     7
370
    25
100
AcDbSpline
210
0.0
220
0.0
230
1.0
 70
    11
 71
     3
 72
    11
 73
     7
 74
     0
 42
0.00000001
 43
0.00000001
 40
0.0
 40
0.0
 40
0.0
 40
0.0
 40
1.0
 40
1.0
 40
1.0
 40
2.0
 40
2.0
 40
2.0
 40
2.0
 10
1183.744350018388
 20
808.9999999999999
 30
0.0
 10
1183.744360127051
 20
806.7701497130965
 30
0.0
 10
1179.543553807709
 20
806.7681423740224
 30
0.0
 10
1179.544346396184
 20
808.9999957170735
 30
0.0
 10
1179.545138984658
 20
811.2318490601245
 30
0.0
 10
1183.74433992838
 20
811.2257352438733
 30
0.0
 10
1183.744350018388
 20
808.9999999999999
 30
0.0
  0
SPLINE
  5
8B
330
1F
100
AcDbEntity
  8
0
  6
Continuous
 62
     7
370
    25
100
AcDbSpline
210
0.0
220
0.0
230
1.0
 70
    11
 71
     3
 72
    11
 73
     7
 74
     0
 42
0.00000001
 43
0.00000001
 40
0.0
 40
0.0
 40
0.0
 40
0.0
 40
1.0
 40
1.0
 40
1.0
 40
2.0
 40
2.0
 40
2.0
 40
2.0
 10
2345.379649609756
 20
808.9999999999999
 30
0.0
 10
2345.379659718437
 20
806.770149713168
 30
0.0
 10
2341.178853399905
 20
806.7681423750862
 30
0.0
 10
2341.179645987553
 20
808.9999957170735
 30
0.0
 10
2341.1804385752
 20
811.2318490590608
 30
0.0
 10
2345.37963951973
 20
811.2257352437202
 30
0.0
 10
2345.379649609756
 20
808.9999999999999
 30
0.0
  0
SPLINE
  5
8C
330
1F
100
AcDbEntity
  8
0
  6
Continuous
 62
     7
370
    25
100
AcDbSpline
210
0.0
220
0.0
230
1.0
 70
    11
 71
     3
 72
    11
 73
     7
 74
     0
 42
0.00000001
 43
0.00000001
 40
0.0
 40
0.0
 40
0.0
 40
0.0
 40
1.0
 40
1.0
 40
1.0
 40
2.0
 40
2.0
 40
2.0
 40
2.0
 10
602.9267002227056
 20
689.0
 30
0.0
 10
602.9267103313767
 20
686.770149712682
 30
0.0
 10
598.725904012358
 20
686.7681423742883
 30
0.0
 10
598.7266966005018
 20
688.9999957170734
 30
0.0
 10
598.7274891886456
 20
691.2318490598584
 30
0.0
 10
602.9266901326896
 20
691.2257352454535
 30
0.0
 10
602.9267002227056
 20
689.0
 30
0.0
  0
SPLINE
  5
8D
330
1F
100
AcDbEntity
  8
0
  6
Continuous
 62
     7
370
    25
100
AcDbSpline
210
0.0
220
0.0
230
1.0
 70
    11
 71
     3
 72
    11
 73
     7
 74
     0
 42
0.00000001
 43
0.00000001
 40
0.0
 40
0.0
 40
0.0
 40
0.0
 40
1.0
 40
1.0
 40
1.0
 40
2.0
 40
2.0
 40
2.0
 40
2.0
 10
1764.561999814066
 20
688.9999999999999
 30
0.0
 10
1764.562009922734
 20
686.7701497133331
 30
0.0
 10
1760.361203602974
 20
686.7681423707083
 30
0.0
 10
1760.361996191863
 20
688.9999957170735
 30
0.0
 10
1760.362788780752
 20
691.2318490634386
 30
0.0
 10
1764.561989724054
 20
691.2257352444848
 30
0.0
 10
1764.561999814066
 20
688.9999999999999
 30
0.0
  0
SPLINE
  5
8E
330
1F
100
AcDbEntity
  8
0
  6
Continuous
 62
     7
370
    25
100
AcDbSpline
210
0.0
220
0.0
230
1.0
 70
    11
 71
     3
 72
    11
 73
     7
 74
     0
 42
0.00000001
 43
0.00000001
 40
0.0
 40
0.0
 40
0.0
 40
0.0
 40
1.0
 40
1.0
 40
1.0
 40
2.0
 40
2.0
 40
2.0
 40
2.0
 10
2926.197299405441
 20
688.9999999999999
 30
0.0
 10
2926.197309514139
 20
686.770149713618
 30
0.0
 10
2921.996503194431
 20
686.7681423726277
 30
0.0
 10
2921.997295783237
 20
688.9999957170735
 30
0.0
 10
2921.998088372042
 20
691.2318490615193
 30
0.0
 10
2926.197289315397
 20
691.225735240738
 30
0.0
 10
2926.197299405441
 20
688.9999999999999
 30
0.0
  0
SPLINE
  5
8F
330
1F
100
AcDbEntity
  8
0
  6
Continuous
 62
     7
370
    25
100
AcDbSpline
210
0.0
220
0.0
230
1.0
 70
    11
 71
     3
 72
    11
 73
     7
 74
     0
 42
0.00000001
 43
0.00000001
 40
0.0
 40
0.0
 40
0.0
 40
0.0
 40
1.0
 40
1.0
 40
1.0
 40
2.0
 40
2.0
 40
2.0
 40
2.0
 10
1183.744350018388
 20
569.0
 30
0.0
 10
1183.744360127051
 20
566.7701497123687
 30
0.0
 10
1179.54355380804
 20
566.7681423744232
 30
0.0
 10
1179.544346396184
 20
568.9999957170735
 30
0.0
 10
1179.545138984328
 20
571.2318490597238
 30
0.0
 10
1183.74433992838
 20
571.2257352443073
 30
0.0
 10
1183.744350018388
 20
569.0
 30
0.0
  0
SPLINE
  5
90
330
1F
100
AcDbEntity
  8
0
  6
Continuous
 62
     7
370
    25
100
AcDbSpline
210
0.0
220
0.0
230
1.0
 70
    11
 71
     3
 72
    11
 73
     7
 74
     0
 42
0.00000001
 43
0.00000001
 40
0.0
 40
0.0
 40
0.0
 40
0.0
 40
1.0
 40
1.0
 40
1.0
 40
2.0
 40
2.0
 40
2.0
 40
2.0
 10
2345.379649609756
 20
569.0
 30
0.0
 10
2345.379659718437
 20
566.770149713236
 30
0.0
 10
2341.178853399573
 20
566.7681423732612
 30
0.0
 10
2341.179645987553
 20
568.9999957170735
 30
0.0
 10
2341.180438575532
 20
571.2318490608858
 30
0.0
 10
2345.37963951973
 20
571.2257352458801
 30
0.0
 10
2345.379649609756
 20
569.0
 30
0.0
  0
SPLINE
  5
91
330
1F
100
AcDbEntity
  8
0
  6
Continuous
 62
     7
370
    25
100
AcDbSpline
210
0.0
220
0.0
230
1.0
 70
    11
 71
     3
 72
    11
 73
     7
 74
     0
 42
0.00000001
 43
0.00000001
 40
0.0
 40
0.0
 40
0.0
 40
0.0
 40
1.0
 40
1.0
 40
1.0
 40
2.0
 40
2.0
 40
2.0
 40
2.0
 10
602.9267002227056
 20
449.0
 30
0.0
 10
602.9267103313767
 20
446.7701497122693
 30
0.0
 10
598.725904012358
 20
446.7681423739734
 30
0.0
 10
598.7266966005018
 20
448.9999957170734
 30
0.0
 10
598.7274891886456
 20
451.2318490601734
 30
0.0
 10
602.9266901326896
 20
451.2257352453708
 30
0.0
 10
602.9267002227056
 20
449.0
 30
0.0
  0
SPLINE
  5
92
330
1F
100
AcDbEntity
  8
0
  6
Continuous
 62
     7
370
    25
100
AcDbSpline
210
0.0
220
0.0
230
1.0
 70
    11
 71
     3
 72
    11
 73
     7
 74
     0
 42
0.00000001
 43
0.00000001
 40
0.0
 40
0.0
 40
0.0
 40
0.0
 40
1.0
 40
1.0
 40
1.0
 40
2.0
 40
2.0
 40
2.0
 40
2.0
 10
1764.561999814066
 20
448.9999999999998
 30
0.0
 10
1764.562009922762
 20
446.7701497126054
 30
0.0
 10
1760.361203603968
 20
446.7681423759617
 30
0.0
 10
1760.361996191863
 20
448.9999957170733
 30
0.0
 10
1760.362788779759
 20
451.231849058185
 30
0.0
 10
1764.561989724026
 20
451.2257352449985
 30
0.0
 10
1764.561999814066
 20
448.9999999999998
 30
0.0
  0
SPLINE
  5
93
330
1F
100
AcDbEntity
  8
0
  6
Continuous
 62
     7
370
    25
100
AcDbSpline
210
0.0
220
0.0
230
1.0
 70
    11
 71
     3
 72
    11
 73
     7
 74
     0
 42
0.00000001
 43
0.00000001
 40
0.0
 40
0.0
 40
0.0
 40
0.0
 40
1.0
 40
1.0
 40
1.0
 40
2.0
 40
2.0
 40
2.0
 40
2.0
 10
2926.197299405441
 20
448.9999999999999
 30
0.0
 10
2926.197309514118
 20
446.770149714185
 30
0.0
 10
2921.996503195092
 20
446.7681423740646
 30
0.0
 10
2921.997295783236
 20
448.9999957170733
 30
0.0
 10
2921.99808837138
 20
451.2318490600821
 30
0.0
 10
2926.197289315418
 20
451.2257352448429
 30
0.0
 10
2926.197299405441
 20
448.9999999999999
 30
0.0
  0
SPLINE
  5
94
330
1F
100
AcDbEntity
  8
0
  6
Continuous
 62
     7
370
    25
100
AcDbSpline
210
0.0
220
0.0
230
1.0
 70
    11
 71
     3
 72
    11
 73
     7
 74
     0
 42
0.00000001
 43
0.00000001
 40
0.0
 40
0.0
 40
0.0
 40
0.0
 40
1.0
 40
1.0
 40
1.0
 40
2.0
 40
2.0
 40
2.0
 40
2.0
 10
1183.744350018388
 20
328.9999999999999
 30
0.0
 10
1183.74436012707
 20
326.7701497122938
 30
0.0
 10
1179.543553807875
 20
326.7681423732544
 30
0.0
 10
1179.544346396184
 20
328.9999957170734
 30
0.0
 10
1179.545138984494
 20
331.2318490608926
 30
0.0
 10
1183.744339928362
 20
331.2257352442798
 30
0.0
 10
1183.744350018388
 20
328.9999999999999
 30
0.0
  0
SPLINE
  5
95
330
1F
100
AcDbEntity
  8
0
  6
Continuous
 62
     7
370
    25
100
AcDbSpline
210
0.0
220
0.0
230
1.0
 70
    11
 71
     3
 72
    11
 73
     7
 74
     0
 42
0.00000001
 43
0.00000001
 40
0.0
 40
0.0
 40
0.0
 40
0.0
 40
1.0
 40
1.0
 40
1.0
 40
2.0
 40
2.0
 40
2.0
 40
2.0
 10
2345.379649609756
 20
329.0000000000001
 30
0.0
 10
2345.379659718444
 20
326.7701497127824
 30
0.0
 10
2341.178853399574
 20
326.7681423745388
 30
0.0
 10
2341.179645987552
 20
328.9999957170733
 30
0.0
 10
2341.180438575531
 20
331.2318490596078
 30
0.0
 10
2345.379639519723
 20
331.2257352437286
 30
0.0
 10
2345.379649609756
 20
329.0000000000001
 30
0.0
  0
SPLINE
  5
96
330
1F
100
AcDbEntity
  8
0
  6
Continuous
 62
     7
370
    25
100
AcDbSpline
210
0.0
220
0.0
230
1.0
 70
    11
 71
     3
 72
    11
 73
     7
 74
     0
 42
0.00000001
 43
0.00000001
 40
0.0
 40
0.0
 40
0.0
 40
0.0
 40
1.0
 40
1.0
 40
1.0
 40
2.0
 40
2.0
 40
2.0
 40
2.0
 10
602.9267002227056
 20
209.0000000000001
 30
0.0
 10
602.9267103313703
 20
206.7701497127339
 30
0.0
 10
598.7259040123582
 20
206.7681423734885
 30
0.0
 10
598.7266966005021
 20
208.9999957170734
 30
0.0
 10
598.727489188646
 20
211.2318490606583
 30
0.0
 10
602.9266901326955
 20
211.2257352446385
 30
0.0
 10
602.9267002227056
 20
209.0000000000001
 30
0.0
  0
SPLINE
  5
97
330
1F
100
AcDbEntity
  8
0
  6
Continuous
 62
     7
370
    25
100
AcDbSpline
210
0.0
220
0.0
230
1.0
 70
    11
 71
     3
 72
    11
 73
     7
 74
     0
 42
0.00000001
 43
0.00000001
 40
0.0
 40
0.0
 40
0.0
 40
0.0
 40
1.0
 40
1.0
 40
1.0
 40
2.0
 40
2.0
 40
2.0
 40
2.0
 10
1764.561999814067
 20
209.0000000000001
 30
0.0
 10
1764.562009922734
 20
206.7701497125474
 30
0.0
 10
1760.361203603637
 20
206.7681423742861
 30
0.0
 10
1760.361996191863
 20
208.9999957170734
 30
0.0
 10
1760.36278878009
 20
211.2318490598607
 30
0.0
 10
1764.561989724056
 20
211.2257352462372
 30
0.0
 10
1764.561999814067
 20
209.0000000000001
 30
0.0
  0
SPLINE
  5
98
330
1F
100
AcDbEntity
  8
0
  6
Continuous
 62
     7
370
    25
100
AcDbSpline
210
0.0
220
0.0
230
1.0
 70
    11
 71
     3
 72
    11
 73
     7
 74
     0
 42
0.00000001
 43
0.00000001
 40
0.0
 40
0.0
 40
0.0
 40
0.0
 40
1.0
 40
1.0
 40
1.0
 40
2.0
 40
2.0
 40
2.0
 40
2.0
 10
2926.197299405442
 20
209.0000000000001
 30
0.0
 10
2926.197309514097
 20
206.7701497141615
 30
0.0
 10
2921.996503194431
 20
206.7681423732552
 30
0.0
 10
2921.997295783237
 20
208.9999957170734
 30
0.0
 10
2921.998088372042
 20
211.2318490608916
 30
0.0
 10
2926.19728931544
 20
211.225735242058
 30
0.0
 10
2926.197299405442
 20
209.0000000000001
 30
0.0
  0
SPLINE
  5
99
330
1F
100
AcDbEntity
  8
0
  6
Continuous
 62
     7
370
    25
100
AcDbSpline
210
0.0
220
0.0
230
1.0
 70
    11
 71
     3
 72
    11
 73
     7
 74
     0
 42
0.00000001
 43
0.00000001
 40
0.0
 40
0.0
 40
0.0
 40
0.0
 40
1.0
 40
1.0
 40
1.0
 40
2.0
 40
2.0
 40
2.0
 40
2.0
 10
1183.744350018388
 20
88.99999999999997
 30
0.0
 10
1183.744360127069
 20
86.77014971201139
 30
0.0
 10
1179.543553807544
 20
86.76814237306166
 30
0.0
 10
1179.544346396184
 20
88.99999571707352
 30
0.0
 10
1179.545138984824
 20
91.23184906108536
 30
0.0
 10
1183.744339928362
 20
91.22573524507827
 30
0.0
 10
1183.744350018388
 20
88.99999999999997
 30
0.0
  0
SPLINE
  5
9A
330
1F
100
AcDbEntity
  8
0
  6
Continuous
 62
     7
370
    25
100
AcDbSpline
210
0.0
220
0.0
230
1.0
 70
    11
 71
     3
 72
    11
 73
     7
 74
     0
 42
0.00000001
 43
0.00000001
 40
0.0
 40
0.0
 40
0.0
 40
0.0
 40
1.0
 40
1.0
 40
1.0
 40
2.0
 40
2.0
 40
2.0
 40
2.0
 10
2345.379649609756
 20
88.99999999999997
 30
0.0
 10
2345.379659718466
 20
86.77014971244246
 30
0.0
 10
2341.178853400071
 20
86.76814237564201
 30
0.0
 10
2341.179645987553
 20
88.9999957170734
 30
0.0
 10
2341.180438575036
 20
91.23184905850479
 30
0.0
 10
2345.379639519701
 20
91.22573524673916
 30
0.0
 10
2345.379649609756
 20
88.99999999999997
 30
0.0
  0
SPLINE
  5
9B
330
1F
100
AcDbEntity
  8
0
  6
Continuous
 62
     7
370
    25
100
AcDbSpline
210
0.0
220
0.0
230
1.0
 70
    11
 71
     3
 72
    11
 73
     7
 74
     0
 42
0.00000001
 43
0.00000001
 40
0.0
 40
0.0
 40
0.0
 40
0.0
 40
1.0
 40
1.0
 40
1.0
 40
2.0
 40
2.0
 40
2.0
 40
2.0
 10
602.9267002227056
 20
-31.00000000000003
 30
0.0
 10
602.9267103313804
 20
-33.22985028883592
 30
0.0
 10
598.7259040121921
 20
-33.23185762674008
 30
0.0
 10
598.7266966005018
 20
-31.0000042829266
 30
0.0
 10
598.7274891888114
 20
-28.76815093911311
 30
0.0
 10
602.9266901326855
 20
-28.77426475573353
 30
0.0
 10
602.9267002227056
 20
-31.00000000000003
 30
0.0
  0
SPLINE
  5
9C
330
1F
100
AcDbEntity
  8
0
  6
Continuous
 62
     7
370
    25
100
AcDbSpline
210
0.0
220
0.0
230
1.0
 70
    11
 71
     3
 72
    11
 73
     7
 74
     0
 42
0.00000001
 43
0.00000001
 40
0.0
 40
0.0
 40
0.0
 40
0.0
 40
1.0
 40
1.0
 40
1.0
 40
2.0
 40
2.0
 40
2.0
 40
2.0
 10
1764.561999814066
 20
-31.00000000000003
 30
0.0
 10
1764.562009922744
 20
-33.22985029002905
 30
0.0
 10
1760.361203603636
 20
-33.23185762753222
 30
0.0
 10
1760.361996191863
 20
-31.00000428292649
 30
0.0
 10
1760.362788780091
 20
-28.76815093832075
 30
0.0
 10
1764.561989724044
 20
-28.77426475512838
 30
0.0
 10
1764.561999814066
 20
-31.00000000000003
 30
0.0
  0
SPLINE
  5
9D
330
1F
100
AcDbEntity
  8
0
  6
Continuous
 62
     7
370
    25
100
AcDbSpline
210
0.0
220
0.0
230
1.0
 70
    11
 71
     3
 72
    11
 73
     7
 74
     0
 42
0.00000001
 43
0.00000001
 40
0.0
 40
0.0
 40
0.0
 40
0.0
 40
1.0
 40
1.0
 40
1.0
 40
2.0
 40
2.0
 40
2.0
 40
2.0
 10
2926.197299405441
 20
-31.00000000000003
 30
0.0
 10
2926.197309514093
 20
-33.22985028586407
 30
0.0
 10
2921.996503195093
 20
-33.23185762674471
 30
0.0
 10
2921.997295783237
 20
-31.00000428292649
 30
0.0
 10
2921.998088371381
 20
-28.76815093910827
 30
0.0
 10
2926.197289315444
 20
-28.7742647553972
 30
0.0
 10
2926.197299405441
 20
-31.00000000000003
 30
0.0
  0
SPLINE
  5
9E
330
1F
100
AcDbEntity
  8
0
  6
Continuous
 62
     7
370
    25
100
AcDbSpline
210
0.0
220
0.0
230
1.0
 70
    11
 71
     3
 72
    11
 73
     7
 74
     0
 42
0.00000001
 43
0.00000001
 40
0.0
 40
0.0
 40
0.0
 40
0.0
 40
1.0
 40
1.0
 40
1.0
 40
2.0
 40
2.0
 40
2.0
 40
2.0
 10
1183.744350018388
 20
1169.0
 30
0.0
 10
1183.744360127051
 20
1166.770149713263
 30
0.0
 10
1179.543553808702
 20
1166.768142375283
 30
0.0
 10
1179.544346396184
 20
1168.999995717073
 30
0.0
 10
1179.545138983667
 20
1171.231849058863
 30
0.0
 10
1183.74433992838
 20
1171.225735244808
 30
0.0
 10
1183.744350018388
 20
1169.0
 30
0.0
  0
SPLINE
  5
9F
330
1F
100
AcDbEntity
  8
0
  6
Continuous
 62
     7
370
    25
100
AcDbSpline
210
0.0
220
0.0
230
1.0
 70
    11
 71
     3
 72
    11
 73
     7
 74
     0
 42
0.00000001
 43
0.00000001
 40
0.0
 40
0.0
 40
0.0
 40
0.0
 40
1.0
 40
1.0
 40
1.0
 40
2.0
 40
2.0
 40
2.0
 40
2.0
 10
2345.379649609757
 20
1169.0
 30
0.0
 10
2345.379659718434
 20
1166.770149713174
 30
0.0
 10
2341.178853399244
 20
1166.768142374688
 30
0.0
 10
2341.179645987553
 20
1168.999995717073
 30
0.0
 10
2341.180438575861
 20
1171.231849059458
 30
0.0
 10
2345.379639519734
 20
1171.22573524482
 30
0.0
 10
2345.379649609757
 20
1169.0
 30
0.0
  0
SPLINE
  5
A0
330
1F
100
AcDbEntity
  8
0
  6
Continuous
 62
     7
370
    25
100
AcDbSpline
210
0.0
220
0.0
230
1.0
 70
    11
 71
     3
 72
    17
 73
    13
 74
     0
 42
0.00000001
 43
0.00000001
 40
0.0
 40
0.0
 40
0.0
 40
0.0
 40
1.0
 40
1.0
 40
1.0
 40
2.0
 40
2.0
 40
2.0
 40
3.0
 40
3.0
 40
3.0
 40
4.0
 40
4.0
 40
4.0
 40
4.0
 10
731.2645091280651
 20
469.0000000000001
 30
0.0
 10
731.2645079989779
 20
459.7184345383628
 30
0.0
 10
723.0441057438692
 20
451.5003959042056
 30
0.0
 10
713.7634615598545
 20
451.5000000061776
 30
0.0
 10
704.4828173758398
 20
451.4996041081496
 30
0.0
 10
696.26281584047
 20
459.7193999674633
 30
0.0
 10
696.2624181830066
 20
469.0000015142836
 30
0.0
 10
696.2620205255433
 20
478.2806030611038
 30
0.0
 10
704.4828230523245
 20
486.4996028615491
 30
0.0
 10
713.7634658861829
 20
486.5000000079418
 30
0.0
 10
723.0441087200411
 20
486.5003971543345
 30
0.0
 10
731.2645102574039
 20
478.2836337738795
 30
0.0
 10
731.2645091280651
 20
469.0000000000001
 30
0.0
  0
ENDSEC
  0
SECTION
  2
OBJECTS
  0
DICTIONARY
  5
C
330
0
100
AcDbDictionary
281
     1
  3
ACAD_GROUP
350
D
  3
ACAD_LAYOUT
350
1A
  3
ACAD_MLINESTYLE
350
17
  3
ACAD_PLOTSETTINGS
350
19
  3
ACAD_PLOTSTYLENAME
350
E
  3
ACAD_SCALELIST
350
47
  3
DWGPROPS
350
A1
  0
DICTIONARY
  5
D
102
{ACAD_REACTORS
330
C
102
}
330
C
100
AcDbDictionary
281
     1
  0
DICTIONARY
  5
1A
102
{ACAD_REACTORS
330
C
102
}
330
C
100
AcDbDictionary
281
     1
  3
Layout1
350
1E
  3
Layout2
350
26
  3
Model
350
22
  0
DICTIONARY
  5
17
102
{ACAD_REACTORS
330
C
102
}
330
C
100
AcDbDictionary
281
     1
  3
Standard
350
18
  0
DICTIONARY
  5
19
102
{ACAD_REACTORS
330
C
102
}
330
C
100
AcDbDictionary
281
     1
  0
ACDBDICTIONARYWDFLT
  5
E
102
{ACAD_REACTORS
330
C
102
}
330
C
100
AcDbDictionary
281
     1
  3
Normal
350
F
100
AcDbDictionaryWithDefault
340
F
  0
DICTIONARY
  5
47
102
{ACAD_REACTORS
330
C
102
}
330
C
100
AcDbDictionary
281
     1
  3
A0
350
48
  3
A1
350
49
  3
A2
350
4A
  3
A3
350
4B
  3
A4
350
4C
  3
A5
350
4D
  3
A6
350
4E
  3
A7
350
4F
  3
A8
350
50
  3
A9
350
51
  3
B0
350
52
  3
B1
350
53
  3
B2
350
54
  3
B3
350
55
  3
B4
350
56
  3
B5
350
57
  3
B6
350
58
  0
XRECORD
  5
A1
102
{ACAD_REACTORS
330
C
102
}
330
C
100
AcDbXrecord
280
     1
  1
DWGPROPS COOKIE
  2

  3

  4

  6

  7

  8
ademathieu
  9

300
=
301
=
302
=
303
=
304
=
305
=
306
=
307
=
308
=
309
=
 40
0.0
 41
2460269.552439572
 42
2460269.552464167
  1

 90
        0
  0
LAYOUT
  5
1E
102
{ACAD_REACTORS
330
1A
102
}
330
1A
100
AcDbPlotSettings
  1

  2
none_device
  4

  6

 40
0.0
 41
0.0
 42
0.0
 43
0.0
 44
0.0
 45
0.0
 46
0.0
 47
0.0
 48
0.0
 49
0.0
140
0.0
141
0.0
142
1.0
143
1.0
 70
   688
 72
     1
 73
     0
 74
     5
  7

 75
    16
147
1.0
148
0.0
149
0.0
100
AcDbLayout
  1
Layout1
 70
     1
 71
     1
 10
0.0
 20
0.0
 11
420.0
 21
297.0
 12
0.0
 22
0.0
 32
0.0
 14
1.0000000000E+20
 24
1.0000000000E+20
 34
1.0000000000E+20
 15
-1.0000000000E+20
 25
-1.0000000000E+20
 35
-1.0000000000E+20
146
0.0
 13
0.0
 23
0.0
 33
0.0
 16
1.0
 26
0.0
 36
0.0
 17
0.0
 27
1.0
 37
0.0
 76
     0
330
1B
  0
LAYOUT
  5
26
102
{ACAD_REACTORS
330
1A
102
}
330
1A
100
AcDbPlotSettings
  1

  2
none_device
  4

  6

 40
0.0
 41
0.0
 42
0.0
 43
0.0
 44
0.0
 45
0.0
 46
0.0
 47
0.0
 48
0.0
 49
0.0
140
0.0
141
0.0
142
1.0
143
1.0
 70
   688
 72
     1
 73
     0
 74
     5
  7

 75
    16
147
1.0
148
0.0
149
0.0
100
AcDbLayout
  1
Layout2
 70
     1
 71
     2
 10
0.0
 20
0.0
 11
0.0
 21
0.0
 12
0.0
 22
0.0
 32
0.0
 14
0.0
 24
0.0
 34
0.0
 15
0.0
 25
0.0
 35
0.0
146
0.0
 13
0.0
 23
0.0
 33
0.0
 16
1.0
 26
0.0
 36
0.0
 17
0.0
 27
1.0
 37
0.0
 76
     0
330
23
  0
LAYOUT
  5
22
102
{ACAD_REACTORS
330
1A
102
}
330
1A
100
AcDbPlotSettings
  1

  2
none_device
  4
ANSI_A_(11.00_x_8.50_Inches)
  6

 40
6.35
 41
19.05
 42
6.35000508
 43
19.05000254
 44
279.4
 45
215.9
 46
-4.95300254
 47
35.4968372069
 48
0.0
 49
0.0
140
0.0
141
0.0
142
0.0036950557
143
1.0
 70
  1696
 72
     0
 73
     0
 74
     0
  7

 75
     0
147
0.0179189148
148
-1300.4909072572
149
0.0
100
AcDbLayout
  1
Model
 70
     1
 71
     0
 10
0.0
 20
0.0
 11
420.0
 21
297.0
 12
0.0
 22
0.0
 32
0.0
 14
0.0
 24
-56.0
 34
0.0
 15
2947.1815808475
 25
1194.0
 35
0.0
146
0.0
 13
0.0
 23
0.0
 33
0.0
 16
1.0
 26
0.0
 36
0.0
 17
0.0
 27
1.0
 37
0.0
 76
     0
330
1F
331
29
  0
MLINESTYLE
  5
18
102
{ACAD_REACTORS
330
17
102
}
330
17
100
AcDbMlineStyle
  2
Standard
 70
     0
  3

 62
   256
 51
90.0
 52
90.0
 71
     2
 49
0.5
 62
   256
  6
BYLAYER
 49
-0.5
 62
   256
  6
BYLAYER
  0
ACDBPLACEHOLDER
  5
F
102
{ACAD_REACTORS
330
E
102
}
330
E
  0
SCALE
  5
48
102
{ACAD_REACTORS
330
47
102
}
330
47
100
AcDbScale
 70
     0
300
1:1
140
1.0
141
1.0
290
     1
  0
SCALE
  5
49
102
{ACAD_REACTORS
330
47
102
}
330
47
100
AcDbScale
 70
     0
300
1:2
140
1.0
141
2.0
290
     0
  0
SCALE
  5
4A
102
{ACAD_REACTORS
330
47
102
}
330
47
100
AcDbScale
 70
     0
300
1:4
140
1.0
141
4.0
290
     0
  0
SCALE
  5
4B
102
{ACAD_REACTORS
330
47
102
}
330
47
100
AcDbScale
 70
     0
300
1:5
140
1.0
141
5.0
290
     0
  0
SCALE
  5
4C
102
{ACAD_REACTORS
330
47
102
}
330
47
100
AcDbScale
 70
     0
300
1:8
140
1.0
141
8.0
290
     0
  0
SCALE
  5
4D
102
{ACAD_REACTORS
330
47
102
}
330
47
100
AcDbScale
 70
     0
300
1:10
140
1.0
141
10.0
290
     0
  0
SCALE
  5
4E
102
{ACAD_REACTORS
330
47
102
}
330
47
100
AcDbScale
 70
     0
300
1:16
140
1.0
141
16.0
290
     0
  0
SCALE
  5
4F
102
{ACAD_REACTORS
330
47
102
}
330
47
100
AcDbScale
 70
     0
300
1:20
140
1.0
141
20.0
290
     0
  0
SCALE
  5
50
102
{ACAD_REACTORS
330
47
102
}
330
47
100
AcDbScale
 70
     0
300
1:30
140
1.0
141
30.0
290
     0
  0
SCALE
  5
51
102
{ACAD_REACTORS
330
47
102
}
330
47
100
AcDbScale
 70
     0
300
1:40
140
1.0
141
40.0
290
     0
  0
SCALE
  5
52
102
{ACAD_REACTORS
330
47
102
}
330
47
100
AcDbScale
 70
     0
300
1:50
140
1.0
141
50.0
290
     0
  0
SCALE
  5
53
102
{ACAD_REACTORS
330
47
102
}
330
47
100
AcDbScale
 70
     0
300
1:100
140
1.0
141
100.0
290
     0
  0
SCALE
  5
54
102
{ACAD_REACTORS
330
47
102
}
330
47
100
AcDbScale
 70
     0
300
2:1
140
2.0
141
1.0
290
     0
  0
SCALE
  5
55
102
{ACAD_REACTORS
330
47
102
}
330
47
100
AcDbScale
 70
     0
300
4:1
140
4.0
141
1.0
290
     0
  0
SCALE
  5
56
102
{ACAD_REACTORS
330
47
102
}
330
47
100
AcDbScale
 70
     0
300
8:1
140
8.0
141
1.0
290
     0
  0
SCALE
  5
57
102
{ACAD_REACTORS
330
47
102
}
330
47
100
AcDbScale
 70
     0
300
10:1
140
10.0
141
1.0
290
     0
  0
SCALE
  5
58
102
{ACAD_REACTORS
330
47
102
}
330
47
100
AcDbScale
 70
     0
300
100:1
140
100.0
141
1.0
290
     0
  0
ENDSEC
  0
EOF
