  0
SECTION
  2
HEADER
  9
$ACADVER
  1
AC1015
  9
$ACADMAINTVER
 70
     6
  9
$DWGCODEPAGE
  3
ANSI_1252
  9
$INSBASE
 10
0.0
 20
0.0
 30
0.0
  9
$EXTMIN
 10
0.0
 20
-56.0
 30
0.0
  9
$EXTMAX
 10
2947.1815808475
 20
1194.0
 30
0.0
  9
$LIMMIN
 10
0.0
 20
0.0
  9
$LIMMAX
 10
420.0
 20
297.0
  9
$ORTHOMODE
 70
     0
  9
$REGENMODE
 70
     1
  9
$FILLMODE
 70
     1
  9
$QTEXTMODE
 70
     0
  9
$MIRRTEXT
 70
     1
  9
$LTSCALE
 40
1.0
  9
$ATTMODE
 70
     1
  9
$TEXTSIZE
 40
3.5
  9
$TRACEWID
 40
1.0
  9
$TEXTSTYLE
  7
Standard
  9
$CLAYER
  8
0
  9
$CELTYPE
  6
ByLayer
  9
$CECOLOR
 62
   256
  9
$CELTSCALE
 40
1.0
  9
$DISPSILH
 70
     0
  9
$DIMSCALE
 40
1.0
  9
$DIMASZ
 40
3.556
  9
$DIMEXO
 40
0.0
  9
$DIMDLI
 40
3.75
  9
$DIMRND
 40
0.0
  9
$DIMDLE
 40
0.0
  9
$DIMEXE
 40
1.0
  9
$DIMTP
 40
0.0
  9
$DIMTM
 40
0.0
  9
$DIMTXT
 40
3.5
  9
$DIMCEN
 40
2.5
  9
$DIMTSZ
 40
0.0
  9
$DIMTOL
 70
     0
  9
$DIMLIM
 70
     0
  9
$DIMTIH
 70
     1
  9
$DIMTOH
 70
     1
  9
$DIMSE1
 70
     0
  9
$DIMSE2
 70
     0
  9
$DIMTAD
 70
     1
  9
$DIMZIN
 70
     0
  9
$DIMBLK
  1

  9
$DIMASO
 70
     1
  9
$DIMSHO
 70
     1
  9
$DIMPOST
  1

  9
$DIMAPOST
  1

  9
$DIMALT
 70
     0
  9
$DIMALTD
 70
     3
  9
$DIMALTF
 40
0.0393700787
  9
$DIMLFAC
 40
1.0
  9
$DIMTOFL
 70
     1
  9
$DIMTVP
 40
0.0
  9
$DIMTIX
 70
     0
  9
$DIMSOXD
 70
     0
  9
$DIMSAH
 70
     0
  9
$DIMBLK1
  1

  9
$DIMBLK2
  1

  9
$DIMSTYLE
  2
ISO-25
  9
$DIMCLRD
 70
     0
  9
$DIMCLRE
 70
     0
  9
$DIMCLRT
 70
     0
  9
$DIMTFAC
 40
1.0
  9
$DIMGAP
 40
1.524
  9
$DIMJUST
 70
     0
  9
$DIMSD1
 70
     0
  9
$DIMSD2
 70
     0
  9
$DIMTOLJ
 70
     0
  9
$DIMTZIN
 70
     0
  9
$DIMALTZ
 70
     0
  9
$DIMALTTZ
 70
     0
  9
$DIMUPT
 70
     0
  9
$DIMDEC
 70
     2
  9
$DIMTDEC
 70
     2
  9
$DIMALTU
 70
     2
  9
$DIMALTTD
 70
     3
  9
$DIMTXSTY
  7
Standard
  9
$DIMAUNIT
 70
     0
  9
$DIMADEC
 70
     0
  9
$DIMALTRND
 40
0.0
  9
$DIMAZIN
 70
     0
  9
$DIMDSEP
 70
    44
  9
$DIMATFIT
 70
     3
  9
$DIMFRAC
 70
     0
  9
$DIMLDRBLK
  1

  9
$DIMLUNIT
 70
     2
  9
$DIMLWD
 70
    -2
  9
$DIMLWE
 70
    -2
  9
$DIMTMOVE
 70
     0
  9
$LUNITS
 70
     2
  9
$LUPREC
 70
     0
  9
$SKETCHINC
 40
1.0
  9
$FILLETRAD
 40
0.0
  9
$AUNITS
 70
     0
  9
$AUPREC
 70
     0
  9
$MENU
  1
.
  9
$ELEVATION
 40
0.0
  9
$PELEVATION
 40
0.0
  9
$THICKNESS
 40
0.0
  9
$LIMCHECK
 70
     0
  9
$CHAMFERA
 40
0.0
  9
$CHAMFERB
 40
0.0
  9
$CHAMFERC
 40
0.0
  9
$CHAMFERD
 40
0.0
  9
$SKPOLY
 70
     0
  9
$TDCREATE
 40
2460269.588354271
  9
$TDUCREATE
 40
2460269.546687604
  9
$TDUPDATE
 40
2460269.588402373
  9
$TDUUPDATE
 40
2460269.546735706
  9
$TDINDWG
 40
0.0000000116
  9
$TDUSRTIMER
 40
0.0000000116
  9
$USRTIMER
 70
     1
  9
$ANGBASE
 50
0.0
  9
$ANGDIR
 70
     0
  9
$PDMODE
 70
     0
  9
$PDSIZE
 40
-1.0
  9
$PLINEWID
 40
0.0
  9
$SPLFRAME
 70
     0
  9
$SPLINETYPE
 70
     6
  9
$SPLINESEGS
 70
     8
  9
$HANDSEED
  5
A0
  9
$SURFTAB1
 70
     6
  9
$SURFTAB2
 70
     6
  9
$SURFTYPE
 70
     6
  9
$SURFU
 70
     6
  9
$SURFV
 70
     6
  9
$UCSBASE
  2

  9
$UCSNAME
  2

  9
$UCSORG
 10
0.0
 20
0.0
 30
0.0
  9
$UCSXDIR
 10
1.0
 20
0.0
 30
0.0
  9
$UCSYDIR
 10
0.0
 20
1.0
 30
0.0
  9
$UCSORTHOREF
  2

  9
$UCSORTHOVIEW
 70
     0
  9
$UCSORGTOP
 10
0.0
 20
0.0
 30
0.0
  9
$UCSORGBOTTOM
 10
0.0
 20
0.0
 30
0.0
  9
$UCSORGLEFT
 10
0.0
 20
0.0
 30
0.0
  9
$UCSORGRIGHT
 10
0.0
 20
0.0
 30
0.0
  9
$UCSORGFRONT
 10
0.0
 20
0.0
 30
0.0
  9
$UCSORGBACK
 10
0.0
 20
0.0
 30
0.0
  9
$PUCSBASE
  2

  9
$PUCSNAME
  2

  9
$PUCSORG
 10
0.0
 20
0.0
 30
0.0
  9
$PUCSXDIR
 10
1.0
 20
0.0
 30
0.0
  9
$PUCSYDIR
 10
0.0
 20
1.0
 30
0.0
  9
$PUCSORTHOREF
  2

  9
$PUCSORTHOVIEW
 70
     0
  9
$PUCSORGTOP
 10
0.0
 20
0.0
 30
0.0
  9
$PUCSORGBOTTOM
 10
0.0
 20
0.0
 30
0.0
  9
$PUCSORGLEFT
 10
0.0
 20
0.0
 30
0.0
  9
$PUCSORGRIGHT
 10
0.0
 20
0.0
 30
0.0
  9
$PUCSORGFRONT
 10
0.0
 20
0.0
 30
0.0
  9
$PUCSORGBACK
 10
0.0
 20
0.0
 30
0.0
  9
$USERI1
 70
     0
  9
$USERI2
 70
     0
  9
$USERI3
 70
     0
  9
$USERI4
 70
     0
  9
$USERI5
 70
     0
  9
$USERR1
 40
0.0
  9
$USERR2
 40
0.0
  9
$USERR3
 40
0.0
  9
$USERR4
 40
0.0
  9
$USERR5
 40
0.0
  9
$WORLDVIEW
 70
     1
  9
$SHADEDGE
 70
     3
  9
$SHADEDIF
 70
    70
  9
$TILEMODE
 70
     1
  9
$MAXACTVP
 70
    64
  9
$PINSBASE
 10
0.0
 20
0.0
 30
0.0
  9
$PLIMCHECK
 70
     0
  9
$PEXTMIN
 10
1.0000000000E+20
 20
1.0000000000E+20
 30
1.0000000000E+20
  9
$PEXTMAX
 10
-1.0000000000E+20
 20
-1.0000000000E+20
 30
-1.0000000000E+20
  9
$PLIMMIN
 10
0.0
 20
0.0
  9
$PLIMMAX
 10
420.0
 20
297.0
  9
$UNITMODE
 70
     0
  9
$VISRETAIN
 70
     1
  9
$PLINEGEN
 70
     0
  9
$PSLTSCALE
 70
     1
  9
$TREEDEPTH
 70
  3020
  9
$CMLSTYLE
  2
Standard
  9
$CMLJUST
 70
     0
  9
$CMLSCALE
 40
20.0
  9
$PROXYGRAPHICS
 70
     1
  9
$MEASUREMENT
 70
     1
  9
$CELWEIGHT
370
    -1
  9
$ENDCAPS
280
     0
  9
$JOINSTYLE
280
     0
  9
$LWDISPLAY
290
     1
  9
$INSUNITS
 70
     4
  9
$HYPERLINKBASE
  1

  9
$STYLESHEET
  1

  9
$XEDIT
290
     1
  9
$CEPSNTYPE
380
     0
  9
$PSTYLEMODE
290
     1
  9
$FINGERPRINTGUID
  2
{c16c0b9e-3501-428d-a34c-2231aa39ef39}
  9
$VERSIONGUID
  2
{FAEB1C32-E019-11D5-929B-00C0DF256EC4}
  9
$EXTNAMES
290
     1
  9
$PSVPSCALE
 40
0.0
  9
$OLESTARTUP
290
     0
  0
ENDSEC
  0
SECTION
  2
CLASSES
  0
CLASS
  1
ACDBDICTIONARYWDFLT
  2
AcDbDictionaryWithDefault
  3
ObjectDBX Classes
 90
        0
280
     0
281
     0
  0
CLASS
  1
VISUALSTYLE
  2
AcDbVisualStyle
  3
ObjectDBX Classes
 90
     4095
280
     0
281
     0
  0
CLASS
  1
MATERIAL
  2
AcDbMaterial
  3
ObjectDBX Classes
 90
     1153
280
     0
281
     0
  0
CLASS
  1
SCALE
  2
AcDbScale
  3
ObjectDBX Classes
 90
     1153
280
     0
281
     0
  0
CLASS
  1
TABLESTYLE
  2
AcDbTableStyle
  3
ObjectDBX Classes
 90
     4095
280
     0
281
     0
  0
CLASS
  1
MLEADERSTYLE
  2
AcDbMLeaderStyle
  3
ACDB_MLEADERSTYLE_CLASS
 90
     4095
280
     0
281
     0
  0
CLASS
  1
SUN
  2
AcDbSun
  3
SCENEOE
 90
     1153
280
     0
281
     0
  0
CLASS
  1
ACDBPLACEHOLDER
  2
AcDbPlaceHolder
  3
ObjectDBX Classes
 90
        0
280
     0
281
     0
  0
CLASS
  1
LAYOUT
  2
AcDbLayout
  3
ObjectDBX Classes
 90
        0
280
     0
281
     0
  0
ENDSEC
  0
SECTION
  2
TABLES
  0
TABLE
  2
VPORT
  5
8
330
0
100
AcDbSymbolTable
 70
     1
  0
VPORT
  5
29
330
8
100
AcDbSymbolTableRecord
100
AcDbViewportTableRecord
  2
*Active
 70
     0
 10
0.0
 20
0.0
 11
1.0
 21
1.0
 12
1473.5907904238
 22
569.0
 13
0.0
 23
0.0
 14
10.0
 24
10.0
 15
10.0
 25
10.0
 16
0.0
 26
0.0
 36
1.0
 17
0.0
 27
0.0
 37
0.0
 40
1275.0
 41
2.3577452647
 42
50.0
 43
0.0
 44
0.0
 50
0.0
 51
0.0
 71
     0
 72
   100
 73
     1
 74
     3
 75
     0
 76
     0
 77
     0
 78
     0
281
     0
 65
     1
110
0.0
120
0.0
130
0.0
111
1.0
121
0.0
131
0.0
112
0.0
122
1.0
132
0.0
 79
     0
146
0.0
  0
ENDTAB
  0
TABLE
  2
LTYPE
  5
5
330
0
100
AcDbSymbolTable
 70
     6
  0
LTYPE
  5
14
330
5
100
AcDbSymbolTableRecord
100
AcDbLinetypeTableRecord
  2
ByBlock
 70
     0
  3

 72
    65
 73
     0
 40
0.0
  0
LTYPE
  5
15
330
5
100
AcDbSymbolTableRecord
100
AcDbLinetypeTableRecord
  2
ByLayer
 70
     0
  3

 72
    65
 73
     0
 40
0.0
  0
LTYPE
  5
16
330
5
100
AcDbSymbolTableRecord
100
AcDbLinetypeTableRecord
  2
Continuous
 70
     0
  3
Solid line
 72
    65
 73
     0
 40
0.0
  0
LTYPE
  5
5E
330
5
100
AcDbSymbolTableRecord
100
AcDbLinetypeTableRecord
  2
HIDDEN
 70
     0
  3
Hidden __ __ __ __ __ __ __ __ __ __ __ __ __ __
 72
    65
 73
     2
 40
1.905
 49
1.27
 74
     0
 49
-0.635
 74
     0
  0
LTYPE
  5
5F
330
5
100
AcDbSymbolTableRecord
100
AcDbLinetypeTableRecord
  2
PHANTOM
 70
     0
  3
Phantom ______  __  __  ______  __  __  ______
 72
    65
 73
     6
 40
12.7
 49
6.35
 74
     0
 49
-1.27
 74
     0
 49
1.27
 74
     0
 49
-1.27
 74
     0
 49
1.27
 74
     0
 49
-1.27
 74
     0
  0
LTYPE
  5
60
330
5
100
AcDbSymbolTableRecord
100
AcDbLinetypeTableRecord
  2
CENTER
 70
     0
  3
Center ____ _ ____ _ ____ _ ____ _ ____ _ ____
 72
    65
 73
     4
 40
10.16
 49
6.35
 74
     0
 49
-1.27
 74
     0
 49
1.27
 74
     0
 49
-1.27
 74
     0
  0
LTYPE
  5
61
330
5
100
AcDbSymbolTableRecord
100
AcDbLinetypeTableRecord
  2
CENTERX2
 70
     0
  3
Center (2x) ________  __  ________  __  _____
 72
    65
 73
     4
 40
20.32
 49
12.7
 74
     0
 49
-2.54
 74
     0
 49
2.54
 74
     0
 49
-2.54
 74
     0
  0
LTYPE
  5
62
330
5
100
AcDbSymbolTableRecord
100
AcDbLinetypeTableRecord
  2
DOT2
 70
     0
  3
Dot (.5x) ........................................
 72
    65
 73
     2
 40
0.635
 49
0.0
 74
     0
 49
-0.635
 74
     0
  0
ENDTAB
  0
TABLE
  2
LAYER
  5
2
330
0
100
AcDbSymbolTable
 70
     1
  0
LAYER
  5
10
330
2
100
AcDbSymbolTableRecord
100
AcDbLayerTableRecord
  2
0
 70
     0
 62
     7
  6
Continuous
370
    -3
390
F
  0
ENDTAB
  0
TABLE
  2
STYLE
  5
3
330
0
100
AcDbSymbolTable
 70
     1
  0
STYLE
  5
11
330
3
100
AcDbSymbolTableRecord
100
AcDbTextStyleTableRecord
  2
Standard
 70
     0
 40
0.0
 41
1.0
 50
0.0
 71
     0
 42
3.5
  3
txt
  4

  0
ENDTAB
  0
TABLE
  2
VIEW
  5
6
330
0
100
AcDbSymbolTable
 70
     0
  0
ENDTAB
  0
TABLE
  2
UCS
  5
7
330
0
100
AcDbSymbolTable
 70
     0
  0
ENDTAB
  0
TABLE
  2
APPID
  5
9
330
0
100
AcDbSymbolTable
 70
     1
  0
APPID
  5
12
330
9
100
AcDbSymbolTableRecord
100
AcDbRegAppTableRecord
  2
ACAD
 70
     0
  0
ENDTAB
  0
TABLE
  2
DIMSTYLE
  5
A
330
0
100
AcDbSymbolTable
 70
     1
100
AcDbDimStyleTable
  0
DIMSTYLE
105
27
330
A
100
AcDbSymbolTableRecord
100
AcDbDimStyleTableRecord
  2
ISO-25
 70
     0
 41
2.5
 42
0.625
 43
3.75
 44
1.25
 73
     0
 74
     0
 77
     1
 78
     8
140
2.5
141
2.5
143
0.0393700787
147
0.625
171
     3
172
     1
178
     0
271
     2
272
     2
274
     3
278
    44
283
     0
284
     8
340
11
  0
ENDTAB
  0
TABLE
  2
BLOCK_RECORD
  5
1
330
0
100
AcDbSymbolTable
 70
     1
  0
BLOCK_RECORD
  5
1F
330
1
100
AcDbSymbolTableRecord
100
AcDbBlockTableRecord
  2
*Model_Space
340
22
  0
BLOCK_RECORD
  5
1B
330
1
100
AcDbSymbolTableRecord
100
AcDbBlockTableRecord
  2
*Paper_Space
340
1E
  0
BLOCK_RECORD
  5
23
330
1
100
AcDbSymbolTableRecord
100
AcDbBlockTableRecord
  2
*Paper_Space0
340
26
  0
ENDTAB
  0
ENDSEC
  0
SECTION
  2
BLOCKS
  0
BLOCK
  5
20
330
1F
100
AcDbEntity
  8
0
100
AcDbBlockBegin
  2
*Model_Space
 70
     0
 10
0.0
 20
0.0
 30
0.0
  3
*Model_Space
  1

  0
ENDBLK
  5
21
330
1F
100
AcDbEntity
  8
0
100
AcDbBlockEnd
  0
BLOCK
  5
1C
330
1B
100
AcDbEntity
 67
     1
  8
0
100
AcDbBlockBegin
  2
*Paper_Space
 70
     0
 10
0.0
 20
0.0
 30
0.0
  3
*Paper_Space
  1

  0
ENDBLK
  5
1D
330
1B
100
AcDbEntity
 67
     1
  8
0
100
AcDbBlockEnd
  0
BLOCK
  5
24
330
23
100
AcDbEntity
  8
0
100
AcDbBlockBegin
  2
*Paper_Space0
 70
     0
 10
0.0
 20
0.0
 30
0.0
  3
*Paper_Space0
  1

  0
ENDBLK
  5
25
330
23
100
AcDbEntity
  8
0
100
AcDbBlockEnd
  0
ENDSEC
  0
SECTION
  2
ENTITIES
  0
SPLINE
  5
63
330
1F
100
AcDbEntity
  8
0
  6
Continuous
 62
     7
370
    25
100
AcDbSpline
210
0.0
220
0.0
230
1.0
 70
    11
 71
     3
 72
    11
 73
     7
 74
     0
 42
0.00000001
 43
0.00000001
 40
0.0
 40
0.0
 40
0.0
 40
0.0
 40
1.0
 40
1.0
 40
1.0
 40
2.0
 40
2.0
 40
2.0
 40
2.0
 10
602.9267002227056
 20
1049.0
 30
0.0
 10
602.9267103313774
 20
1046.770149712287
 30
0.0
 10
598.7259040123582
 20
1046.768142373819
 30
0.0
 10
598.7266966005021
 20
1048.999995717074
 30
0.0
 10
598.727489188646
 20
1051.231849060328
 30
0.0
 10
602.9266901326885
 20
1051.225735244161
 30
0.0
 10
602.9267002227056
 20
1049.0
 30
0.0
  0
SPLINE
  5
64
330
1F
100
AcDbEntity
  8
0
  6
Continuous
 62
     7
370
    25
100
AcDbSpline
210
0.0
220
0.0
230
1.0
 70
    11
 71
     3
 72
    11
 73
     7
 74
     0
 42
0.00000001
 43
0.00000001
 40
0.0
 40
0.0
 40
0.0
 40
0.0
 40
1.0
 40
1.0
 40
1.0
 40
2.0
 40
2.0
 40
2.0
 40
2.0
 10
2345.379649609757
 20
1169.0
 30
0.0
 10
2345.379659718434
 20
1166.770149713174
 30
0.0
 10
2341.178853399244
 20
1166.768142374688
 30
0.0
 10
2341.179645987553
 20
1168.999995717073
 30
0.0
 10
2341.180438575861
 20
1171.231849059459
 30
0.0
 10
2345.379639519734
 20
1171.22573524482
 30
0.0
 10
2345.379649609757
 20
1169.0
 30
0.0
  0
SPLINE
  5
65
330
1F
100
AcDbEntity
  8
0
  6
Continuous
 62
     7
370
    25
100
AcDbSpline
210
0.0
220
0.0
230
1.0
 70
    11
 71
     3
 72
    11
 73
     7
 74
     0
 42
0.00000001
 43
0.00000001
 40
0.0
 40
0.0
 40
0.0
 40
0.0
 40
1.0
 40
1.0
 40
1.0
 40
2.0
 40
2.0
 40
2.0
 40
2.0
 10
1183.744350018388
 20
1169.0
 30
0.0
 10
1183.744360127051
 20
1166.770149713263
 30
0.0
 10
1179.543553808702
 20
1166.768142375283
 30
0.0
 10
1179.544346396184
 20
1168.999995717073
 30
0.0
 10
1179.545138983667
 20
1171.231849058863
 30
0.0
 10
1183.74433992838
 20
1171.225735244808
 30
0.0
 10
1183.744350018388
 20
1169.0
 30
0.0
  0
SPLINE
  5
66
330
1F
100
AcDbEntity
  8
0
  6
Continuous
 62
     7
370
    25
100
AcDbSpline
210
0.0
220
0.0
230
1.0
 70
    11
 71
     3
 72
    11
 73
     7
 74
     0
 42
0.00000001
 43
0.00000001
 40
0.0
 40
0.0
 40
0.0
 40
0.0
 40
1.0
 40
1.0
 40
1.0
 40
2.0
 40
2.0
 40
2.0
 40
2.0
 10
2926.197299405441
 20
-31.00000000000003
 30
0.0
 10
2926.197309514093
 20
-33.22985028967969
 30
0.0
 10
2921.99650319443
 20
-33.23185762753115
 30
0.0
 10
2921.997295783236
 20
-31.0000042829266
 30
0.0
 10
2921.998088372041
 20
-28.76815093832204
 30
0.0
 10
2926.197289315444
 20
-28.77426475396546
 30
0.0
 10
2926.197299405441
 20
-31.00000000000003
 30
0.0
  0
SPLINE
  5
67
330
1F
100
AcDbEntity
  8
0
  6
Continuous
 62
     7
370
    25
100
AcDbSpline
210
0.0
220
0.0
230
1.0
 70
    11
 71
     3
 72
    11
 73
     7
 74
     0
 42
0.00000001
 43
0.00000001
 40
0.0
 40
0.0
 40
0.0
 40
0.0
 40
1.0
 40
1.0
 40
1.0
 40
2.0
 40
2.0
 40
2.0
 40
2.0
 10
1764.561999814067
 20
-31.00000000000003
 30
0.0
 10
1764.562009922719
 20
-33.22985028866125
 30
0.0
 10
1760.361203604051
 20
-33.23185762554873
 30
0.0
 10
1760.361996191863
 20
-31.0000042829266
 30
0.0
 10
1760.362788779677
 20
-28.76815094030446
 30
0.0
 10
1764.561989724069
 20
-28.7742647545931
 30
0.0
 10
1764.561999814067
 20
-31.00000000000003
 30
0.0
  0
SPLINE
  5
68
330
1F
100
AcDbEntity
  8
0
  6
Continuous
 62
     7
370
    25
100
AcDbSpline
210
0.0
220
0.0
230
1.0
 70
    11
 71
     3
 72
    11
 73
     7
 74
     0
 42
0.00000001
 43
0.00000001
 40
0.0
 40
0.0
 40
0.0
 40
0.0
 40
1.0
 40
1.0
 40
1.0
 40
2.0
 40
2.0
 40
2.0
 40
2.0
 10
602.9267002227056
 20
-31.00000000000003
 30
0.0
 10
602.9267103313792
 20
-33.2298502876428
 30
0.0
 10
598.725904012358
 20
-33.23185762650915
 30
0.0
 10
598.7266966005018
 20
-31.0000042829266
 30
0.0
 10
598.7274891886456
 20
-28.76815093934404
 30
0.0
 10
602.9266901326868
 20
-28.77426475550319
 30
0.0
 10
602.9267002227056
 20
-31.00000000000003
 30
0.0
  0
SPLINE
  5
69
330
1F
100
AcDbEntity
  8
0
  6
Continuous
 62
     7
370
    25
100
AcDbSpline
210
0.0
220
0.0
230
1.0
 70
    11
 71
     3
 72
    11
 73
     7
 74
     0
 42
0.00000001
 43
0.00000001
 40
0.0
 40
0.0
 40
0.0
 40
0.0
 40
1.0
 40
1.0
 40
1.0
 40
2.0
 40
2.0
 40
2.0
 40
2.0
 10
2345.379649609757
 20
88.99999999999997
 30
0.0
 10
2345.379659718459
 20
86.77014971202945
 30
0.0
 10
2341.178853399242
 20
86.76814237237642
 30
0.0
 10
2341.179645987552
 20
88.99999571707335
 30
0.0
 10
2341.180438575862
 20
91.23184906177028
 30
0.0
 10
2345.37963951971
 20
91.22573524551791
 30
0.0
 10
2345.379649609757
 20
88.99999999999997
 30
0.0
  0
SPLINE
  5
6A
330
1F
100
AcDbEntity
  8
0
  6
Continuous
 62
     7
370
    25
100
AcDbSpline
210
0.0
220
0.0
230
1.0
 70
    11
 71
     3
 72
    11
 73
     7
 74
     0
 42
0.00000001
 43
0.00000001
 40
0.0
 40
0.0
 40
0.0
 40
0.0
 40
1.0
 40
1.0
 40
1.0
 40
2.0
 40
2.0
 40
2.0
 40
2.0
 10
1183.744350018387
 20
88.99999999999997
 30
0.0
 10
1183.744360127058
 20
86.77014971246346
 30
0.0
 10
1179.543553807875
 20
86.76814237405904
 30
0.0
 10
1179.544346396184
 20
88.99999571707346
 30
0.0
 10
1179.545138984493
 20
91.23184906008787
 30
0.0
 10
1183.744339928372
 20
91.22573524465638
 30
0.0
 10
1183.744350018387
 20
88.99999999999997
 30
0.0
  0
SPLINE
  5
6B
330
1F
100
AcDbEntity
  8
0
  6
Continuous
 62
     7
370
    25
100
AcDbSpline
210
0.0
220
0.0
230
1.0
 70
    11
 71
     3
 72
    11
 73
     7
 74
     0
 42
0.00000001
 43
0.00000001
 40
0.0
 40
0.0
 40
0.0
 40
0.0
 40
1.0
 40
1.0
 40
1.0
 40
2.0
 40
2.0
 40
2.0
 40
2.0
 10
2926.19729940544
 20
209.0
 30
0.0
 10
2926.197309514142
 20
206.7701497119398
 30
0.0
 10
2921.996503195093
 20
206.768142374846
 30
0.0
 10
2921.997295783237
 20
208.9999957170735
 30
0.0
 10
2921.998088371381
 20
211.2318490593009
 30
0.0
 10
2926.197289315392
 20
211.2257352407564
 30
0.0
 10
2926.19729940544
 20
209.0
 30
0.0
  0
SPLINE
  5
6C
330
1F
100
AcDbEntity
  8
0
  6
Continuous
 62
     7
370
    25
100
AcDbSpline
210
0.0
220
0.0
230
1.0
 70
    11
 71
     3
 72
    11
 73
     7
 74
     0
 42
0.00000001
 43
0.00000001
 40
0.0
 40
0.0
 40
0.0
 40
0.0
 40
1.0
 40
1.0
 40
1.0
 40
2.0
 40
2.0
 40
2.0
 40
2.0
 10
1764.561999814067
 20
209.0000000000001
 30
0.0
 10
1764.562009922716
 20
206.7701497124947
 30
0.0
 10
1760.361203604383
 20
206.7681423777453
 30
0.0
 10
1760.361996191864
 20
208.9999957170735
 30
0.0
 10
1760.362788779346
 20
211.2318490564017
 30
0.0
 10
1764.561989724073
 20
211.2257352454055
 30
0.0
 10
1764.561999814067
 20
209.0000000000001
 30
0.0
  0
SPLINE
  5
6D
330
1F
100
AcDbEntity
  8
0
  6
Continuous
 62
     7
370
    25
100
AcDbSpline
210
0.0
220
0.0
230
1.0
 70
    11
 71
     3
 72
    11
 73
     7
 74
     0
 42
0.00000001
 43
0.00000001
 40
0.0
 40
0.0
 40
0.0
 40
0.0
 40
1.0
 40
1.0
 40
1.0
 40
2.0
 40
2.0
 40
2.0
 40
2.0
 10
602.9267002227056
 20
209.0
 30
0.0
 10
602.9267103313827
 20
206.7701497118862
 30
0.0
 10
598.725904012027
 20
206.7681423728582
 30
0.0
 10
598.7266966005018
 20
208.9999957170735
 30
0.0
 10
598.7274891889766
 20
211.2318490612887
 30
0.0
 10
602.9266901326831
 20
211.2257352445865
 30
0.0
 10
602.9267002227056
 20
209.0
 30
0.0
  0
SPLINE
  5
6E
330
1F
100
AcDbEntity
  8
0
  6
Continuous
 62
     7
370
    25
100
AcDbSpline
210
0.0
220
0.0
230
1.0
 70
    11
 71
     3
 72
    11
 73
     7
 74
     0
 42
0.00000001
 43
0.00000001
 40
0.0
 40
0.0
 40
0.0
 40
0.0
 40
1.0
 40
1.0
 40
1.0
 40
2.0
 40
2.0
 40
2.0
 40
2.0
 10
2345.379649609756
 20
329.0000000000001
 30
0.0
 10
2345.379659718444
 20
326.7701497127824
 30
0.0
 10
2341.178853399574
 20
326.7681423745389
 30
0.0
 10
2341.179645987552
 20
328.9999957170733
 30
0.0
 10
2341.180438575531
 20
331.2318490596076
 30
0.0
 10
2345.379639519723
 20
331.2257352437284
 30
0.0
 10
2345.379649609756
 20
329.0000000000001
 30
0.0
  0
SPLINE
  5
6F
330
1F
100
AcDbEntity
  8
0
  6
Continuous
 62
     7
370
    25
100
AcDbSpline
210
0.0
220
0.0
230
1.0
 70
    11
 71
     3
 72
    11
 73
     7
 74
     0
 42
0.00000001
 43
0.00000001
 40
0.0
 40
0.0
 40
0.0
 40
0.0
 40
1.0
 40
1.0
 40
1.0
 40
2.0
 40
2.0
 40
2.0
 40
2.0
 10
1183.744350018388
 20
328.9999999999999
 30
0.0
 10
1183.74436012707
 20
326.7701497122938
 30
0.0
 10
1179.543553807875
 20
326.7681423732542
 30
0.0
 10
1179.544346396184
 20
328.9999957170734
 30
0.0
 10
1179.545138984494
 20
331.2318490608927
 30
0.0
 10
1183.744339928362
 20
331.2257352442798
 30
0.0
 10
1183.744350018388
 20
328.9999999999999
 30
0.0
  0
SPLINE
  5
70
330
1F
100
AcDbEntity
  8
0
  6
Continuous
 62
     7
370
    25
100
AcDbSpline
210
0.0
220
0.0
230
1.0
 70
    11
 71
     3
 72
    11
 73
     7
 74
     0
 42
0.00000001
 43
0.00000001
 40
0.0
 40
0.0
 40
0.0
 40
0.0
 40
1.0
 40
1.0
 40
1.0
 40
2.0
 40
2.0
 40
2.0
 40
2.0
 10
2926.197299405441
 20
448.9999999999999
 30
0.0
 10
2926.197309514151
 20
446.7701497144341
 30
0.0
 10
2921.996503195754
 20
446.7681423732573
 30
0.0
 10
2921.997295783237
 20
448.9999957170736
 30
0.0
 10
2921.998088370719
 20
451.23184906089
 30
0.0
 10
2926.197289315386
 20
451.2257352455487
 30
0.0
 10
2926.197299405441
 20
448.9999999999999
 30
0.0
  0
SPLINE
  5
71
330
1F
100
AcDbEntity
  8
0
  6
Continuous
 62
     7
370
    25
100
AcDbSpline
210
0.0
220
0.0
230
1.0
 70
    11
 71
     3
 72
    11
 73
     7
 74
     0
 42
0.00000001
 43
0.00000001
 40
0.0
 40
0.0
 40
0.0
 40
0.0
 40
1.0
 40
1.0
 40
1.0
 40
2.0
 40
2.0
 40
2.0
 40
2.0
 10
1764.561999814067
 20
448.9999999999999
 30
0.0
 10
1764.562009922758
 20
446.7701497125998
 30
0.0
 10
1760.361203603306
 20
446.7681423727672
 30
0.0
 10
1760.361996191863
 20
448.9999957170734
 30
0.0
 10
1760.362788780421
 20
451.2318490613796
 30
0.0
 10
1764.56198972403
 20
451.2257352445426
 30
0.0
 10
1764.561999814067
 20
448.9999999999999
 30
0.0
  0
SPLINE
  5
72
330
1F
100
AcDbEntity
  8
0
  6
Continuous
 62
     7
370
    25
100
AcDbSpline
210
0.0
220
0.0
230
1.0
 70
    11
 71
     3
 72
    11
 73
     7
 74
     0
 42
0.00000001
 43
0.00000001
 40
0.0
 40
0.0
 40
0.0
 40
0.0
 40
1.0
 40
1.0
 40
1.0
 40
2.0
 40
2.0
 40
2.0
 40
2.0
 10
602.9267002227054
 20
449.0000000000001
 30
0.0
 10
602.9267103313671
 20
446.7701497120125
 30
0.0
 10
598.725904012027
 20
446.7681423727764
 30
0.0
 10
598.7266966005018
 20
448.9999957170735
 30
0.0
 10
598.7274891889766
 20
451.2318490613706
 30
0.0
 10
602.9266901326984
 20
451.2257352447151
 30
0.0
 10
602.9267002227054
 20
449.0000000000001
 30
0.0
  0
SPLINE
  5
73
330
1F
100
AcDbEntity
  8
0
  6
Continuous
 62
     7
370
    25
100
AcDbSpline
210
0.0
220
0.0
230
1.0
 70
    11
 71
     3
 72
    11
 73
     7
 74
     0
 42
0.00000001
 43
0.00000001
 40
0.0
 40
0.0
 40
0.0
 40
0.0
 40
1.0
 40
1.0
 40
1.0
 40
2.0
 40
2.0
 40
2.0
 40
2.0
 10
2345.379649609756
 20
568.9999999999999
 30
0.0
 10
2345.379659718455
 20
566.7701497127484
 30
0.0
 10
2341.178853399078
 20
566.7681423726879
 30
0.0
 10
2341.179645987553
 20
568.9999957170734
 30
0.0
 10
2341.180438576027
 20
571.2318490614589
 30
0.0
 10
2345.379639519712
 20
571.225735243929
 30
0.0
 10
2345.379649609756
 20
568.9999999999999
 30
0.0
  0
SPLINE
  5
74
330
1F
100
AcDbEntity
  8
0
  6
Continuous
 62
     7
370
    25
100
AcDbSpline
210
0.0
220
0.0
230
1.0
 70
    11
 71
     3
 72
    11
 73
     7
 74
     0
 42
0.00000001
 43
0.00000001
 40
0.0
 40
0.0
 40
0.0
 40
0.0
 40
1.0
 40
1.0
 40
1.0
 40
2.0
 40
2.0
 40
2.0
 40
2.0
 10
1183.744350018388
 20
569.0
 30
0.0
 10
1183.744360127046
 20
566.7701497126867
 30
0.0
 10
1179.543553807875
 20
566.76814237386
 30
0.0
 10
1179.544346396184
 20
568.9999957170735
 30
0.0
 10
1179.545138984494
 20
571.231849060287
 30
0.0
 10
1183.744339928385
 20
571.2257352444602
 30
0.0
 10
1183.744350018388
 20
569.0
 30
0.0
  0
SPLINE
  5
75
330
1F
100
AcDbEntity
  8
0
  6
Continuous
 62
     7
370
    25
100
AcDbSpline
210
0.0
220
0.0
230
1.0
 70
    11
 71
     3
 72
    11
 73
     7
 74
     0
 42
0.00000001
 43
0.00000001
 40
0.0
 40
0.0
 40
0.0
 40
0.0
 40
1.0
 40
1.0
 40
1.0
 40
2.0
 40
2.0
 40
2.0
 40
2.0
 10
2926.197299405441
 20
689.0
 30
0.0
 10
2926.197309514093
 20
686.7701497143044
 30
0.0
 10
2921.996503195092
 20
686.7681423750217
 30
0.0
 10
2921.997295783236
 20
688.9999957170734
 30
0.0
 10
2921.99808837138
 20
691.231849059125
 30
0.0
 10
2926.197289315444
 20
691.2257352444295
 30
0.0
 10
2926.197299405441
 20
689.0
 30
0.0
  0
SPLINE
  5
76
330
1F
100
AcDbEntity
  8
0
  6
Continuous
 62
     7
370
    25
100
AcDbSpline
210
0.0
220
0.0
230
1.0
 70
    11
 71
     3
 72
    11
 73
     7
 74
     0
 42
0.00000001
 43
0.00000001
 40
0.0
 40
0.0
 40
0.0
 40
0.0
 40
1.0
 40
1.0
 40
1.0
 40
2.0
 40
2.0
 40
2.0
 40
2.0
 10
1764.561999814067
 20
688.9999999999999
 30
0.0
 10
1764.562009922712
 20
686.7701497129519
 30
0.0
 10
1760.361203603637
 20
686.7681423739873
 30
0.0
 10
1760.361996191863
 20
688.9999957170734
 30
0.0
 10
1760.36278878009
 20
691.2318490601594
 30
0.0
 10
1764.561989724076
 20
691.2257352457201
 30
0.0
 10
1764.561999814067
 20
688.9999999999999
 30
0.0
  0
SPLINE
  5
77
330
1F
100
AcDbEntity
  8
0
  6
Continuous
 62
     7
370
    25
100
AcDbSpline
210
0.0
220
0.0
230
1.0
 70
    11
 71
     3
 72
    11
 73
     7
 74
     0
 42
0.00000001
 43
0.00000001
 40
0.0
 40
0.0
 40
0.0
 40
0.0
 40
1.0
 40
1.0
 40
1.0
 40
2.0
 40
2.0
 40
2.0
 40
2.0
 10
602.9267002227056
 20
688.9999999999999
 30
0.0
 10
602.9267103313839
 20
686.7701497119702
 30
0.0
 10
598.7259040121921
 20
686.7681423732581
 30
0.0
 10
598.7266966005018
 20
688.9999957170734
 30
0.0
 10
598.7274891888114
 20
691.2318490608886
 30
0.0
 10
602.9266901326819
 20
691.2257352452395
 30
0.0
 10
602.9267002227056
 20
688.9999999999999
 30
0.0
  0
SPLINE
  5
78
330
1F
100
AcDbEntity
  8
0
  6
Continuous
 62
     7
370
    25
100
AcDbSpline
210
0.0
220
0.0
230
1.0
 70
    11
 71
     3
 72
    11
 73
     7
 74
     0
 42
0.00000001
 43
0.00000001
 40
0.0
 40
0.0
 40
0.0
 40
0.0
 40
1.0
 40
1.0
 40
1.0
 40
2.0
 40
2.0
 40
2.0
 40
2.0
 10
2345.379649609756
 20
808.9999999999999
 30
0.0
 10
2345.379659718455
 20
806.7701497125837
 30
0.0
 10
2341.178853399905
 20
806.7681423750136
 30
0.0
 10
2341.179645987553
 20
808.9999957170734
 30
0.0
 10
2341.1804385752
 20
811.2318490591332
 30
0.0
 10
2345.379639519712
 20
811.2257352451255
 30
0.0
 10
2345.379649609756
 20
808.9999999999999
 30
0.0
  0
SPLINE
  5
79
330
1F
100
AcDbEntity
  8
0
  6
Continuous
 62
     7
370
    25
100
AcDbSpline
210
0.0
220
0.0
230
1.0
 70
    11
 71
     3
 72
    11
 73
     7
 74
     0
 42
0.00000001
 43
0.00000001
 40
0.0
 40
0.0
 40
0.0
 40
0.0
 40
1.0
 40
1.0
 40
1.0
 40
2.0
 40
2.0
 40
2.0
 40
2.0
 10
1183.744350018388
 20
808.9999999999999
 30
0.0
 10
1183.744360127046
 20
806.7701497125223
 30
0.0
 10
1179.543553807875
 20
806.7681423736944
 30
0.0
 10
1179.544346396184
 20
808.9999957170735
 30
0.0
 10
1179.545138984494
 20
811.2318490604525
 30
0.0
 10
1183.744339928385
 20
811.2257352444607
 30
0.0
 10
1183.744350018388
 20
808.9999999999999
 30
0.0
  0
SPLINE
  5
7A
330
1F
100
AcDbEntity
  8
0
  6
Continuous
 62
     7
370
    25
100
AcDbSpline
210
0.0
220
0.0
230
1.0
 70
    11
 71
     3
 72
    11
 73
     7
 74
     0
 42
0.00000001
 43
0.00000001
 40
0.0
 40
0.0
 40
0.0
 40
0.0
 40
1.0
 40
1.0
 40
1.0
 40
2.0
 40
2.0
 40
2.0
 40
2.0
 10
2926.197299405441
 20
929.0000000000001
 30
0.0
 10
2926.197309514093
 20
926.7701497135081
 30
0.0
 10
2921.996503195092
 20
926.7681423732664
 30
0.0
 10
2921.997295783236
 20
928.9999957170734
 30
0.0
 10
2921.99808837138
 20
931.2318490608803
 30
0.0
 10
2926.197289315444
 20
931.2257352477861
 30
0.0
 10
2926.197299405441
 20
929.0000000000001
 30
0.0
  0
SPLINE
  5
7B
330
1F
100
AcDbEntity
  8
0
  6
Continuous
 62
     7
370
    25
100
AcDbSpline
210
0.0
220
0.0
230
1.0
 70
    11
 71
     3
 72
    11
 73
     7
 74
     0
 42
0.00000001
 43
0.00000001
 40
0.0
 40
0.0
 40
0.0
 40
0.0
 40
1.0
 40
1.0
 40
1.0
 40
2.0
 40
2.0
 40
2.0
 40
2.0
 10
1764.561999814067
 20
928.9999999999999
 30
0.0
 10
1764.562009922712
 20
926.770149713118
 30
0.0
 10
1760.361203603637
 20
926.7681423736573
 30
0.0
 10
1760.361996191863
 20
928.9999957170734
 30
0.0
 10
1760.36278878009
 20
931.2318490604895
 30
0.0
 10
1764.561989724076
 20
931.2257352446267
 30
0.0
 10
1764.561999814067
 20
928.9999999999999
 30
0.0
  0
SPLINE
  5
7C
330
1F
100
AcDbEntity
  8
0
  6
Continuous
 62
     7
370
    25
100
AcDbSpline
210
0.0
220
0.0
230
1.0
 70
    11
 71
     3
 72
    11
 73
     7
 74
     0
 42
0.00000001
 43
0.00000001
 40
0.0
 40
0.0
 40
0.0
 40
0.0
 40
1.0
 40
1.0
 40
1.0
 40
2.0
 40
2.0
 40
2.0
 40
2.0
 10
602.9267002227056
 20
928.9999999999998
 30
0.0
 10
602.9267103313839
 20
926.7701497119705
 30
0.0
 10
598.7259040121921
 20
926.7681423732581
 30
0.0
 10
598.7266966005018
 20
928.9999957170734
 30
0.0
 10
598.7274891888114
 20
931.2318490608886
 30
0.0
 10
602.9266901326819
 20
931.2257352442068
 30
0.0
 10
602.9267002227056
 20
928.9999999999998
 30
0.0
  0
SPLINE
  5
7D
330
1F
100
AcDbEntity
  8
0
  6
Continuous
 62
     7
370
    25
100
AcDbSpline
210
0.0
220
0.0
230
1.0
 70
    11
 71
     3
 72
    11
 73
     7
 74
     0
 42
0.00000001
 43
0.00000001
 40
0.0
 40
0.0
 40
0.0
 40
0.0
 40
1.0
 40
1.0
 40
1.0
 40
2.0
 40
2.0
 40
2.0
 40
2.0
 10
2345.379649609757
 20
1049.0
 30
0.0
 10
2345.379659718434
 20
1046.770149713177
 30
0.0
 10
2341.178853400071
 20
1046.768142377015
 30
0.0
 10
2341.179645987553
 20
1048.999995717074
 30
0.0
 10
2341.180438575035
 20
1051.231849057132
 30
0.0
 10
2345.379639519734
 20
1051.225735244491
 30
0.0
 10
2345.379649609757
 20
1049.0
 30
0.0
  0
SPLINE
  5
7E
330
1F
100
AcDbEntity
  8
0
  6
Continuous
 62
     7
370
    25
100
AcDbSpline
210
0.0
220
0.0
230
1.0
 70
    11
 71
     3
 72
    11
 73
     7
 74
     0
 42
0.00000001
 43
0.00000001
 40
0.0
 40
0.0
 40
0.0
 40
0.0
 40
1.0
 40
1.0
 40
1.0
 40
2.0
 40
2.0
 40
2.0
 40
2.0
 10
1183.744350018388
 20
1049.0
 30
0.0
 10
1183.744360127051
 20
1046.770149712931
 30
0.0
 10
1179.543553808702
 20
1046.768142375286
 30
0.0
 10
1179.544346396184
 20
1048.999995717073
 30
0.0
 10
1179.545138983667
 20
1051.231849058861
 30
0.0
 10
1183.74433992838
 20
1051.225735244807
 30
0.0
 10
1183.744350018388
 20
1049.0
 30
0.0
  0
LINE
  5
7F
330
1F
100
AcDbEntity
  8
0
  6
Continuous
 62
     7
370
    25
100
AcDbLine
 10
2947.1815808475
 20
-56.0
 30
0.0
 11
2947.1815808475
 21
1194.0
 31
0.0
  0
LINE
  5
80
330
1F
100
AcDbEntity
  8
0
  6
Continuous
 62
     7
370
    25
100
AcDbLine
 10
2947.1815808475
 20
1194.0
 30
0.0
 11
0.0
 21
1194.0
 31
0.0
  0
LINE
  5
81
330
1F
100
AcDbEntity
  8
0
  6
Continuous
 62
     7
370
    25
100
AcDbLine
 10
0.0
 20
1194.0
 30
0.0
 11
0.0
 21
-56.0
 31
0.0
  0
LINE
  5
82
330
1F
100
AcDbEntity
  8
0
  6
Continuous
 62
     7
370
    25
100
AcDbLine
 10
0.0
 20
-56.0
 30
0.0
 11
2947.1815808475
 21
-56.0
 31
0.0
  0
SPLINE
  5
83
330
1F
100
AcDbEntity
  8
0
  6
Continuous
 62
     7
370
    25
100
AcDbSpline
210
0.0
220
0.0
230
1.0
 70
    11
 71
     3
 72
    11
 73
     7
 74
     0
 42
0.00000001
 43
0.00000001
 40
0.0
 40
0.0
 40
0.0
 40
0.0
 40
1.0
 40
1.0
 40
1.0
 40
2.0
 40
2.0
 40
2.0
 40
2.0
 10
1764.561999814067
 20
1049.0
 30
0.0
 10
1764.562009922729
 20
1046.770149710734
 30
0.0
 10
1760.361203604381
 20
1046.768142375281
 30
0.0
 10
1760.361996191863
 20
1048.999995717074
 30
0.0
 10
1760.362788779346
 20
1051.231849058867
 30
0.0
 10
1764.561989724058
 20
1051.225735242351
 30
0.0
 10
1764.561999814067
 20
1049.0
 30
0.0
  0
SPLINE
  5
84
330
1F
100
AcDbEntity
  8
0
  6
Continuous
 62
     7
370
    25
100
AcDbSpline
210
0.0
220
0.0
230
1.0
 70
    11
 71
     3
 72
    11
 73
     7
 74
     0
 42
0.00000001
 43
0.00000001
 40
0.0
 40
0.0
 40
0.0
 40
0.0
 40
1.0
 40
1.0
 40
1.0
 40
2.0
 40
2.0
 40
2.0
 40
2.0
 10
2926.197299405441
 20
1049.0
 30
0.0
 10
2926.1973095141
 20
1046.770149712723
 30
0.0
 10
2921.996503195092
 20
1046.76814237423
 30
0.0
 10
2921.997295783236
 20
1048.999995717073
 30
0.0
 10
2921.99808837138
 20
1051.231849059917
 30
0.0
 10
2926.197289315436
 20
1051.2257352424
 30
0.0
 10
2926.197299405441
 20
1049.0
 30
0.0
  0
SPLINE
  5
85
330
1F
100
AcDbEntity
  8
0
  6
Continuous
 62
     7
370
    25
100
AcDbSpline
210
0.0
220
0.0
230
1.0
 70
    11
 71
     3
 72
    11
 73
     7
 74
     0
 42
0.00000001
 43
0.00000001
 40
0.0
 40
0.0
 40
0.0
 40
0.0
 40
1.0
 40
1.0
 40
1.0
 40
2.0
 40
2.0
 40
2.0
 40
2.0
 10
1183.744350018388
 20
928.9999999999999
 30
0.0
 10
1183.744360127046
 20
926.7701497125219
 30
0.0
 10
1179.54355380804
 20
926.7681423746557
 30
0.0
 10
1179.544346396184
 20
928.9999957170735
 30
0.0
 10
1179.545138984328
 20
931.2318490594913
 30
0.0
 10
1183.744339928385
 20
931.2257352441918
 30
0.0
 10
1183.744350018388
 20
928.9999999999999
 30
0.0
  0
SPLINE
  5
86
330
1F
100
AcDbEntity
  8
0
  6
Continuous
 62
     7
370
    25
100
AcDbSpline
210
0.0
220
0.0
230
1.0
 70
    11
 71
     3
 72
    11
 73
     7
 74
     0
 42
0.00000001
 43
0.00000001
 40
0.0
 40
0.0
 40
0.0
 40
0.0
 40
1.0
 40
1.0
 40
1.0
 40
2.0
 40
2.0
 40
2.0
 40
2.0
 10
2345.379649609756
 20
928.9999999999998
 30
0.0
 10
2345.379659718455
 20
926.7701497125842
 30
0.0
 10
2341.178853399905
 20
926.7681423748483
 30
0.0
 10
2341.179645987553
 20
928.9999957170734
 30
0.0
 10
2341.1804385752
 20
931.2318490592985
 30
0.0
 10
2345.379639519712
 20
931.2257352439295
 30
0.0
 10
2345.379649609756
 20
928.9999999999998
 30
0.0
  0
SPLINE
  5
87
330
1F
100
AcDbEntity
  8
0
  6
Continuous
 62
     7
370
    25
100
AcDbSpline
210
0.0
220
0.0
230
1.0
 70
    11
 71
     3
 72
    11
 73
     7
 74
     0
 42
0.00000001
 43
0.00000001
 40
0.0
 40
0.0
 40
0.0
 40
0.0
 40
1.0
 40
1.0
 40
1.0
 40
2.0
 40
2.0
 40
2.0
 40
2.0
 10
602.9267002227056
 20
808.9999999999999
 30
0.0
 10
602.9267103313839
 20
806.7701497119697
 30
0.0
 10
598.725904012027
 20
806.768142372529
 30
0.0
 10
598.7266966005018
 20
808.9999957170735
 30
0.0
 10
598.7274891889766
 20
811.2318490616179
 30
0.0
 10
602.9266901326819
 20
811.2257352438772
 30
0.0
 10
602.9267002227056
 20
808.9999999999999
 30
0.0
  0
SPLINE
  5
88
330
1F
100
AcDbEntity
  8
0
  6
Continuous
 62
     7
370
    25
100
AcDbSpline
210
0.0
220
0.0
230
1.0
 70
    11
 71
     3
 72
    11
 73
     7
 74
     0
 42
0.00000001
 43
0.00000001
 40
0.0
 40
0.0
 40
0.0
 40
0.0
 40
1.0
 40
1.0
 40
1.0
 40
2.0
 40
2.0
 40
2.0
 40
2.0
 10
1764.561999814067
 20
809.0
 30
0.0
 10
1764.562009922726
 20
806.7701497126893
 30
0.0
 10
1760.361203604381
 20
806.7681423754489
 30
0.0
 10
1760.361996191863
 20
808.9999957170735
 30
0.0
 10
1760.362788779346
 20
811.231849058698
 30
0.0
 10
1764.561989724063
 20
811.2257352454193
 30
0.0
 10
1764.561999814067
 20
809.0
 30
0.0
  0
SPLINE
  5
89
330
1F
100
AcDbEntity
  8
0
  6
Continuous
 62
     7
370
    25
100
AcDbSpline
210
0.0
220
0.0
230
1.0
 70
    11
 71
     3
 72
    11
 73
     7
 74
     0
 42
0.00000001
 43
0.00000001
 40
0.0
 40
0.0
 40
0.0
 40
0.0
 40
1.0
 40
1.0
 40
1.0
 40
2.0
 40
2.0
 40
2.0
 40
2.0
 10
2926.197299405441
 20
809.0
 30
0.0
 10
2926.197309514093
 20
806.7701497141384
 30
0.0
 10
2921.99650319443
 20
806.7681423718357
 30
0.0
 10
2921.997295783236
 20
808.9999957170733
 30
0.0
 10
2921.998088372041
 20
811.2318490623109
 30
0.0
 10
2926.197289315444
 20
811.2257352460247
 30
0.0
 10
2926.197299405441
 20
809.0
 30
0.0
  0
SPLINE
  5
8A
330
1F
100
AcDbEntity
  8
0
  6
Continuous
 62
     7
370
    25
100
AcDbSpline
210
0.0
220
0.0
230
1.0
 70
    11
 71
     3
 72
    11
 73
     7
 74
     0
 42
0.00000001
 43
0.00000001
 40
0.0
 40
0.0
 40
0.0
 40
0.0
 40
1.0
 40
1.0
 40
1.0
 40
2.0
 40
2.0
 40
2.0
 40
2.0
 10
1183.744350018388
 20
689.0
 30
0.0
 10
1183.744360127046
 20
686.7701497123564
 30
0.0
 10
1179.54355380804
 20
686.7681423742586
 30
0.0
 10
1179.544346396184
 20
688.9999957170734
 30
0.0
 10
1179.545138984328
 20
691.2318490598882
 30
0.0
 10
1183.744339928385
 20
691.2257352448598
 30
0.0
 10
1183.744350018388
 20
689.0
 30
0.0
  0
SPLINE
  5
8B
330
1F
100
AcDbEntity
  8
0
  6
Continuous
 62
     7
370
    25
100
AcDbSpline
210
0.0
220
0.0
230
1.0
 70
    11
 71
     3
 72
    11
 73
     7
 74
     0
 42
0.00000001
 43
0.00000001
 40
0.0
 40
0.0
 40
0.0
 40
0.0
 40
1.0
 40
1.0
 40
1.0
 40
2.0
 40
2.0
 40
2.0
 40
2.0
 10
2345.379649609756
 20
688.9999999999999
 30
0.0
 10
2345.379659718455
 20
686.770149711789
 30
0.0
 10
2341.178853399078
 20
686.768142372688
 30
0.0
 10
2341.179645987553
 20
688.9999957170733
 30
0.0
 10
2341.180438576027
 20
691.2318490614585
 30
0.0
 10
2345.379639519712
 20
691.2257352432954
 30
0.0
 10
2345.379649609756
 20
688.9999999999999
 30
0.0
  0
SPLINE
  5
8C
330
1F
100
AcDbEntity
  8
0
  6
Continuous
 62
     7
370
    25
100
AcDbSpline
210
0.0
220
0.0
230
1.0
 70
    11
 71
     3
 72
    11
 73
     7
 74
     0
 42
0.00000001
 43
0.00000001
 40
0.0
 40
0.0
 40
0.0
 40
0.0
 40
1.0
 40
1.0
 40
1.0
 40
2.0
 40
2.0
 40
2.0
 40
2.0
 10
602.9267002227056
 20
569.0
 30
0.0
 10
602.9267103313839
 20
566.7701497121346
 30
0.0
 10
598.725904012027
 20
566.7681423725289
 30
0.0
 10
598.7266966005018
 20
568.9999957170735
 30
0.0
 10
598.7274891889766
 20
571.231849061618
 30
0.0
 10
602.9266901326819
 20
571.2257352449093
 30
0.0
 10
602.9267002227056
 20
569.0
 30
0.0
  0
SPLINE
  5
8D
330
1F
100
AcDbEntity
  8
0
  6
Continuous
 62
     7
370
    25
100
AcDbSpline
210
0.0
220
0.0
230
1.0
 70
    11
 71
     3
 72
    11
 73
     7
 74
     0
 42
0.00000001
 43
0.00000001
 40
0.0
 40
0.0
 40
0.0
 40
0.0
 40
1.0
 40
1.0
 40
1.0
 40
2.0
 40
2.0
 40
2.0
 40
2.0
 10
1764.561999814067
 20
569.0
 30
0.0
 10
1764.562009922726
 20
566.7701497133194
 30
0.0
 10
1760.361203603637
 20
566.7681423734876
 30
0.0
 10
1760.361996191863
 20
568.9999957170734
 30
0.0
 10
1760.36278878009
 20
571.2318490606592
 30
0.0
 10
1764.561989724063
 20
571.2257352448211
 30
0.0
 10
1764.561999814067
 20
569.0
 30
0.0
  0
SPLINE
  5
8E
330
1F
100
AcDbEntity
  8
0
  6
Continuous
 62
     7
370
    25
100
AcDbSpline
210
0.0
220
0.0
230
1.0
 70
    11
 71
     3
 72
    11
 73
     7
 74
     0
 42
0.00000001
 43
0.00000001
 40
0.0
 40
0.0
 40
0.0
 40
0.0
 40
1.0
 40
1.0
 40
1.0
 40
2.0
 40
2.0
 40
2.0
 40
2.0
 10
2926.197299405441
 20
569.0000000000001
 30
0.0
 10
2926.197309514093
 20
566.7701497133439
 30
0.0
 10
2921.99650319443
 20
566.7681423715055
 30
0.0
 10
2921.997295783236
 20
568.9999957170734
 30
0.0
 10
2921.998088372041
 20
571.2318490626412
 30
0.0
 10
2926.197289315443
 20
571.2257352500166
 30
0.0
 10
2926.197299405441
 20
569.0000000000001
 30
0.0
  0
SPLINE
  5
8F
330
1F
100
AcDbEntity
  8
0
  6
Continuous
 62
     7
370
    25
100
AcDbSpline
210
0.0
220
0.0
230
1.0
 70
    11
 71
     3
 72
    11
 73
     7
 74
     0
 42
0.00000001
 43
0.00000001
 40
0.0
 40
0.0
 40
0.0
 40
0.0
 40
1.0
 40
1.0
 40
1.0
 40
2.0
 40
2.0
 40
2.0
 40
2.0
 10
1183.744350018387
 20
449.0
 30
0.0
 10
1183.744360127054
 20
446.7701497122546
 30
0.0
 10
1179.543553808206
 20
446.7681423744554
 30
0.0
 10
1179.544346396184
 20
448.9999957170734
 30
0.0
 10
1179.545138984163
 20
451.2318490596915
 30
0.0
 10
1183.744339928376
 20
451.2257352441588
 30
0.0
 10
1183.744350018387
 20
449.0
 30
0.0
  0
SPLINE
  5
90
330
1F
100
AcDbEntity
  8
0
  6
Continuous
 62
     7
370
    25
100
AcDbSpline
210
0.0
220
0.0
230
1.0
 70
    11
 71
     3
 72
    11
 73
     7
 74
     0
 42
0.00000001
 43
0.00000001
 40
0.0
 40
0.0
 40
0.0
 40
0.0
 40
1.0
 40
1.0
 40
1.0
 40
2.0
 40
2.0
 40
2.0
 40
2.0
 10
2345.379649609756
 20
449.0000000000001
 30
0.0
 10
2345.37965971843
 20
446.7701497114824
 30
0.0
 10
2341.178853399243
 20
446.768142374453
 30
0.0
 10
2341.179645987552
 20
448.9999957170733
 30
0.0
 10
2341.180438575861
 20
451.2318490596936
 30
0.0
 10
2345.379639519737
 20
451.2257352440993
 30
0.0
 10
2345.379649609756
 20
449.0000000000001
 30
0.0
  0
SPLINE
  5
91
330
1F
100
AcDbEntity
  8
0
  6
Continuous
 62
     7
370
    25
100
AcDbSpline
210
0.0
220
0.0
230
1.0
 70
    11
 71
     3
 72
    11
 73
     7
 74
     0
 42
0.00000001
 43
0.00000001
 40
0.0
 40
0.0
 40
0.0
 40
0.0
 40
1.0
 40
1.0
 40
1.0
 40
2.0
 40
2.0
 40
2.0
 40
2.0
 10
602.9267002227056
 20
328.9999999999999
 30
0.0
 10
602.9267103313767
 20
326.7701497122698
 30
0.0
 10
598.725904012358
 20
326.7681423738912
 30
0.0
 10
598.7266966005018
 20
328.9999957170734
 30
0.0
 10
598.7274891886456
 20
331.2318490602556
 30
0.0
 10
602.9266901326896
 20
331.2257352454535
 30
0.0
 10
602.9267002227056
 20
328.9999999999999
 30
0.0
  0
SPLINE
  5
92
330
1F
100
AcDbEntity
  8
0
  6
Continuous
 62
     7
370
    25
100
AcDbSpline
210
0.0
220
0.0
230
1.0
 70
    11
 71
     3
 72
    11
 73
     7
 74
     0
 42
0.00000001
 43
0.00000001
 40
0.0
 40
0.0
 40
0.0
 40
0.0
 40
1.0
 40
1.0
 40
1.0
 40
2.0
 40
2.0
 40
2.0
 40
2.0
 10
1764.561999814066
 20
328.9999999999998
 30
0.0
 10
1764.562009922762
 20
326.7701497126056
 30
0.0
 10
1760.361203603968
 20
326.7681423752498
 30
0.0
 10
1760.361996191863
 20
328.9999957170733
 30
0.0
 10
1760.362788779759
 20
331.2318490588968
 30
0.0
 10
1764.561989724026
 20
331.2257352449982
 30
0.0
 10
1764.561999814066
 20
328.9999999999998
 30
0.0
  0
SPLINE
  5
93
330
1F
100
AcDbEntity
  8
0
  6
Continuous
 62
     7
370
    25
100
AcDbSpline
210
0.0
220
0.0
230
1.0
 70
    11
 71
     3
 72
    11
 73
     7
 74
     0
 42
0.00000001
 43
0.00000001
 40
0.0
 40
0.0
 40
0.0
 40
0.0
 40
1.0
 40
1.0
 40
1.0
 40
2.0
 40
2.0
 40
2.0
 40
2.0
 10
2926.197299405441
 20
328.9999999999999
 30
0.0
 10
2926.197309514118
 20
326.770149712677
 30
0.0
 10
2921.996503195092
 20
326.7681423739817
 30
0.0
 10
2921.997295783236
 20
328.9999957170733
 30
0.0
 10
2921.99808837138
 20
331.2318490601648
 30
0.0
 10
2926.197289315418
 20
331.2257352439618
 30
0.0
 10
2926.197299405441
 20
328.9999999999999
 30
0.0
  0
SPLINE
  5
94
330
1F
100
AcDbEntity
  8
0
  6
Continuous
 62
     7
370
    25
100
AcDbSpline
210
0.0
220
0.0
230
1.0
 70
    11
 71
     3
 72
    11
 73
     7
 74
     0
 42
0.00000001
 43
0.00000001
 40
0.0
 40
0.0
 40
0.0
 40
0.0
 40
1.0
 40
1.0
 40
1.0
 40
2.0
 40
2.0
 40
2.0
 40
2.0
 10
1183.744350018388
 20
209.0
 30
0.0
 10
1183.744360127061
 20
206.7701497127533
 30
0.0
 10
1179.543553808703
 20
206.768142376961
 30
0.0
 10
1179.544346396184
 20
208.9999957170734
 30
0.0
 10
1179.545138983666
 20
211.2318490571858
 30
0.0
 10
1183.744339928369
 20
211.225735244582
 30
0.0
 10
1183.744350018388
 20
209.0
 30
0.0
  0
SPLINE
  5
95
330
1F
100
AcDbEntity
  8
0
  6
Continuous
 62
     7
370
    25
100
AcDbSpline
210
0.0
220
0.0
230
1.0
 70
    11
 71
     3
 72
    11
 73
     7
 74
     0
 42
0.00000001
 43
0.00000001
 40
0.0
 40
0.0
 40
0.0
 40
0.0
 40
1.0
 40
1.0
 40
1.0
 40
2.0
 40
2.0
 40
2.0
 40
2.0
 10
2345.379649609756
 20
209.0000000000001
 30
0.0
 10
2345.379659718459
 20
206.7701497119449
 30
0.0
 10
2341.178853400071
 20
206.7681423763614
 30
0.0
 10
2341.179645987553
 20
208.9999957170734
 30
0.0
 10
2341.180438575035
 20
211.2318490577854
 30
0.0
 10
2345.379639519709
 20
211.2257352467188
 30
0.0
 10
2345.379649609756
 20
209.0000000000001
 30
0.0
  0
SPLINE
  5
96
330
1F
100
AcDbEntity
  8
0
  6
Continuous
 62
     7
370
    25
100
AcDbSpline
210
0.0
220
0.0
230
1.0
 70
    11
 71
     3
 72
    11
 73
     7
 74
     0
 42
0.00000001
 43
0.00000001
 40
0.0
 40
0.0
 40
0.0
 40
0.0
 40
1.0
 40
1.0
 40
1.0
 40
2.0
 40
2.0
 40
2.0
 40
2.0
 10
602.9267002227058
 20
88.99999999999997
 30
0.0
 10
602.9267103313705
 20
86.7701497122574
 30
0.0
 10
598.725904012193
 20
86.76814237405401
 30
0.0
 10
598.726696600502
 20
88.99999571707346
 30
0.0
 10
598.727489188811
 20
91.23184906009291
 30
0.0
 10
602.9266901326957
 20
91.22573524463537
 30
0.0
 10
602.9267002227058
 20
88.99999999999997
 30
0.0
  0
SPLINE
  5
97
330
1F
100
AcDbEntity
  8
0
  6
Continuous
 62
     7
370
    25
100
AcDbSpline
210
0.0
220
0.0
230
1.0
 70
    11
 71
     3
 72
    11
 73
     7
 74
     0
 42
0.00000001
 43
0.00000001
 40
0.0
 40
0.0
 40
0.0
 40
0.0
 40
1.0
 40
1.0
 40
1.0
 40
2.0
 40
2.0
 40
2.0
 40
2.0
 10
1764.561999814066
 20
89.00000000000003
 30
0.0
 10
1764.562009922744
 20
86.7701497124816
 30
0.0
 10
1760.361203604133
 20
86.76814237556474
 30
0.0
 10
1760.361996191863
 20
88.9999957170734
 30
0.0
 10
1760.362788779594
 20
91.23184905858206
 30
0.0
 10
1764.561989724044
 20
91.22573524380765
 30
0.0
 10
1764.561999814066
 20
89.00000000000003
 30
0.0
  0
SPLINE
  5
98
330
1F
100
AcDbEntity
  8
0
  6
Continuous
 62
     7
370
    25
100
AcDbSpline
210
0.0
220
0.0
230
1.0
 70
    11
 71
     3
 72
    11
 73
     7
 74
     0
 42
0.00000001
 43
0.00000001
 40
0.0
 40
0.0
 40
0.0
 40
0.0
 40
1.0
 40
1.0
 40
1.0
 40
2.0
 40
2.0
 40
2.0
 40
2.0
 10
2926.197299405441
 20
88.99999999999997
 30
0.0
 10
2926.197309514118
 20
86.77014971188792
 30
0.0
 10
2921.996503194431
 20
86.76814237326974
 30
0.0
 10
2921.997295783237
 20
88.99999571707346
 30
0.0
 10
2921.998088372042
 20
91.23184906087717
 30
0.0
 10
2926.197289315418
 20
91.22573524220087
 30
0.0
 10
2926.197299405441
 20
88.99999999999997
 30
0.0
  0
SPLINE
  5
99
330
1F
100
AcDbEntity
  8
0
  6
Continuous
 62
     7
370
    25
100
AcDbSpline
210
0.0
220
0.0
230
1.0
 70
    11
 71
     3
 72
    11
 73
     7
 74
     0
 42
0.00000001
 43
0.00000001
 40
0.0
 40
0.0
 40
0.0
 40
0.0
 40
1.0
 40
1.0
 40
1.0
 40
2.0
 40
2.0
 40
2.0
 40
2.0
 10
1183.744350018387
 20
-31.00000000000003
 30
0.0
 10
1183.744360127056
 20
-33.22985028682805
 30
0.0
 10
1179.543553808372
 20
-33.23185762475056
 30
0.0
 10
1179.544346396184
 20
-31.0000042829266
 30
0.0
 10
1179.545138983997
 20
-28.76815094110263
 30
0.0
 10
1183.744339928374
 20
-28.77426475494956
 30
0.0
 10
1183.744350018387
 20
-31.00000000000003
 30
0.0
  0
SPLINE
  5
9A
330
1F
100
AcDbEntity
  8
0
  6
Continuous
 62
     7
370
    25
100
AcDbSpline
210
0.0
220
0.0
230
1.0
 70
    11
 71
     3
 72
    11
 73
     7
 74
     0
 42
0.00000001
 43
0.00000001
 40
0.0
 40
0.0
 40
0.0
 40
0.0
 40
1.0
 40
1.0
 40
1.0
 40
2.0
 40
2.0
 40
2.0
 40
2.0
 10
2345.379649609756
 20
-31.00000000000003
 30
0.0
 10
2345.379659718433
 20
-33.22985028763866
 30
0.0
 10
2341.178853399243
 20
-33.23185762714035
 30
0.0
 10
2341.179645987553
 20
-31.0000042829266
 30
0.0
 10
2341.180438575862
 20
-28.76815093871284
 30
0.0
 10
2345.379639519734
 20
-28.77426475652519
 30
0.0
 10
2345.379649609756
 20
-31.00000000000003
 30
0.0
  0
SPLINE
  5
9B
330
1F
100
AcDbEntity
  8
0
  6
Continuous
 62
     7
370
    25
100
AcDbSpline
210
0.0
220
0.0
230
1.0
 70
    11
 71
     3
 72
    11
 73
     7
 74
     0
 42
0.00000001
 43
0.00000001
 40
0.0
 40
0.0
 40
0.0
 40
0.0
 40
1.0
 40
1.0
 40
1.0
 40
2.0
 40
2.0
 40
2.0
 40
2.0
 10
602.9267002227056
 20
1169.0
 30
0.0
 10
602.9267103313774
 20
1166.770149712353
 30
0.0
 10
598.7259040126887
 20
1166.768142374288
 30
0.0
 10
598.7266966005021
 20
1168.999995717074
 30
0.0
 10
598.7274891883156
 20
1171.23184905986
 30
0.0
 10
602.9266901326885
 20
1171.22573524482
 30
0.0
 10
602.9267002227056
 20
1169.0
 30
0.0
  0
SPLINE
  5
9C
330
1F
100
AcDbEntity
  8
0
  6
Continuous
 62
     7
370
    25
100
AcDbSpline
210
0.0
220
0.0
230
1.0
 70
    11
 71
     3
 72
    11
 73
     7
 74
     0
 42
0.00000001
 43
0.00000001
 40
0.0
 40
0.0
 40
0.0
 40
0.0
 40
1.0
 40
1.0
 40
1.0
 40
2.0
 40
2.0
 40
2.0
 40
2.0
 10
1764.561999814067
 20
1169.0
 30
0.0
 10
1764.562009922729
 20
1166.770149712325
 30
0.0
 10
1760.361203604381
 20
1166.768142375281
 30
0.0
 10
1760.361996191863
 20
1168.999995717073
 30
0.0
 10
1760.362788779346
 20
1171.231849058865
 30
0.0
 10
1764.561989724058
 20
1171.225735242023
 30
0.0
 10
1764.561999814067
 20
1169.0
 30
0.0
  0
SPLINE
  5
9D
330
1F
100
AcDbEntity
  8
0
  6
Continuous
 62
     7
370
    25
100
AcDbSpline
210
0.0
220
0.0
230
1.0
 70
    11
 71
     3
 72
    11
 73
     7
 74
     0
 42
0.00000001
 43
0.00000001
 40
0.0
 40
0.0
 40
0.0
 40
0.0
 40
1.0
 40
1.0
 40
1.0
 40
2.0
 40
2.0
 40
2.0
 40
2.0
 10
2926.197299405441
 20
1169.0
 30
0.0
 10
2926.1973095141
 20
1166.770149711928
 30
0.0
 10
2921.99650319443
 20
1166.768142372302
 30
0.0
 10
2921.997295783236
 20
1168.999995717073
 30
0.0
 10
2921.998088372041
 20
1171.231849061844
 30
0.0
 10
2926.197289315436
 20
1171.225735242069
 30
0.0
 10
2926.197299405441
 20
1169.0
 30
0.0
  0
SPLINE
  5
9E
330
1F
100
AcDbEntity
  8
0
  6
Continuous
 62
     7
370
    25
100
AcDbSpline
210
0.0
220
0.0
230
1.0
 70
    11
 71
     3
 72
    17
 73
    13
 74
     0
 42
0.00000001
 43
0.00000001
 40
0.0
 40
0.0
 40
0.0
 40
0.0
 40
1.0
 40
1.0
 40
1.0
 40
2.0
 40
2.0
 40
2.0
 40
3.0
 40
3.0
 40
3.0
 40
4.0
 40
4.0
 40
4.0
 40
4.0
 10
731.2645091280651
 20
469.0000000000001
 30
0.0
 10
731.2645079989833
 20
459.7184345357464
 30
0.0
 10
723.0441057406953
 20
451.5003959048925
 30
0.0
 10
713.7634615598547
 20
451.5000000061776
 30
0.0
 10
704.4828173790141
 20
451.4996041074627
 30
0.0
 10
696.26281584047
 20
459.7193999687762
 30
0.0
 10
696.262418183007
 20
469.0000015142837
 30
0.0
 10
696.2620205255439
 20
478.2806030597912
 30
0.0
 10
704.4828230516376
 20
486.4996028615491
 30
0.0
 10
713.7634658861829
 20
486.5000000079418
 30
0.0
 10
723.044108720728
 20
486.5003971543345
 30
0.0
 10
731.2645102573986
 20
478.2836337718904
 30
0.0
 10
731.2645091280651
 20
469.0000000000001
 30
0.0
  0
ENDSEC
  0
SECTION
  2
OBJECTS
  0
DICTIONARY
  5
C
330
0
100
AcDbDictionary
281
     1
  3
ACAD_GROUP
350
D
  3
ACAD_LAYOUT
350
1A
  3
ACAD_MLINESTYLE
350
17
  3
ACAD_PLOTSETTINGS
350
19
  3
ACAD_PLOTSTYLENAME
350
E
  3
ACAD_SCALELIST
350
47
  3
DWGPROPS
350
9F
  0
DICTIONARY
  5
D
102
{ACAD_REACTORS
330
C
102
}
330
C
100
AcDbDictionary
281
     1
  0
DICTIONARY
  5
1A
102
{ACAD_REACTORS
330
C
102
}
330
C
100
AcDbDictionary
281
     1
  3
Layout1
350
1E
  3
Layout2
350
26
  3
Model
350
22
  0
DICTIONARY
  5
17
102
{ACAD_REACTORS
330
C
102
}
330
C
100
AcDbDictionary
281
     1
  3
Standard
350
18
  0
DICTIONARY
  5
19
102
{ACAD_REACTORS
330
C
102
}
330
C
100
AcDbDictionary
281
     1
  0
ACDBDICTIONARYWDFLT
  5
E
102
{ACAD_REACTORS
330
C
102
}
330
C
100
AcDbDictionary
281
     1
  3
Normal
350
F
100
AcDbDictionaryWithDefault
340
F
  0
DICTIONARY
  5
47
102
{ACAD_REACTORS
330
C
102
}
330
C
100
AcDbDictionary
281
     1
  3
A0
350
48
  3
A1
350
49
  3
A2
350
4A
  3
A3
350
4B
  3
A4
350
4C
  3
A5
350
4D
  3
A6
350
4E
  3
A7
350
4F
  3
A8
350
50
  3
A9
350
51
  3
B0
350
52
  3
B1
350
53
  3
B2
350
54
  3
B3
350
55
  3
B4
350
56
  3
B5
350
57
  3
B6
350
58
  0
XRECORD
  5
9F
102
{ACAD_REACTORS
330
C
102
}
330
C
100
AcDbXrecord
280
     1
  1
DWGPROPS COOKIE
  2

  3

  4

  6

  7

  8
ademathieu
  9

300
=
301
=
302
=
303
=
304
=
305
=
306
=
307
=
308
=
309
=
 40
0.0
 41
2460269.546687604
 42
2460269.546735706
  1

 90
        0
  0
LAYOUT
  5
1E
102
{ACAD_REACTORS
330
1A
102
}
330
1A
100
AcDbPlotSettings
  1

  2
none_device
  4

  6

 40
0.0
 41
0.0
 42
0.0
 43
0.0
 44
0.0
 45
0.0
 46
0.0
 47
0.0
 48
0.0
 49
0.0
140
0.0
141
0.0
142
1.0
143
1.0
 70
   688
 72
     1
 73
     0
 74
     5
  7

 75
    16
147
1.0
148
0.0
149
0.0
100
AcDbLayout
  1
Layout1
 70
     1
 71
     1
 10
0.0
 20
0.0
 11
420.0
 21
297.0
 12
0.0
 22
0.0
 32
0.0
 14
1.0000000000E+20
 24
1.0000000000E+20
 34
1.0000000000E+20
 15
-1.0000000000E+20
 25
-1.0000000000E+20
 35
-1.0000000000E+20
146
0.0
 13
0.0
 23
0.0
 33
0.0
 16
1.0
 26
0.0
 36
0.0
 17
0.0
 27
1.0
 37
0.0
 76
     0
330
1B
  0
LAYOUT
  5
26
102
{ACAD_REACTORS
330
1A
102
}
330
1A
100
AcDbPlotSettings
  1

  2
none_device
  4

  6

 40
0.0
 41
0.0
 42
0.0
 43
0.0
 44
0.0
 45
0.0
 46
0.0
 47
0.0
 48
0.0
 49
0.0
140
0.0
141
0.0
142
1.0
143
1.0
 70
   688
 72
     1
 73
     0
 74
     5
  7

 75
    16
147
1.0
148
0.0
149
0.0
100
AcDbLayout
  1
Layout2
 70
     1
 71
     2
 10
0.0
 20
0.0
 11
0.0
 21
0.0
 12
0.0
 22
0.0
 32
0.0
 14
0.0
 24
0.0
 34
0.0
 15
0.0
 25
0.0
 35
0.0
146
0.0
 13
0.0
 23
0.0
 33
0.0
 16
1.0
 26
0.0
 36
0.0
 17
0.0
 27
1.0
 37
0.0
 76
     0
330
23
  0
LAYOUT
  5
22
102
{ACAD_REACTORS
330
1A
102
}
330
1A
100
AcDbPlotSettings
  1

  2
none_device
  4
ANSI_A_(11.00_x_8.50_Inches)
  6

 40
6.35
 41
19.05
 42
6.35000508
 43
19.05000254
 44
279.4
 45
215.9
 46
-4.95300254
 47
35.4968372069
 48
0.0
 49
0.0
140
0.0
141
0.0
142
0.0036950557
143
1.0
 70
  1696
 72
     0
 73
     0
 74
     0
  7

 75
     0
147
0.0179189148
148
-1300.4909072572
149
0.0
100
AcDbLayout
  1
Model
 70
     1
 71
     0
 10
0.0
 20
0.0
 11
420.0
 21
297.0
 12
0.0
 22
0.0
 32
0.0
 14
0.0
 24
-56.0
 34
0.0
 15
2947.1815808475
 25
1194.0
 35
0.0
146
0.0
 13
0.0
 23
0.0
 33
0.0
 16
1.0
 26
0.0
 36
0.0
 17
0.0
 27
1.0
 37
0.0
 76
     0
330
1F
331
29
  0
MLINESTYLE
  5
18
102
{ACAD_REACTORS
330
17
102
}
330
17
100
AcDbMlineStyle
  2
Standard
 70
     0
  3

 62
   256
 51
90.0
 52
90.0
 71
     2
 49
0.5
 62
   256
  6
BYLAYER
 49
-0.5
 62
   256
  6
BYLAYER
  0
ACDBPLACEHOLDER
  5
F
102
{ACAD_REACTORS
330
E
102
}
330
E
  0
SCALE
  5
48
102
{ACAD_REACTORS
330
47
102
}
330
47
100
AcDbScale
 70
     0
300
1:1
140
1.0
141
1.0
290
     1
  0
SCALE
  5
49
102
{ACAD_REACTORS
330
47
102
}
330
47
100
AcDbScale
 70
     0
300
1:2
140
1.0
141
2.0
290
     0
  0
SCALE
  5
4A
102
{ACAD_REACTORS
330
47
102
}
330
47
100
AcDbScale
 70
     0
300
1:4
140
1.0
141
4.0
290
     0
  0
SCALE
  5
4B
102
{ACAD_REACTORS
330
47
102
}
330
47
100
AcDbScale
 70
     0
300
1:5
140
1.0
141
5.0
290
     0
  0
SCALE
  5
4C
102
{ACAD_REACTORS
330
47
102
}
330
47
100
AcDbScale
 70
     0
300
1:8
140
1.0
141
8.0
290
     0
  0
SCALE
  5
4D
102
{ACAD_REACTORS
330
47
102
}
330
47
100
AcDbScale
 70
     0
300
1:10
140
1.0
141
10.0
290
     0
  0
SCALE
  5
4E
102
{ACAD_REACTORS
330
47
102
}
330
47
100
AcDbScale
 70
     0
300
1:16
140
1.0
141
16.0
290
     0
  0
SCALE
  5
4F
102
{ACAD_REACTORS
330
47
102
}
330
47
100
AcDbScale
 70
     0
300
1:20
140
1.0
141
20.0
290
     0
  0
SCALE
  5
50
102
{ACAD_REACTORS
330
47
102
}
330
47
100
AcDbScale
 70
     0
300
1:30
140
1.0
141
30.0
290
     0
  0
SCALE
  5
51
102
{ACAD_REACTORS
330
47
102
}
330
47
100
AcDbScale
 70
     0
300
1:40
140
1.0
141
40.0
290
     0
  0
SCALE
  5
52
102
{ACAD_REACTORS
330
47
102
}
330
47
100
AcDbScale
 70
     0
300
1:50
140
1.0
141
50.0
290
     0
  0
SCALE
  5
53
102
{ACAD_REACTORS
330
47
102
}
330
47
100
AcDbScale
 70
     0
300
1:100
140
1.0
141
100.0
290
     0
  0
SCALE
  5
54
102
{ACAD_REACTORS
330
47
102
}
330
47
100
AcDbScale
 70
     0
300
2:1
140
2.0
141
1.0
290
     0
  0
SCALE
  5
55
102
{ACAD_REACTORS
330
47
102
}
330
47
100
AcDbScale
 70
     0
300
4:1
140
4.0
141
1.0
290
     0
  0
SCALE
  5
56
102
{ACAD_REACTORS
330
47
102
}
330
47
100
AcDbScale
 70
     0
300
8:1
140
8.0
141
1.0
290
     0
  0
SCALE
  5
57
102
{ACAD_REACTORS
330
47
102
}
330
47
100
AcDbScale
 70
     0
300
10:1
140
10.0
141
1.0
290
     0
  0
SCALE
  5
58
102
{ACAD_REACTORS
330
47
102
}
330
47
100
AcDbScale
 70
     0
300
100:1
140
100.0
141
1.0
290
     0
  0
ENDSEC
  0
EOF
