  0
SECTION
  2
HEADER
  9
$ACADVER
  1
AC1015
  9
$ACADMAINTVER
 70
     6
  9
$DWGCODEPAGE
  3
ANSI_1252
  9
$INSBASE
 10
0.0
 20
0.0
 30
0.0
  9
$EXTMIN
 10
0.0
 20
-56.0
 30
0.0
  9
$EXTMAX
 10
2947.1815808475
 20
1194.0
 30
0.0
  9
$LIMMIN
 10
0.0
 20
0.0
  9
$LIMMAX
 10
420.0
 20
297.0
  9
$ORTHOMODE
 70
     0
  9
$REGENMODE
 70
     1
  9
$FILLMODE
 70
     1
  9
$QTEXTMODE
 70
     0
  9
$MIRRTEXT
 70
     1
  9
$LTSCALE
 40
1.0
  9
$ATTMODE
 70
     1
  9
$TEXTSIZE
 40
3.5
  9
$TRACEWID
 40
1.0
  9
$TEXTSTYLE
  7
Standard
  9
$CLAYER
  8
0
  9
$CELTYPE
  6
ByLayer
  9
$CECOLOR
 62
   256
  9
$CELTSCALE
 40
1.0
  9
$DISPSILH
 70
     0
  9
$DIMSCALE
 40
1.0
  9
$DIMASZ
 40
3.556
  9
$DIMEXO
 40
0.0
  9
$DIMDLI
 40
3.75
  9
$DIMRND
 40
0.0
  9
$DIMDLE
 40
0.0
  9
$DIMEXE
 40
1.0
  9
$DIMTP
 40
0.0
  9
$DIMTM
 40
0.0
  9
$DIMTXT
 40
3.5
  9
$DIMCEN
 40
2.5
  9
$DIMTSZ
 40
0.0
  9
$DIMTOL
 70
     0
  9
$DIMLIM
 70
     0
  9
$DIMTIH
 70
     1
  9
$DIMTOH
 70
     1
  9
$DIMSE1
 70
     0
  9
$DIMSE2
 70
     0
  9
$DIMTAD
 70
     1
  9
$DIMZIN
 70
     0
  9
$DIMBLK
  1

  9
$DIMASO
 70
     1
  9
$DIMSHO
 70
     1
  9
$DIMPOST
  1

  9
$DIMAPOST
  1

  9
$DIMALT
 70
     0
  9
$DIMALTD
 70
     3
  9
$DIMALTF
 40
0.0393700787
  9
$DIMLFAC
 40
1.0
  9
$DIMTOFL
 70
     1
  9
$DIMTVP
 40
0.0
  9
$DIMTIX
 70
     0
  9
$DIMSOXD
 70
     0
  9
$DIMSAH
 70
     0
  9
$DIMBLK1
  1

  9
$DIMBLK2
  1

  9
$DIMSTYLE
  2
ISO-25
  9
$DIMCLRD
 70
     0
  9
$DIMCLRE
 70
     0
  9
$DIMCLRT
 70
     0
  9
$DIMTFAC
 40
1.0
  9
$DIMGAP
 40
1.524
  9
$DIMJUST
 70
     0
  9
$DIMSD1
 70
     0
  9
$DIMSD2
 70
     0
  9
$DIMTOLJ
 70
     0
  9
$DIMTZIN
 70
     0
  9
$DIMALTZ
 70
     0
  9
$DIMALTTZ
 70
     0
  9
$DIMUPT
 70
     0
  9
$DIMDEC
 70
     2
  9
$DIMTDEC
 70
     2
  9
$DIMALTU
 70
     2
  9
$DIMALTTD
 70
     3
  9
$DIMTXSTY
  7
Standard
  9
$DIMAUNIT
 70
     0
  9
$DIMADEC
 70
     0
  9
$DIMALTRND
 40
0.0
  9
$DIMAZIN
 70
     0
  9
$DIMDSEP
 70
    44
  9
$DIMATFIT
 70
     3
  9
$DIMFRAC
 70
     0
  9
$DIMLDRBLK
  1

  9
$DIMLUNIT
 70
     2
  9
$DIMLWD
 70
    -2
  9
$DIMLWE
 70
    -2
  9
$DIMTMOVE
 70
     0
  9
$LUNITS
 70
     2
  9
$LUPREC
 70
     0
  9
$SKETCHINC
 40
1.0
  9
$FILLETRAD
 40
0.0
  9
$AUNITS
 70
     0
  9
$AUPREC
 70
     0
  9
$MENU
  1
.
  9
$ELEVATION
 40
0.0
  9
$PELEVATION
 40
0.0
  9
$THICKNESS
 40
0.0
  9
$LIMCHECK
 70
     0
  9
$CHAMFERA
 40
0.0
  9
$CHAMFERB
 40
0.0
  9
$CHAMFERC
 40
0.0
  9
$CHAMFERD
 40
0.0
  9
$SKPOLY
 70
     0
  9
$TDCREATE
 40
2460269.592507164
  9
$TDUCREATE
 40
2460269.550840497
  9
$TDUPDATE
 40
2460269.592555081
  9
$TDUUPDATE
 40
2460269.550888414
  9
$TDINDWG
 40
0.0000000116
  9
$TDUSRTIMER
 40
0.0000000116
  9
$USRTIMER
 70
     1
  9
$ANGBASE
 50
0.0
  9
$ANGDIR
 70
     0
  9
$PDMODE
 70
     0
  9
$PDSIZE
 40
-1.0
  9
$PLINEWID
 40
0.0
  9
$SPLFRAME
 70
     0
  9
$SPLINETYPE
 70
     6
  9
$SPLINESEGS
 70
     8
  9
$HANDSEED
  5
A0
  9
$SURFTAB1
 70
     6
  9
$SURFTAB2
 70
     6
  9
$SURFTYPE
 70
     6
  9
$SURFU
 70
     6
  9
$SURFV
 70
     6
  9
$UCSBASE
  2

  9
$UCSNAME
  2

  9
$UCSORG
 10
0.0
 20
0.0
 30
0.0
  9
$UCSXDIR
 10
1.0
 20
0.0
 30
0.0
  9
$UCSYDIR
 10
0.0
 20
1.0
 30
0.0
  9
$UCSORTHOREF
  2

  9
$UCSORTHOVIEW
 70
     0
  9
$UCSORGTOP
 10
0.0
 20
0.0
 30
0.0
  9
$UCSORGBOTTOM
 10
0.0
 20
0.0
 30
0.0
  9
$UCSORGLEFT
 10
0.0
 20
0.0
 30
0.0
  9
$UCSORGRIGHT
 10
0.0
 20
0.0
 30
0.0
  9
$UCSORGFRONT
 10
0.0
 20
0.0
 30
0.0
  9
$UCSORGBACK
 10
0.0
 20
0.0
 30
0.0
  9
$PUCSBASE
  2

  9
$PUCSNAME
  2

  9
$PUCSORG
 10
0.0
 20
0.0
 30
0.0
  9
$PUCSXDIR
 10
1.0
 20
0.0
 30
0.0
  9
$PUCSYDIR
 10
0.0
 20
1.0
 30
0.0
  9
$PUCSORTHOREF
  2

  9
$PUCSORTHOVIEW
 70
     0
  9
$PUCSORGTOP
 10
0.0
 20
0.0
 30
0.0
  9
$PUCSORGBOTTOM
 10
0.0
 20
0.0
 30
0.0
  9
$PUCSORGLEFT
 10
0.0
 20
0.0
 30
0.0
  9
$PUCSORGRIGHT
 10
0.0
 20
0.0
 30
0.0
  9
$PUCSORGFRONT
 10
0.0
 20
0.0
 30
0.0
  9
$PUCSORGBACK
 10
0.0
 20
0.0
 30
0.0
  9
$USERI1
 70
     0
  9
$USERI2
 70
     0
  9
$USERI3
 70
     0
  9
$USERI4
 70
     0
  9
$USERI5
 70
     0
  9
$USERR1
 40
0.0
  9
$USERR2
 40
0.0
  9
$USERR3
 40
0.0
  9
$USERR4
 40
0.0
  9
$USERR5
 40
0.0
  9
$WORLDVIEW
 70
     1
  9
$SHADEDGE
 70
     3
  9
$SHADEDIF
 70
    70
  9
$TILEMODE
 70
     1
  9
$MAXACTVP
 70
    64
  9
$PINSBASE
 10
0.0
 20
0.0
 30
0.0
  9
$PLIMCHECK
 70
     0
  9
$PEXTMIN
 10
1.0000000000E+20
 20
1.0000000000E+20
 30
1.0000000000E+20
  9
$PEXTMAX
 10
-1.0000000000E+20
 20
-1.0000000000E+20
 30
-1.0000000000E+20
  9
$PLIMMIN
 10
0.0
 20
0.0
  9
$PLIMMAX
 10
420.0
 20
297.0
  9
$UNITMODE
 70
     0
  9
$VISRETAIN
 70
     1
  9
$PLINEGEN
 70
     0
  9
$PSLTSCALE
 70
     1
  9
$TREEDEPTH
 70
  3020
  9
$CMLSTYLE
  2
Standard
  9
$CMLJUST
 70
     0
  9
$CMLSCALE
 40
20.0
  9
$PROXYGRAPHICS
 70
     1
  9
$MEASUREMENT
 70
     1
  9
$CELWEIGHT
370
    -1
  9
$ENDCAPS
280
     0
  9
$JOINSTYLE
280
     0
  9
$LWDISPLAY
290
     1
  9
$INSUNITS
 70
     4
  9
$HYPERLINKBASE
  1

  9
$STYLESHEET
  1

  9
$XEDIT
290
     1
  9
$CEPSNTYPE
380
     0
  9
$PSTYLEMODE
290
     1
  9
$FINGERPRINTGUID
  2
{df42793c-d446-4446-9088-68b7be0326f5}
  9
$VERSIONGUID
  2
{FAEB1C32-E019-11D5-929B-00C0DF256EC4}
  9
$EXTNAMES
290
     1
  9
$PSVPSCALE
 40
0.0
  9
$OLESTARTUP
290
     0
  0
ENDSEC
  0
SECTION
  2
CLASSES
  0
CLASS
  1
ACDBDICTIONARYWDFLT
  2
AcDbDictionaryWithDefault
  3
ObjectDBX Classes
 90
        0
280
     0
281
     0
  0
CLASS
  1
VISUALSTYLE
  2
AcDbVisualStyle
  3
ObjectDBX Classes
 90
     4095
280
     0
281
     0
  0
CLASS
  1
MATERIAL
  2
AcDbMaterial
  3
ObjectDBX Classes
 90
     1153
280
     0
281
     0
  0
CLASS
  1
SCALE
  2
AcDbScale
  3
ObjectDBX Classes
 90
     1153
280
     0
281
     0
  0
CLASS
  1
TABLESTYLE
  2
AcDbTableStyle
  3
ObjectDBX Classes
 90
     4095
280
     0
281
     0
  0
CLASS
  1
MLEADERSTYLE
  2
AcDbMLeaderStyle
  3
ACDB_MLEADERSTYLE_CLASS
 90
     4095
280
     0
281
     0
  0
CLASS
  1
SUN
  2
AcDbSun
  3
SCENEOE
 90
     1153
280
     0
281
     0
  0
CLASS
  1
ACDBPLACEHOLDER
  2
AcDbPlaceHolder
  3
ObjectDBX Classes
 90
        0
280
     0
281
     0
  0
CLASS
  1
LAYOUT
  2
AcDbLayout
  3
ObjectDBX Classes
 90
        0
280
     0
281
     0
  0
ENDSEC
  0
SECTION
  2
TABLES
  0
TABLE
  2
VPORT
  5
8
330
0
100
AcDbSymbolTable
 70
     1
  0
VPORT
  5
29
330
8
100
AcDbSymbolTableRecord
100
AcDbViewportTableRecord
  2
*Active
 70
     0
 10
0.0
 20
0.0
 11
1.0
 21
1.0
 12
1473.5907904238
 22
569.0
 13
0.0
 23
0.0
 14
10.0
 24
10.0
 15
10.0
 25
10.0
 16
0.0
 26
0.0
 36
1.0
 17
0.0
 27
0.0
 37
0.0
 40
1275.0
 41
2.3577452647
 42
50.0
 43
0.0
 44
0.0
 50
0.0
 51
0.0
 71
     0
 72
   100
 73
     1
 74
     3
 75
     0
 76
     0
 77
     0
 78
     0
281
     0
 65
     1
110
0.0
120
0.0
130
0.0
111
1.0
121
0.0
131
0.0
112
0.0
122
1.0
132
0.0
 79
     0
146
0.0
  0
ENDTAB
  0
TABLE
  2
LTYPE
  5
5
330
0
100
AcDbSymbolTable
 70
     6
  0
LTYPE
  5
14
330
5
100
AcDbSymbolTableRecord
100
AcDbLinetypeTableRecord
  2
ByBlock
 70
     0
  3

 72
    65
 73
     0
 40
0.0
  0
LTYPE
  5
15
330
5
100
AcDbSymbolTableRecord
100
AcDbLinetypeTableRecord
  2
ByLayer
 70
     0
  3

 72
    65
 73
     0
 40
0.0
  0
LTYPE
  5
16
330
5
100
AcDbSymbolTableRecord
100
AcDbLinetypeTableRecord
  2
Continuous
 70
     0
  3
Solid line
 72
    65
 73
     0
 40
0.0
  0
LTYPE
  5
5E
330
5
100
AcDbSymbolTableRecord
100
AcDbLinetypeTableRecord
  2
HIDDEN
 70
     0
  3
Hidden __ __ __ __ __ __ __ __ __ __ __ __ __ __
 72
    65
 73
     2
 40
1.905
 49
1.27
 74
     0
 49
-0.635
 74
     0
  0
LTYPE
  5
5F
330
5
100
AcDbSymbolTableRecord
100
AcDbLinetypeTableRecord
  2
PHANTOM
 70
     0
  3
Phantom ______  __  __  ______  __  __  ______
 72
    65
 73
     6
 40
12.7
 49
6.35
 74
     0
 49
-1.27
 74
     0
 49
1.27
 74
     0
 49
-1.27
 74
     0
 49
1.27
 74
     0
 49
-1.27
 74
     0
  0
LTYPE
  5
60
330
5
100
AcDbSymbolTableRecord
100
AcDbLinetypeTableRecord
  2
CENTER
 70
     0
  3
Center ____ _ ____ _ ____ _ ____ _ ____ _ ____
 72
    65
 73
     4
 40
10.16
 49
6.35
 74
     0
 49
-1.27
 74
     0
 49
1.27
 74
     0
 49
-1.27
 74
     0
  0
LTYPE
  5
61
330
5
100
AcDbSymbolTableRecord
100
AcDbLinetypeTableRecord
  2
CENTERX2
 70
     0
  3
Center (2x) ________  __  ________  __  _____
 72
    65
 73
     4
 40
20.32
 49
12.7
 74
     0
 49
-2.54
 74
     0
 49
2.54
 74
     0
 49
-2.54
 74
     0
  0
LTYPE
  5
62
330
5
100
AcDbSymbolTableRecord
100
AcDbLinetypeTableRecord
  2
DOT2
 70
     0
  3
Dot (.5x) ........................................
 72
    65
 73
     2
 40
0.635
 49
0.0
 74
     0
 49
-0.635
 74
     0
  0
ENDTAB
  0
TABLE
  2
LAYER
  5
2
330
0
100
AcDbSymbolTable
 70
     1
  0
LAYER
  5
10
330
2
100
AcDbSymbolTableRecord
100
AcDbLayerTableRecord
  2
0
 70
     0
 62
     7
  6
Continuous
370
    -3
390
F
  0
ENDTAB
  0
TABLE
  2
STYLE
  5
3
330
0
100
AcDbSymbolTable
 70
     1
  0
STYLE
  5
11
330
3
100
AcDbSymbolTableRecord
100
AcDbTextStyleTableRecord
  2
Standard
 70
     0
 40
0.0
 41
1.0
 50
0.0
 71
     0
 42
3.5
  3
txt
  4

  0
ENDTAB
  0
TABLE
  2
VIEW
  5
6
330
0
100
AcDbSymbolTable
 70
     0
  0
ENDTAB
  0
TABLE
  2
UCS
  5
7
330
0
100
AcDbSymbolTable
 70
     0
  0
ENDTAB
  0
TABLE
  2
APPID
  5
9
330
0
100
AcDbSymbolTable
 70
     1
  0
APPID
  5
12
330
9
100
AcDbSymbolTableRecord
100
AcDbRegAppTableRecord
  2
ACAD
 70
     0
  0
ENDTAB
  0
TABLE
  2
DIMSTYLE
  5
A
330
0
100
AcDbSymbolTable
 70
     1
100
AcDbDimStyleTable
  0
DIMSTYLE
105
27
330
A
100
AcDbSymbolTableRecord
100
AcDbDimStyleTableRecord
  2
ISO-25
 70
     0
 41
2.5
 42
0.625
 43
3.75
 44
1.25
 73
     0
 74
     0
 77
     1
 78
     8
140
2.5
141
2.5
143
0.0393700787
147
0.625
171
     3
172
     1
178
     0
271
     2
272
     2
274
     3
278
    44
283
     0
284
     8
340
11
  0
ENDTAB
  0
TABLE
  2
BLOCK_RECORD
  5
1
330
0
100
AcDbSymbolTable
 70
     1
  0
BLOCK_RECORD
  5
1F
330
1
100
AcDbSymbolTableRecord
100
AcDbBlockTableRecord
  2
*Model_Space
340
22
  0
BLOCK_RECORD
  5
1B
330
1
100
AcDbSymbolTableRecord
100
AcDbBlockTableRecord
  2
*Paper_Space
340
1E
  0
BLOCK_RECORD
  5
23
330
1
100
AcDbSymbolTableRecord
100
AcDbBlockTableRecord
  2
*Paper_Space0
340
26
  0
ENDTAB
  0
ENDSEC
  0
SECTION
  2
BLOCKS
  0
BLOCK
  5
20
330
1F
100
AcDbEntity
  8
0
100
AcDbBlockBegin
  2
*Model_Space
 70
     0
 10
0.0
 20
0.0
 30
0.0
  3
*Model_Space
  1

  0
ENDBLK
  5
21
330
1F
100
AcDbEntity
  8
0
100
AcDbBlockEnd
  0
BLOCK
  5
1C
330
1B
100
AcDbEntity
 67
     1
  8
0
100
AcDbBlockBegin
  2
*Paper_Space
 70
     0
 10
0.0
 20
0.0
 30
0.0
  3
*Paper_Space
  1

  0
ENDBLK
  5
1D
330
1B
100
AcDbEntity
 67
     1
  8
0
100
AcDbBlockEnd
  0
BLOCK
  5
24
330
23
100
AcDbEntity
  8
0
100
AcDbBlockBegin
  2
*Paper_Space0
 70
     0
 10
0.0
 20
0.0
 30
0.0
  3
*Paper_Space0
  1

  0
ENDBLK
  5
25
330
23
100
AcDbEntity
  8
0
100
AcDbBlockEnd
  0
ENDSEC
  0
SECTION
  2
ENTITIES
  0
SPLINE
  5
63
330
1F
100
AcDbEntity
  8
0
  6
Continuous
 62
     7
370
    25
100
AcDbSpline
210
0.0
220
0.0
230
1.0
 70
    11
 71
     3
 72
    11
 73
     7
 74
     0
 42
0.00000001
 43
0.00000001
 40
0.0
 40
0.0
 40
0.0
 40
0.0
 40
1.0
 40
1.0
 40
1.0
 40
2.0
 40
2.0
 40
2.0
 40
2.0
 10
602.9267002227059
 20
1049.0
 30
0.0
 10
602.9267103313776
 20
1046.770149710829
 30
0.0
 10
598.7259040120268
 20
1046.768142373488
 30
0.0
 10
598.7266966005017
 20
1048.999995717073
 30
0.0
 10
598.7274891889765
 20
1051.231849060658
 30
0.0
 10
602.9266901326887
 20
1051.225735244421
 30
0.0
 10
602.9267002227059
 20
1049.0
 30
0.0
  0
SPLINE
  5
64
330
1F
100
AcDbEntity
  8
0
  6
Continuous
 62
     7
370
    25
100
AcDbSpline
210
0.0
220
0.0
230
1.0
 70
    11
 71
     3
 72
    11
 73
     7
 74
     0
 42
0.00000001
 43
0.00000001
 40
0.0
 40
0.0
 40
0.0
 40
0.0
 40
1.0
 40
1.0
 40
1.0
 40
2.0
 40
2.0
 40
2.0
 40
2.0
 10
1764.561999814067
 20
1049.0
 30
0.0
 10
1764.562009922745
 20
1046.770149712035
 30
0.0
 10
1760.361203603803
 20
1046.768142374486
 30
0.0
 10
1760.361996191863
 20
1048.999995717073
 30
0.0
 10
1760.362788779925
 20
1051.231849059661
 30
0.0
 10
1764.561989724044
 20
1051.225735245958
 30
0.0
 10
1764.561999814067
 20
1049.0
 30
0.0
  0
SPLINE
  5
65
330
1F
100
AcDbEntity
  8
0
  6
Continuous
 62
     7
370
    25
100
AcDbSpline
210
0.0
220
0.0
230
1.0
 70
    11
 71
     3
 72
    11
 73
     7
 74
     0
 42
0.00000001
 43
0.00000001
 40
0.0
 40
0.0
 40
0.0
 40
0.0
 40
1.0
 40
1.0
 40
1.0
 40
2.0
 40
2.0
 40
2.0
 40
2.0
 10
2926.197299405442
 20
1049.0
 30
0.0
 10
2926.197309514137
 20
1046.770149714078
 30
0.0
 10
2921.996503195094
 20
1046.768142375337
 30
0.0
 10
2921.997295783238
 20
1048.999995717073
 30
0.0
 10
2921.998088371382
 20
1051.23184905881
 30
0.0
 10
2926.197289315402
 20
1051.225735244546
 30
0.0
 10
2926.197299405442
 20
1049.0
 30
0.0
  0
SPLINE
  5
66
330
1F
100
AcDbEntity
  8
0
  6
Continuous
 62
     7
370
    25
100
AcDbSpline
210
0.0
220
0.0
230
1.0
 70
    11
 71
     3
 72
    11
 73
     7
 74
     0
 42
0.00000001
 43
0.00000001
 40
0.0
 40
0.0
 40
0.0
 40
0.0
 40
1.0
 40
1.0
 40
1.0
 40
2.0
 40
2.0
 40
2.0
 40
2.0
 10
1183.744350018387
 20
928.9999999999995
 30
0.0
 10
1183.744360127054
 20
926.7701497129361
 30
0.0
 10
1179.543553808041
 20
926.7681423740552
 30
0.0
 10
1179.544346396184
 20
928.9999957170731
 30
0.0
 10
1179.545138984328
 20
931.2318490600911
 30
0.0
 10
1183.744339928376
 20
931.2257352448469
 30
0.0
 10
1183.744350018387
 20
928.9999999999995
 30
0.0
  0
SPLINE
  5
67
330
1F
100
AcDbEntity
  8
0
  6
Continuous
 62
     7
370
    25
100
AcDbSpline
210
0.0
220
0.0
230
1.0
 70
    11
 71
     3
 72
    11
 73
     7
 74
     0
 42
0.00000001
 43
0.00000001
 40
0.0
 40
0.0
 40
0.0
 40
0.0
 40
1.0
 40
1.0
 40
1.0
 40
2.0
 40
2.0
 40
2.0
 40
2.0
 10
2345.379649609757
 20
928.9999999999997
 30
0.0
 10
2345.379659718459
 20
926.7701497124297
 30
0.0
 10
2341.178853399077
 20
926.7681423718949
 30
0.0
 10
2341.179645987553
 20
928.9999957170731
 30
0.0
 10
2341.180438576027
 20
931.2318490622514
 30
0.0
 10
2345.37963951971
 20
931.2257352440023
 30
0.0
 10
2345.379649609757
 20
928.9999999999997
 30
0.0
  0
SPLINE
  5
68
330
1F
100
AcDbEntity
  8
0
  6
Continuous
 62
     7
370
    25
100
AcDbSpline
210
0.0
220
0.0
230
1.0
 70
    11
 71
     3
 72
    11
 73
     7
 74
     0
 42
0.00000001
 43
0.00000001
 40
0.0
 40
0.0
 40
0.0
 40
0.0
 40
1.0
 40
1.0
 40
1.0
 40
2.0
 40
2.0
 40
2.0
 40
2.0
 10
602.9267002227053
 20
808.9999999999997
 30
0.0
 10
602.9267103313866
 20
806.7701497125411
 30
0.0
 10
598.7259040118613
 20
806.7681423732595
 30
0.0
 10
598.7266966005012
 20
808.9999957170735
 30
0.0
 10
598.7274891891414
 20
811.2318490608875
 30
0.0
 10
602.9266901326793
 20
811.2257352433177
 30
0.0
 10
602.9267002227053
 20
808.9999999999997
 30
0.0
  0
SPLINE
  5
69
330
1F
100
AcDbEntity
  8
0
  6
Continuous
 62
     7
370
    25
100
AcDbSpline
210
0.0
220
0.0
230
1.0
 70
    11
 71
     3
 72
    11
 73
     7
 74
     0
 42
0.00000001
 43
0.00000001
 40
0.0
 40
0.0
 40
0.0
 40
0.0
 40
1.0
 40
1.0
 40
1.0
 40
2.0
 40
2.0
 40
2.0
 40
2.0
 10
1764.561999814067
 20
808.9999999999999
 30
0.0
 10
1764.562009922719
 20
806.7701497107045
 30
0.0
 10
1760.361203604051
 20
806.76814237578
 30
0.0
 10
1760.361996191864
 20
808.9999957170733
 30
0.0
 10
1760.362788779677
 20
811.2318490583665
 30
0.0
 10
1764.561989724069
 20
811.2257352420546
 30
0.0
 10
1764.561999814067
 20
808.9999999999999
 30
0.0
  0
SPLINE
  5
6A
330
1F
100
AcDbEntity
  8
0
  6
Continuous
 62
     7
370
    25
100
AcDbSpline
210
0.0
220
0.0
230
1.0
 70
    11
 71
     3
 72
    11
 73
     7
 74
     0
 42
0.00000001
 43
0.00000001
 40
0.0
 40
0.0
 40
0.0
 40
0.0
 40
1.0
 40
1.0
 40
1.0
 40
2.0
 40
2.0
 40
2.0
 40
2.0
 10
2926.197299405442
 20
808.9999999999999
 30
0.0
 10
2926.19730951407
 20
806.7701497123221
 30
0.0
 10
2921.996503195094
 20
806.7681423732495
 30
0.0
 10
2921.997295783238
 20
808.999995717073
 30
0.0
 10
2921.998088371382
 20
811.2318490608966
 30
0.0
 10
2926.19728931547
 20
811.2257352445324
 30
0.0
 10
2926.197299405442
 20
808.9999999999999
 30
0.0
  0
SPLINE
  5
6B
330
1F
100
AcDbEntity
  8
0
  6
Continuous
 62
     7
370
    25
100
AcDbSpline
210
0.0
220
0.0
230
1.0
 70
    11
 71
     3
 72
    11
 73
     7
 74
     0
 42
0.00000001
 43
0.00000001
 40
0.0
 40
0.0
 40
0.0
 40
0.0
 40
1.0
 40
1.0
 40
1.0
 40
2.0
 40
2.0
 40
2.0
 40
2.0
 10
1183.744350018388
 20
688.9999999999995
 30
0.0
 10
1183.744360127049
 20
686.7701497111018
 30
0.0
 10
1179.54355380804
 20
686.768142374093
 30
0.0
 10
1179.544346396184
 20
688.9999957170738
 30
0.0
 10
1179.545138984329
 20
691.2318490600546
 30
0.0
 10
1183.744339928381
 20
691.2257352450357
 30
0.0
 10
1183.744350018388
 20
688.9999999999995
 30
0.0
  0
SPLINE
  5
6C
330
1F
100
AcDbEntity
  8
0
  6
Continuous
 62
     7
370
    25
100
AcDbSpline
210
0.0
220
0.0
230
1.0
 70
    11
 71
     3
 72
    11
 73
     7
 74
     0
 42
0.00000001
 43
0.00000001
 40
0.0
 40
0.0
 40
0.0
 40
0.0
 40
1.0
 40
1.0
 40
1.0
 40
2.0
 40
2.0
 40
2.0
 40
2.0
 10
2345.379649609756
 20
688.9999999999995
 30
0.0
 10
2345.379659718433
 20
686.7701497115763
 30
0.0
 10
2341.178853399243
 20
686.7681423722903
 30
0.0
 10
2341.179645987553
 20
688.9999957170738
 30
0.0
 10
2341.180438575863
 20
691.2318490618574
 30
0.0
 10
2345.379639519734
 20
691.2257352442618
 30
0.0
 10
2345.379649609756
 20
688.9999999999995
 30
0.0
  0
SPLINE
  5
6D
330
1F
100
AcDbEntity
  8
0
  6
Continuous
 62
     7
370
    25
100
AcDbSpline
210
0.0
220
0.0
230
1.0
 70
    11
 71
     3
 72
    11
 73
     7
 74
     0
 42
0.00000001
 43
0.00000001
 40
0.0
 40
0.0
 40
0.0
 40
0.0
 40
1.0
 40
1.0
 40
1.0
 40
2.0
 40
2.0
 40
2.0
 40
2.0
 10
602.9267002227056
 20
568.9999999999998
 30
0.0
 10
602.9267103313738
 20
566.7701497125768
 30
0.0
 10
598.725904012358
 20
566.7681423738211
 30
0.0
 10
598.7266966005019
 20
568.9999957170733
 30
0.0
 10
598.7274891886458
 20
571.2318490603254
 30
0.0
 10
602.926690132692
 20
571.2257352448817
 30
0.0
 10
602.9267002227056
 20
568.9999999999998
 30
0.0
  0
SPLINE
  5
6E
330
1F
100
AcDbEntity
  8
0
  6
Continuous
 62
     7
370
    25
100
AcDbSpline
210
0.0
220
0.0
230
1.0
 70
    11
 71
     3
 72
    11
 73
     7
 74
     0
 42
0.00000001
 43
0.00000001
 40
0.0
 40
0.0
 40
0.0
 40
0.0
 40
1.0
 40
1.0
 40
1.0
 40
2.0
 40
2.0
 40
2.0
 40
2.0
 10
1764.561999814067
 20
568.9999999999998
 30
0.0
 10
1764.562009922719
 20
566.7701497133012
 30
0.0
 10
1760.361203603636
 20
566.7681423724664
 30
0.0
 10
1760.361996191863
 20
568.9999957170733
 30
0.0
 10
1760.362788780091
 20
571.2318490616801
 30
0.0
 10
1764.561989724069
 20
571.2257352448078
 30
0.0
 10
1764.561999814067
 20
568.9999999999998
 30
0.0
  0
SPLINE
  5
6F
330
1F
100
AcDbEntity
  8
0
  6
Continuous
 62
     7
370
    25
100
AcDbSpline
210
0.0
220
0.0
230
1.0
 70
    11
 71
     3
 72
    11
 73
     7
 74
     0
 42
0.00000001
 43
0.00000001
 40
0.0
 40
0.0
 40
0.0
 40
0.0
 40
1.0
 40
1.0
 40
1.0
 40
2.0
 40
2.0
 40
2.0
 40
2.0
 10
2926.197299405442
 20
568.9999999999995
 30
0.0
 10
2926.197309514091
 20
566.7701497115787
 30
0.0
 10
2921.996503195094
 20
566.7681423730913
 30
0.0
 10
2921.997295783237
 20
568.9999957170736
 30
0.0
 10
2921.998088371381
 20
571.2318490610559
 30
0.0
 10
2926.197289315448
 20
571.2257352439655
 30
0.0
 10
2926.197299405442
 20
568.9999999999995
 30
0.0
  0
SPLINE
  5
70
330
1F
100
AcDbEntity
  8
0
  6
Continuous
 62
     7
370
    25
100
AcDbSpline
210
0.0
220
0.0
230
1.0
 70
    11
 71
     3
 72
    11
 73
     7
 74
     0
 42
0.00000001
 43
0.00000001
 40
0.0
 40
0.0
 40
0.0
 40
0.0
 40
1.0
 40
1.0
 40
1.0
 40
2.0
 40
2.0
 40
2.0
 40
2.0
 10
1183.744350018388
 20
448.9999999999999
 30
0.0
 10
1183.744360127064
 20
446.7701497118779
 30
0.0
 10
1179.543553807875
 20
446.768142373457
 30
0.0
 10
1179.544346396185
 20
448.9999957170736
 30
0.0
 10
1179.545138984494
 20
451.2318490606902
 30
0.0
 10
1183.744339928367
 20
451.2257352439078
 30
0.0
 10
1183.744350018388
 20
448.9999999999999
 30
0.0
  0
SPLINE
  5
71
330
1F
100
AcDbEntity
  8
0
  6
Continuous
 62
     7
370
    25
100
AcDbSpline
210
0.0
220
0.0
230
1.0
 70
    11
 71
     3
 72
    11
 73
     7
 74
     0
 42
0.00000001
 43
0.00000001
 40
0.0
 40
0.0
 40
0.0
 40
0.0
 40
1.0
 40
1.0
 40
1.0
 40
2.0
 40
2.0
 40
2.0
 40
2.0
 10
2345.379649609756
 20
448.9999999999998
 30
0.0
 10
2345.379659718448
 20
446.7701497127993
 30
0.0
 10
2341.178853399574
 20
446.7681423745383
 30
0.0
 10
2341.179645987553
 20
448.9999957170731
 30
0.0
 10
2341.180438575531
 20
451.2318490596079
 30
0.0
 10
2345.37963951972
 20
451.2257352463801
 30
0.0
 10
2345.379649609756
 20
448.9999999999998
 30
0.0
  0
SPLINE
  5
72
330
1F
100
AcDbEntity
  8
0
  6
Continuous
 62
     7
370
    25
100
AcDbSpline
210
0.0
220
0.0
230
1.0
 70
    11
 71
     3
 72
    11
 73
     7
 74
     0
 42
0.00000001
 43
0.00000001
 40
0.0
 40
0.0
 40
0.0
 40
0.0
 40
1.0
 40
1.0
 40
1.0
 40
2.0
 40
2.0
 40
2.0
 40
2.0
 10
602.9267002227053
 20
328.9999999999998
 30
0.0
 10
602.9267103313719
 20
326.7701497122563
 30
0.0
 10
598.7259040123578
 20
326.7681423743704
 30
0.0
 10
598.7266966005017
 20
328.9999957170734
 30
0.0
 10
598.7274891886456
 20
331.2318490597766
 30
0.0
 10
602.9266901326935
 20
331.2257352442489
 30
0.0
 10
602.9267002227053
 20
328.9999999999998
 30
0.0
  0
SPLINE
  5
73
330
1F
100
AcDbEntity
  8
0
  6
Continuous
 62
     7
370
    25
100
AcDbSpline
210
0.0
220
0.0
230
1.0
 70
    11
 71
     3
 72
    11
 73
     7
 74
     0
 42
0.00000001
 43
0.00000001
 40
0.0
 40
0.0
 40
0.0
 40
0.0
 40
1.0
 40
1.0
 40
1.0
 40
2.0
 40
2.0
 40
2.0
 40
2.0
 10
2345.379649609757
 20
328.9999999999998
 30
0.0
 10
2345.379659718434
 20
326.7701497123736
 30
0.0
 10
2341.178853399244
 20
326.7681423740449
 30
0.0
 10
2341.179645987553
 20
328.9999957170734
 30
0.0
 10
2341.180438575862
 20
331.2318490601019
 30
0.0
 10
2345.379639519734
 20
331.2257352453772
 30
0.0
 10
2345.379649609757
 20
328.9999999999998
 30
0.0
  0
SPLINE
  5
74
330
1F
100
AcDbEntity
  8
0
  6
Continuous
 62
     7
370
    25
100
AcDbSpline
210
0.0
220
0.0
230
1.0
 70
    11
 71
     3
 72
    11
 73
     7
 74
     0
 42
0.00000001
 43
0.00000001
 40
0.0
 40
0.0
 40
0.0
 40
0.0
 40
1.0
 40
1.0
 40
1.0
 40
2.0
 40
2.0
 40
2.0
 40
2.0
 10
602.9267002227056
 20
209.0000000000002
 30
0.0
 10
602.9267103313867
 20
206.7701497119764
 30
0.0
 10
598.7259040123578
 20
206.7681423744529
 30
0.0
 10
598.7266966005017
 20
208.9999957170733
 30
0.0
 10
598.7274891886456
 20
211.2318490596936
 30
0.0
 10
602.9266901326795
 20
211.2257352441954
 30
0.0
 10
602.9267002227056
 20
209.0000000000002
 30
0.0
  0
SPLINE
  5
75
330
1F
100
AcDbEntity
  8
0
  6
Continuous
 62
     7
370
    25
100
AcDbSpline
210
0.0
220
0.0
230
1.0
 70
    11
 71
     3
 72
    11
 73
     7
 74
     0
 42
0.00000001
 43
0.00000001
 40
0.0
 40
0.0
 40
0.0
 40
0.0
 40
1.0
 40
1.0
 40
1.0
 40
2.0
 40
2.0
 40
2.0
 40
2.0
 10
2345.379649609757
 20
209.0
 30
0.0
 10
2345.37965971846
 20
206.7701497116399
 30
0.0
 10
2341.178853398416
 20
206.768142371173
 30
0.0
 10
2341.179645987553
 20
208.9999957170731
 30
0.0
 10
2341.18043857669
 20
211.2318490629732
 30
0.0
 10
2345.37963951971
 20
211.225735244718
 30
0.0
 10
2345.379649609757
 20
209.0
 30
0.0
  0
SPLINE
  5
76
330
1F
100
AcDbEntity
  8
0
  6
Continuous
 62
     7
370
    25
100
AcDbSpline
210
0.0
220
0.0
230
1.0
 70
    11
 71
     3
 72
    11
 73
     7
 74
     0
 42
0.00000001
 43
0.00000001
 40
0.0
 40
0.0
 40
0.0
 40
0.0
 40
1.0
 40
1.0
 40
1.0
 40
2.0
 40
2.0
 40
2.0
 40
2.0
 10
602.9267002227053
 20
89.00000000000003
 30
0.0
 10
602.9267103313824
 20
86.77014971228117
 30
0.0
 10
598.725904012358
 20
86.76814237365656
 30
0.0
 10
598.7266966005019
 20
88.99999571707362
 30
0.0
 10
598.7274891886458
 20
91.23184906049069
 30
0.0
 10
602.9266901326829
 20
91.2257352441925
 30
0.0
 10
602.9267002227053
 20
89.00000000000003
 30
0.0
  0
SPLINE
  5
77
330
1F
100
AcDbEntity
  8
0
  6
Continuous
 62
     7
370
    25
100
AcDbSpline
210
0.0
220
0.0
230
1.0
 70
    11
 71
     3
 72
    11
 73
     7
 74
     0
 42
0.00000001
 43
0.00000001
 40
0.0
 40
0.0
 40
0.0
 40
0.0
 40
1.0
 40
1.0
 40
1.0
 40
2.0
 40
2.0
 40
2.0
 40
2.0
 10
2345.379649609757
 20
88.99999999999986
 30
0.0
 10
2345.379659718441
 20
86.77014971151984
 30
0.0
 10
2341.178853399408
 20
86.76814237285556
 30
0.0
 10
2341.179645987553
 20
88.99999571707346
 30
0.0
 10
2341.180438575697
 20
91.23184906129136
 30
0.0
 10
2345.379639519727
 20
91.22573524267888
 30
0.0
 10
2345.379649609757
 20
88.99999999999986
 30
0.0
  0
SPLINE
  5
78
330
1F
100
AcDbEntity
  8
0
  6
Continuous
 62
     7
370
    25
100
AcDbSpline
210
0.0
220
0.0
230
1.0
 70
    11
 71
     3
 72
    11
 73
     7
 74
     0
 42
0.00000001
 43
0.00000001
 40
0.0
 40
0.0
 40
0.0
 40
0.0
 40
1.0
 40
1.0
 40
1.0
 40
2.0
 40
2.0
 40
2.0
 40
2.0
 10
602.9267002227059
 20
-30.99999999999991
 30
0.0
 10
602.9267103313653
 20
-33.22985028767584
 30
0.0
 10
598.7259040125235
 20
-33.23185762594782
 30
0.0
 10
598.7266966005022
 20
-31.0000042829266
 30
0.0
 10
598.7274891884808
 20
-28.76815093990537
 30
0.0
 10
602.9266901327012
 20
-28.77426475537577
 30
0.0
 10
602.9267002227059
 20
-30.99999999999991
 30
0.0
  0
SPLINE
  5
79
330
1F
100
AcDbEntity
  8
0
  6
Continuous
 62
     7
370
    25
100
AcDbSpline
210
0.0
220
0.0
230
1.0
 70
    11
 71
     3
 72
    11
 73
     7
 74
     0
 42
0.00000001
 43
0.00000001
 40
0.0
 40
0.0
 40
0.0
 40
0.0
 40
1.0
 40
1.0
 40
1.0
 40
2.0
 40
2.0
 40
2.0
 40
2.0
 10
2345.379649609756
 20
-31.00000000000003
 30
0.0
 10
2345.379659718433
 20
-33.22985028842558
 30
0.0
 10
2341.178853398746
 20
-33.23185762793838
 30
0.0
 10
2341.179645987552
 20
-31.00000428292704
 30
0.0
 10
2341.180438576358
 20
-28.7681509379157
 30
0.0
 10
2345.379639519734
 20
-28.7742647561338
 30
0.0
 10
2345.379649609756
 20
-31.00000000000003
 30
0.0
  0
SPLINE
  5
7A
330
1F
100
AcDbEntity
  8
0
  6
Continuous
 62
     7
370
    25
100
AcDbSpline
210
0.0
220
0.0
230
1.0
 70
    11
 71
     3
 72
    11
 73
     7
 74
     0
 42
0.00000001
 43
0.00000001
 40
0.0
 40
0.0
 40
0.0
 40
0.0
 40
1.0
 40
1.0
 40
1.0
 40
2.0
 40
2.0
 40
2.0
 40
2.0
 10
602.9267002227057
 20
1169.0
 30
0.0
 10
602.9267103313753
 20
1166.77014971235
 30
0.0
 10
598.725904012358
 20
1166.76814237422
 30
0.0
 10
598.7266966005019
 20
1168.999995717073
 30
0.0
 10
598.7274891886458
 20
1171.231849059927
 30
0.0
 10
602.926690132691
 20
1171.225735244413
 30
0.0
 10
602.9267002227057
 20
1169.0
 30
0.0
  0
SPLINE
  5
7B
330
1F
100
AcDbEntity
  8
0
  6
Continuous
 62
     7
370
    25
100
AcDbSpline
210
0.0
220
0.0
230
1.0
 70
    11
 71
     3
 72
    11
 73
     7
 74
     0
 42
0.00000001
 43
0.00000001
 40
0.0
 40
0.0
 40
0.0
 40
0.0
 40
1.0
 40
1.0
 40
1.0
 40
2.0
 40
2.0
 40
2.0
 40
2.0
 10
1764.561999814067
 20
1169.0
 30
0.0
 10
1764.562009922741
 20
1166.77014971209
 30
0.0
 10
1760.361203603305
 20
1166.768142372036
 30
0.0
 10
1760.361996191863
 20
1168.999995717073
 30
0.0
 10
1760.362788780421
 20
1171.231849062111
 30
0.0
 10
1764.561989724048
 20
1171.225735245298
 30
0.0
 10
1764.561999814067
 20
1169.0
 30
0.0
  0
SPLINE
  5
7C
330
1F
100
AcDbEntity
  8
0
  6
Continuous
 62
     7
370
    25
100
AcDbSpline
210
0.0
220
0.0
230
1.0
 70
    11
 71
     3
 72
    11
 73
     7
 74
     0
 42
0.00000001
 43
0.00000001
 40
0.0
 40
0.0
 40
0.0
 40
0.0
 40
1.0
 40
1.0
 40
1.0
 40
2.0
 40
2.0
 40
2.0
 40
2.0
 10
2926.197299405442
 20
1169.0
 30
0.0
 10
2926.197309514123
 20
1166.770149712122
 30
0.0
 10
2921.996503195757
 20
1166.768142378342
 30
0.0
 10
2921.997295783238
 20
1168.999995717073
 30
0.0
 10
2921.998088370718
 20
1171.231849055805
 30
0.0
 10
2926.197289315415
 20
1171.225735244373
 30
0.0
 10
2926.197299405442
 20
1169.0
 30
0.0
  0
LINE
  5
7D
330
1F
100
AcDbEntity
  8
0
  6
Continuous
 62
     7
370
    25
100
AcDbLine
 10
2947.1815808475
 20
-56.0
 30
0.0
 11
2947.1815808475
 21
1194.0
 31
0.0
  0
LINE
  5
7E
330
1F
100
AcDbEntity
  8
0
  6
Continuous
 62
     7
370
    25
100
AcDbLine
 10
2947.1815808475
 20
1194.0
 30
0.0
 11
0.0
 21
1194.0
 31
0.0
  0
LINE
  5
7F
330
1F
100
AcDbEntity
  8
0
  6
Continuous
 62
     7
370
    25
100
AcDbLine
 10
0.0
 20
1194.0
 30
0.0
 11
0.0
 21
-56.0
 31
0.0
  0
LINE
  5
80
330
1F
100
AcDbEntity
  8
0
  6
Continuous
 62
     7
370
    25
100
AcDbLine
 10
0.0
 20
-56.0
 30
0.0
 11
1495.1374563583
 21
-56.0
 31
0.0
  0
LINE
  5
81
330
1F
100
AcDbEntity
  8
0
  6
Continuous
 62
     7
370
    25
100
AcDbLine
 10
1495.1374563583
 20
-56.0
 30
0.0
 11
1495.1374563583
 21
415.0
 31
0.0
  0
LINE
  5
82
330
1F
100
AcDbEntity
  8
0
  6
Continuous
 62
     7
370
    25
100
AcDbLine
 10
1495.1374563583
 20
415.0
 30
0.0
 11
2029.7865396572
 21
415.0
 31
0.0
  0
LINE
  5
83
330
1F
100
AcDbEntity
  8
0
  6
Continuous
 62
     7
370
    25
100
AcDbLine
 10
2029.7865396572
 20
415.0
 30
0.0
 11
2029.7865396572
 21
-56.0
 31
0.0
  0
LINE
  5
84
330
1F
100
AcDbEntity
  8
0
  6
Continuous
 62
     7
370
    25
100
AcDbLine
 10
2029.7865396572
 20
-56.0
 30
0.0
 11
2947.1815808475
 21
-56.0
 31
0.0
  0
SPLINE
  5
85
330
1F
100
AcDbEntity
  8
0
  6
Continuous
 62
     7
370
    25
100
AcDbSpline
210
0.0
220
0.0
230
1.0
 70
    11
 71
     3
 72
    11
 73
     7
 74
     0
 42
0.00000001
 43
0.00000001
 40
0.0
 40
0.0
 40
0.0
 40
0.0
 40
1.0
 40
1.0
 40
1.0
 40
2.0
 40
2.0
 40
2.0
 40
2.0
 10
2345.379649609756
 20
1169.0
 30
0.0
 10
2345.379659718433
 20
1166.770149712292
 30
0.0
 10
2341.178853399905
 20
1166.768142372759
 30
0.0
 10
2341.179645987553
 20
1168.999995717073
 30
0.0
 10
2341.180438575201
 20
1171.231849061387
 30
0.0
 10
2345.379639519734
 20
1171.225735245295
 30
0.0
 10
2345.379649609756
 20
1169.0
 30
0.0
  0
SPLINE
  5
86
330
1F
100
AcDbEntity
  8
0
  6
Continuous
 62
     7
370
    25
100
AcDbSpline
210
0.0
220
0.0
230
1.0
 70
    11
 71
     3
 72
    11
 73
     7
 74
     0
 42
0.00000001
 43
0.00000001
 40
0.0
 40
0.0
 40
0.0
 40
0.0
 40
1.0
 40
1.0
 40
1.0
 40
2.0
 40
2.0
 40
2.0
 40
2.0
 10
1183.744350018388
 20
1169.0
 30
0.0
 10
1183.744360127055
 20
1166.770149711808
 30
0.0
 10
1179.543553807544
 20
1166.768142372693
 30
0.0
 10
1179.544346396184
 20
1168.999995717073
 30
0.0
 10
1179.545138984825
 20
1171.231849061454
 30
0.0
 10
1183.744339928377
 20
1171.225735244281
 30
0.0
 10
1183.744350018388
 20
1169.0
 30
0.0
  0
SPLINE
  5
87
330
1F
100
AcDbEntity
  8
0
  6
Continuous
 62
     7
370
    25
100
AcDbSpline
210
0.0
220
0.0
230
1.0
 70
    11
 71
     3
 72
    11
 73
     7
 74
     0
 42
0.00000001
 43
0.00000001
 40
0.0
 40
0.0
 40
0.0
 40
0.0
 40
1.0
 40
1.0
 40
1.0
 40
2.0
 40
2.0
 40
2.0
 40
2.0
 10
2926.197299405441
 20
-31.00000000000014
 30
0.0
 10
2926.197309514069
 20
-33.22985029149346
 30
0.0
 10
2921.996503194431
 20
-33.2318576283351
 30
0.0
 10
2921.997295783237
 20
-31.00000428292704
 30
0.0
 10
2921.998088372043
 20
-28.76815093751898
 30
0.0
 10
2926.197289315469
 20
-28.77426475465302
 30
0.0
 10
2926.197299405441
 20
-31.00000000000014
 30
0.0
  0
SPLINE
  5
88
330
1F
100
AcDbEntity
  8
0
  6
Continuous
 62
     7
370
    25
100
AcDbSpline
210
0.0
220
0.0
230
1.0
 70
    11
 71
     3
 72
    11
 73
     7
 74
     0
 42
0.00000001
 43
0.00000001
 40
0.0
 40
0.0
 40
0.0
 40
0.0
 40
1.0
 40
1.0
 40
1.0
 40
2.0
 40
2.0
 40
2.0
 40
2.0
 10
1183.744350018388
 20
-31.00000000000003
 30
0.0
 10
1183.744360127069
 20
-33.22985028719339
 30
0.0
 10
1179.543553807544
 20
-33.23185762833584
 30
0.0
 10
1179.544346396184
 20
-31.0000042829266
 30
0.0
 10
1179.545138984825
 20
-28.76815093751735
 30
0.0
 10
1183.744339928362
 20
-28.77426475531786
 30
0.0
 10
1183.744350018388
 20
-31.00000000000003
 30
0.0
  0
SPLINE
  5
89
330
1F
100
AcDbEntity
  8
0
  6
Continuous
 62
     7
370
    25
100
AcDbSpline
210
0.0
220
0.0
230
1.0
 70
    11
 71
     3
 72
    11
 73
     7
 74
     0
 42
0.00000001
 43
0.00000001
 40
0.0
 40
0.0
 40
0.0
 40
0.0
 40
1.0
 40
1.0
 40
1.0
 40
2.0
 40
2.0
 40
2.0
 40
2.0
 10
2926.197299405441
 20
88.99999999999963
 30
0.0
 10
2926.197309514072
 20
86.77014971346087
 30
0.0
 10
2921.996503195755
 20
86.76814237724489
 30
0.0
 10
2921.997295783237
 20
88.9999957170734
 30
0.0
 10
2921.998088370719
 20
91.23184905690192
 30
0.0
 10
2926.197289315464
 20
91.22573524448343
 30
0.0
 10
2926.197299405441
 20
88.99999999999963
 30
0.0
  0
SPLINE
  5
8A
330
1F
100
AcDbEntity
  8
0
  6
Continuous
 62
     7
370
    25
100
AcDbSpline
210
0.0
220
0.0
230
1.0
 70
    11
 71
     3
 72
    11
 73
     7
 74
     0
 42
0.00000001
 43
0.00000001
 40
0.0
 40
0.0
 40
0.0
 40
0.0
 40
1.0
 40
1.0
 40
1.0
 40
2.0
 40
2.0
 40
2.0
 40
2.0
 10
1183.744350018388
 20
89.00000000000003
 30
0.0
 10
1183.744360127071
 20
86.77014971257694
 30
0.0
 10
1179.543553808371
 20
86.76814237445545
 30
0.0
 10
1179.544346396184
 20
88.99999571707373
 30
0.0
 10
1179.545138983998
 20
91.23184905969202
 30
0.0
 10
1183.74433992836
 20
91.22573524420582
 30
0.0
 10
1183.744350018388
 20
89.00000000000003
 30
0.0
  0
SPLINE
  5
8B
330
1F
100
AcDbEntity
  8
0
  6
Continuous
 62
     7
370
    25
100
AcDbSpline
210
0.0
220
0.0
230
1.0
 70
    11
 71
     3
 72
    11
 73
     7
 74
     0
 42
0.00000001
 43
0.00000001
 40
0.0
 40
0.0
 40
0.0
 40
0.0
 40
1.0
 40
1.0
 40
1.0
 40
2.0
 40
2.0
 40
2.0
 40
2.0
 10
2926.197299405442
 20
208.9999999999999
 30
0.0
 10
2926.197309514113
 20
206.7701497103705
 30
0.0
 10
2921.996503195756
 20
206.7681423756428
 30
0.0
 10
2921.997295783238
 20
208.9999957170729
 30
0.0
 10
2921.998088370719
 20
211.2318490585031
 30
0.0
 10
2926.197289315428
 20
211.2257352437639
 30
0.0
 10
2926.197299405442
 20
208.9999999999999
 30
0.0
  0
SPLINE
  5
8C
330
1F
100
AcDbEntity
  8
0
  6
Continuous
 62
     7
370
    25
100
AcDbSpline
210
0.0
220
0.0
230
1.0
 70
    11
 71
     3
 72
    11
 73
     7
 74
     0
 42
0.00000001
 43
0.00000001
 40
0.0
 40
0.0
 40
0.0
 40
0.0
 40
1.0
 40
1.0
 40
1.0
 40
2.0
 40
2.0
 40
2.0
 40
2.0
 10
1183.744350018388
 20
209.0
 30
0.0
 10
1183.744360127056
 20
206.7701497128614
 30
0.0
 10
1179.54355380804
 20
206.7681423745766
 30
0.0
 10
1179.544346396184
 20
208.9999957170735
 30
0.0
 10
1179.545138984328
 20
211.2318490595704
 30
0.0
 10
1183.744339928375
 20
211.2257352445658
 30
0.0
 10
1183.744350018388
 20
209.0
 30
0.0
  0
SPLINE
  5
8D
330
1F
100
AcDbEntity
  8
0
  6
Continuous
 62
     7
370
    25
100
AcDbSpline
210
0.0
220
0.0
230
1.0
 70
    11
 71
     3
 72
    11
 73
     7
 74
     0
 42
0.00000001
 43
0.00000001
 40
0.0
 40
0.0
 40
0.0
 40
0.0
 40
1.0
 40
1.0
 40
1.0
 40
2.0
 40
2.0
 40
2.0
 40
2.0
 10
2926.197299405441
 20
328.9999999999997
 30
0.0
 10
2926.197309514069
 20
326.7701497108865
 30
0.0
 10
2921.996503195755
 20
326.7681423748455
 30
0.0
 10
2921.997295783238
 20
328.9999957170731
 30
0.0
 10
2921.998088370721
 20
331.2318490593008
 30
0.0
 10
2926.197289315469
 20
331.2257352444713
 30
0.0
 10
2926.197299405441
 20
328.9999999999997
 30
0.0
  0
SPLINE
  5
8E
330
1F
100
AcDbEntity
  8
0
  6
Continuous
 62
     7
370
    25
100
AcDbSpline
210
0.0
220
0.0
230
1.0
 70
    11
 71
     3
 72
    11
 73
     7
 74
     0
 42
0.00000001
 43
0.00000001
 40
0.0
 40
0.0
 40
0.0
 40
0.0
 40
1.0
 40
1.0
 40
1.0
 40
2.0
 40
2.0
 40
2.0
 40
2.0
 10
1183.744350018387
 20
328.9999999999999
 30
0.0
 10
1183.744360127074
 20
326.7701497122683
 30
0.0
 10
1179.543553807875
 20
326.7681423732652
 30
0.0
 10
1179.544346396184
 20
328.9999957170735
 30
0.0
 10
1179.545138984494
 20
331.2318490608819
 30
0.0
 10
1183.744339928356
 20
331.2257352442986
 30
0.0
 10
1183.744350018387
 20
328.9999999999999
 30
0.0
  0
SPLINE
  5
8F
330
1F
100
AcDbEntity
  8
0
  6
Continuous
 62
     7
370
    25
100
AcDbSpline
210
0.0
220
0.0
230
1.0
 70
    11
 71
     3
 72
    11
 73
     7
 74
     0
 42
0.00000001
 43
0.00000001
 40
0.0
 40
0.0
 40
0.0
 40
0.0
 40
1.0
 40
1.0
 40
1.0
 40
2.0
 40
2.0
 40
2.0
 40
2.0
 10
2926.197299405441
 20
448.9999999999995
 30
0.0
 10
2926.197309514068
 20
446.7701497134453
 30
0.0
 10
2921.996503195756
 20
446.7681423765947
 30
0.0
 10
2921.997295783238
 20
448.999995717073
 30
0.0
 10
2921.998088370719
 20
451.2318490575514
 30
0.0
 10
2926.197289315469
 20
451.2257352420737
 30
0.0
 10
2926.197299405441
 20
448.9999999999995
 30
0.0
  0
SPLINE
  5
90
330
1F
100
AcDbEntity
  8
0
  6
Continuous
 62
     7
370
    25
100
AcDbSpline
210
0.0
220
0.0
230
1.0
 70
    11
 71
     3
 72
    11
 73
     7
 74
     0
 42
0.00000001
 43
0.00000001
 40
0.0
 40
0.0
 40
0.0
 40
0.0
 40
1.0
 40
1.0
 40
1.0
 40
2.0
 40
2.0
 40
2.0
 40
2.0
 10
1764.561999814067
 20
448.9999999999998
 30
0.0
 10
1764.56200992273
 20
446.7701497116555
 30
0.0
 10
1760.361203603637
 20
446.7681423734881
 30
0.0
 10
1760.361996191864
 20
448.9999957170733
 30
0.0
 10
1760.362788780091
 20
451.2318490606584
 30
0.0
 10
1764.561989724059
 20
451.2257352437463
 30
0.0
 10
1764.561999814067
 20
448.9999999999998
 30
0.0
  0
SPLINE
  5
91
330
1F
100
AcDbEntity
  8
0
  6
Continuous
 62
     7
370
    25
100
AcDbSpline
210
0.0
220
0.0
230
1.0
 70
    11
 71
     3
 72
    11
 73
     7
 74
     0
 42
0.00000001
 43
0.00000001
 40
0.0
 40
0.0
 40
0.0
 40
0.0
 40
1.0
 40
1.0
 40
1.0
 40
2.0
 40
2.0
 40
2.0
 40
2.0
 10
602.9267002227057
 20
449.0000000000001
 30
0.0
 10
602.9267103313769
 20
446.7701497111555
 30
0.0
 10
598.725904012358
 20
446.7681423734902
 30
0.0
 10
598.7266966005019
 20
448.999995717073
 30
0.0
 10
598.7274891886458
 20
451.2318490606559
 30
0.0
 10
602.9266901326897
 20
451.2257352451358
 30
0.0
 10
602.9267002227057
 20
449.0000000000001
 30
0.0
  0
SPLINE
  5
92
330
1F
100
AcDbEntity
  8
0
  6
Continuous
 62
     7
370
    25
100
AcDbSpline
210
0.0
220
0.0
230
1.0
 70
    11
 71
     3
 72
    11
 73
     7
 74
     0
 42
0.00000001
 43
0.00000001
 40
0.0
 40
0.0
 40
0.0
 40
0.0
 40
1.0
 40
1.0
 40
1.0
 40
2.0
 40
2.0
 40
2.0
 40
2.0
 10
2345.379649609757
 20
568.9999999999998
 30
0.0
 10
2345.379659718459
 20
566.7701497116375
 30
0.0
 10
2341.17885339974
 20
566.7681423754123
 30
0.0
 10
2341.179645987553
 20
568.9999957170735
 30
0.0
 10
2341.180438575366
 20
571.2318490587347
 30
0.0
 10
2345.37963951971
 20
571.2257352451314
 30
0.0
 10
2345.379649609757
 20
568.9999999999998
 30
0.0
  0
SPLINE
  5
93
330
1F
100
AcDbEntity
  8
0
  6
Continuous
 62
     7
370
    25
100
AcDbSpline
210
0.0
220
0.0
230
1.0
 70
    11
 71
     3
 72
    11
 73
     7
 74
     0
 42
0.00000001
 43
0.00000001
 40
0.0
 40
0.0
 40
0.0
 40
0.0
 40
1.0
 40
1.0
 40
1.0
 40
2.0
 40
2.0
 40
2.0
 40
2.0
 10
1183.744350018387
 20
568.9999999999997
 30
0.0
 10
1183.744360127058
 20
566.7701497121479
 30
0.0
 10
1179.543553808371
 20
566.7681423746546
 30
0.0
 10
1179.544346396185
 20
568.9999957170736
 30
0.0
 10
1179.545138983998
 20
571.2318490594926
 30
0.0
 10
1183.744339928372
 20
571.2257352438984
 30
0.0
 10
1183.744350018387
 20
568.9999999999997
 30
0.0
  0
SPLINE
  5
94
330
1F
100
AcDbEntity
  8
0
  6
Continuous
 62
     7
370
    25
100
AcDbSpline
210
0.0
220
0.0
230
1.0
 70
    11
 71
     3
 72
    11
 73
     7
 74
     0
 42
0.00000001
 43
0.00000001
 40
0.0
 40
0.0
 40
0.0
 40
0.0
 40
1.0
 40
1.0
 40
1.0
 40
2.0
 40
2.0
 40
2.0
 40
2.0
 10
2926.197299405442
 20
688.9999999999999
 30
0.0
 10
2926.19730951407
 20
686.770149712487
 30
0.0
 10
2921.996503195755
 20
686.7681423746805
 30
0.0
 10
2921.997295783238
 20
688.9999957170729
 30
0.0
 10
2921.998088370721
 20
691.2318490594654
 30
0.0
 10
2926.19728931547
 20
691.2257352443673
 30
0.0
 10
2926.197299405442
 20
688.9999999999999
 30
0.0
  0
SPLINE
  5
95
330
1F
100
AcDbEntity
  8
0
  6
Continuous
 62
     7
370
    25
100
AcDbSpline
210
0.0
220
0.0
230
1.0
 70
    11
 71
     3
 72
    11
 73
     7
 74
     0
 42
0.00000001
 43
0.00000001
 40
0.0
 40
0.0
 40
0.0
 40
0.0
 40
1.0
 40
1.0
 40
1.0
 40
2.0
 40
2.0
 40
2.0
 40
2.0
 10
1764.561999814067
 20
688.9999999999997
 30
0.0
 10
1764.562009922719
 20
686.7701497125042
 30
0.0
 10
1760.361203604051
 20
686.7681423754526
 30
0.0
 10
1760.361996191864
 20
688.9999957170737
 30
0.0
 10
1760.362788779677
 20
691.2318490586948
 30
0.0
 10
1764.561989724069
 20
691.2257352454063
 30
0.0
 10
1764.561999814067
 20
688.9999999999997
 30
0.0
  0
SPLINE
  5
96
330
1F
100
AcDbEntity
  8
0
  6
Continuous
 62
     7
370
    25
100
AcDbSpline
210
0.0
220
0.0
230
1.0
 70
    11
 71
     3
 72
    11
 73
     7
 74
     0
 42
0.00000001
 43
0.00000001
 40
0.0
 40
0.0
 40
0.0
 40
0.0
 40
1.0
 40
1.0
 40
1.0
 40
2.0
 40
2.0
 40
2.0
 40
2.0
 10
602.9267002227059
 20
688.9999999999999
 30
0.0
 10
602.9267103313665
 20
686.7701497119283
 30
0.0
 10
598.7259040121922
 20
686.7681423728599
 30
0.0
 10
598.7266966005019
 20
688.9999957170734
 30
0.0
 10
598.7274891888115
 20
691.2318490612869
 30
0.0
 10
602.9266901327005
 20
691.2257352445567
 30
0.0
 10
602.9267002227059
 20
688.9999999999999
 30
0.0
  0
SPLINE
  5
97
330
1F
100
AcDbEntity
  8
0
  6
Continuous
 62
     7
370
    25
100
AcDbSpline
210
0.0
220
0.0
230
1.0
 70
    11
 71
     3
 72
    11
 73
     7
 74
     0
 42
0.00000001
 43
0.00000001
 40
0.0
 40
0.0
 40
0.0
 40
0.0
 40
1.0
 40
1.0
 40
1.0
 40
2.0
 40
2.0
 40
2.0
 40
2.0
 10
2345.379649609757
 20
808.9999999999998
 30
0.0
 10
2345.379659718434
 20
806.7701497123727
 30
0.0
 10
2341.178853399243
 20
806.768142372127
 30
0.0
 10
2341.179645987553
 20
808.999995717073
 30
0.0
 10
2341.180438575863
 20
811.231849062019
 30
0.0
 10
2345.379639519734
 20
811.2257352454615
 30
0.0
 10
2345.379649609757
 20
808.9999999999998
 30
0.0
  0
SPLINE
  5
98
330
1F
100
AcDbEntity
  8
0
  6
Continuous
 62
     7
370
    25
100
AcDbSpline
210
0.0
220
0.0
230
1.0
 70
    11
 71
     3
 72
    11
 73
     7
 74
     0
 42
0.00000001
 43
0.00000001
 40
0.0
 40
0.0
 40
0.0
 40
0.0
 40
1.0
 40
1.0
 40
1.0
 40
2.0
 40
2.0
 40
2.0
 40
2.0
 10
1183.744350018388
 20
808.9999999999998
 30
0.0
 10
1183.744360127051
 20
806.7701497121349
 30
0.0
 10
1179.543553807875
 20
806.7681423736282
 30
0.0
 10
1179.544346396184
 20
808.9999957170735
 30
0.0
 10
1179.545138984494
 20
811.2318490605188
 30
0.0
 10
1183.74433992838
 20
811.2257352436403
 30
0.0
 10
1183.744350018388
 20
808.9999999999998
 30
0.0
  0
SPLINE
  5
99
330
1F
100
AcDbEntity
  8
0
  6
Continuous
 62
     7
370
    25
100
AcDbSpline
210
0.0
220
0.0
230
1.0
 70
    11
 71
     3
 72
    11
 73
     7
 74
     0
 42
0.00000001
 43
0.00000001
 40
0.0
 40
0.0
 40
0.0
 40
0.0
 40
1.0
 40
1.0
 40
1.0
 40
2.0
 40
2.0
 40
2.0
 40
2.0
 10
2926.197299405441
 20
928.9999999999997
 30
0.0
 10
2926.197309514115
 20
926.770149712753
 30
0.0
 10
2921.996503195094
 20
926.7681423735796
 30
0.0
 10
2921.997295783238
 20
928.999995717073
 30
0.0
 10
2921.998088371382
 20
931.2318490605664
 30
0.0
 10
2926.197289315423
 20
931.2257352438774
 30
0.0
 10
2926.197299405441
 20
928.9999999999997
 30
0.0
  0
SPLINE
  5
9A
330
1F
100
AcDbEntity
  8
0
  6
Continuous
 62
     7
370
    25
100
AcDbSpline
210
0.0
220
0.0
230
1.0
 70
    11
 71
     3
 72
    11
 73
     7
 74
     0
 42
0.00000001
 43
0.00000001
 40
0.0
 40
0.0
 40
0.0
 40
0.0
 40
1.0
 40
1.0
 40
1.0
 40
2.0
 40
2.0
 40
2.0
 40
2.0
 10
1764.561999814067
 20
928.9999999999997
 30
0.0
 10
1764.562009922734
 20
926.7701497123118
 30
0.0
 10
1760.361203603803
 20
926.7681423756437
 30
0.0
 10
1760.361996191863
 20
928.9999957170728
 30
0.0
 10
1760.362788779924
 20
931.2318490585019
 30
0.0
 10
1764.561989724055
 20
931.2257352446783
 30
0.0
 10
1764.561999814067
 20
928.9999999999997
 30
0.0
  0
SPLINE
  5
9B
330
1F
100
AcDbEntity
  8
0
  6
Continuous
 62
     7
370
    25
100
AcDbSpline
210
0.0
220
0.0
230
1.0
 70
    11
 71
     3
 72
    11
 73
     7
 74
     0
 42
0.00000001
 43
0.00000001
 40
0.0
 40
0.0
 40
0.0
 40
0.0
 40
1.0
 40
1.0
 40
1.0
 40
2.0
 40
2.0
 40
2.0
 40
2.0
 10
602.9267002227056
 20
928.9999999999999
 30
0.0
 10
602.926710331366
 20
926.7701497123944
 30
0.0
 10
598.7259040123578
 20
926.7681423742191
 30
0.0
 10
598.7266966005017
 20
928.9999957170734
 30
0.0
 10
598.7274891886456
 20
931.2318490599276
 30
0.0
 10
602.9266901327003
 20
931.2257352442243
 30
0.0
 10
602.9267002227056
 20
928.9999999999999
 30
0.0
  0
SPLINE
  5
9C
330
1F
100
AcDbEntity
  8
0
  6
Continuous
 62
     7
370
    25
100
AcDbSpline
210
0.0
220
0.0
230
1.0
 70
    11
 71
     3
 72
    11
 73
     7
 74
     0
 42
0.00000001
 43
0.00000001
 40
0.0
 40
0.0
 40
0.0
 40
0.0
 40
1.0
 40
1.0
 40
1.0
 40
2.0
 40
2.0
 40
2.0
 40
2.0
 10
2345.379649609756
 20
1049.0
 30
0.0
 10
2345.379659718444
 20
1046.770149712397
 30
0.0
 10
2341.178853399243
 20
1046.768142373495
 30
0.0
 10
2341.179645987553
 20
1048.999995717073
 30
0.0
 10
2341.180438575863
 20
1051.231849060651
 30
0.0
 10
2345.379639519723
 20
1051.225735244917
 30
0.0
 10
2345.379649609756
 20
1049.0
 30
0.0
  0
SPLINE
  5
9D
330
1F
100
AcDbEntity
  8
0
  6
Continuous
 62
     7
370
    25
100
AcDbSpline
210
0.0
220
0.0
230
1.0
 70
    11
 71
     3
 72
    11
 73
     7
 74
     0
 42
0.00000001
 43
0.00000001
 40
0.0
 40
0.0
 40
0.0
 40
0.0
 40
1.0
 40
1.0
 40
1.0
 40
2.0
 40
2.0
 40
2.0
 40
2.0
 10
1183.744350018387
 20
1049.0
 30
0.0
 10
1183.74436012706
 20
1046.770149711882
 30
0.0
 10
1179.543553808205
 20
1046.768142373166
 30
0.0
 10
1179.544346396184
 20
1048.999995717074
 30
0.0
 10
1179.545138984163
 20
1051.231849060983
 30
0.0
 10
1183.74433992837
 20
1051.22573524423
 30
0.0
 10
1183.744350018387
 20
1049.0
 30
0.0
  0
SPLINE
  5
9E
330
1F
100
AcDbEntity
  8
0
  6
Continuous
 62
     7
370
    25
100
AcDbSpline
210
0.0
220
0.0
230
1.0
 70
    11
 71
     3
 72
    17
 73
    13
 74
     0
 42
0.00000001
 43
0.00000001
 40
0.0
 40
0.0
 40
0.0
 40
0.0
 40
1.0
 40
1.0
 40
1.0
 40
2.0
 40
2.0
 40
2.0
 40
3.0
 40
3.0
 40
3.0
 40
4.0
 40
4.0
 40
4.0
 40
4.0
 10
731.2645091280649
 20
469.0
 30
0.0
 10
731.2645079989868
 20
459.7184345367247
 30
0.0
 10
723.0441057400068
 20
451.500395905236
 30
0.0
 10
713.7634615598542
 20
451.5000000061777
 30
0.0
 10
704.4828173797017
 20
451.4996041071195
 30
0.0
 10
696.2628158397835
 20
459.7193999641456
 30
0.0
 10
696.262418183007
 20
469.0000015142839
 30
0.0
 10
696.2620205262305
 20
478.2806030644222
 30
0.0
 10
704.48282305164
 20
486.4996028612061
 30
0.0
 10
713.7634658861831
 20
486.5000000079422
 30
0.0
 10
723.0441087207262
 20
486.5003971546783
 30
0.0
 10
731.2645102573948
 20
478.2836337742476
 30
0.0
 10
731.2645091280649
 20
469.0
 30
0.0
  0
ENDSEC
  0
SECTION
  2
OBJECTS
  0
DICTIONARY
  5
C
330
0
100
AcDbDictionary
281
     1
  3
ACAD_GROUP
350
D
  3
ACAD_LAYOUT
350
1A
  3
ACAD_MLINESTYLE
350
17
  3
ACAD_PLOTSETTINGS
350
19
  3
ACAD_PLOTSTYLENAME
350
E
  3
ACAD_SCALELIST
350
47
  3
DWGPROPS
350
9F
  0
DICTIONARY
  5
D
102
{ACAD_REACTORS
330
C
102
}
330
C
100
AcDbDictionary
281
     1
  0
DICTIONARY
  5
1A
102
{ACAD_REACTORS
330
C
102
}
330
C
100
AcDbDictionary
281
     1
  3
Layout1
350
1E
  3
Layout2
350
26
  3
Model
350
22
  0
DICTIONARY
  5
17
102
{ACAD_REACTORS
330
C
102
}
330
C
100
AcDbDictionary
281
     1
  3
Standard
350
18
  0
DICTIONARY
  5
19
102
{ACAD_REACTORS
330
C
102
}
330
C
100
AcDbDictionary
281
     1
  0
ACDBDICTIONARYWDFLT
  5
E
102
{ACAD_REACTORS
330
C
102
}
330
C
100
AcDbDictionary
281
     1
  3
Normal
350
F
100
AcDbDictionaryWithDefault
340
F
  0
DICTIONARY
  5
47
102
{ACAD_REACTORS
330
C
102
}
330
C
100
AcDbDictionary
281
     1
  3
A0
350
48
  3
A1
350
49
  3
A2
350
4A
  3
A3
350
4B
  3
A4
350
4C
  3
A5
350
4D
  3
A6
350
4E
  3
A7
350
4F
  3
A8
350
50
  3
A9
350
51
  3
B0
350
52
  3
B1
350
53
  3
B2
350
54
  3
B3
350
55
  3
B4
350
56
  3
B5
350
57
  3
B6
350
58
  0
XRECORD
  5
9F
102
{ACAD_REACTORS
330
C
102
}
330
C
100
AcDbXrecord
280
     1
  1
DWGPROPS COOKIE
  2

  3

  4

  6

  7

  8
ademathieu
  9

300
=
301
=
302
=
303
=
304
=
305
=
306
=
307
=
308
=
309
=
 40
0.0
 41
2460269.550840497
 42
2460269.550888414
  1

 90
        0
  0
LAYOUT
  5
1E
102
{ACAD_REACTORS
330
1A
102
}
330
1A
100
AcDbPlotSettings
  1

  2
none_device
  4

  6

 40
0.0
 41
0.0
 42
0.0
 43
0.0
 44
0.0
 45
0.0
 46
0.0
 47
0.0
 48
0.0
 49
0.0
140
0.0
141
0.0
142
1.0
143
1.0
 70
   688
 72
     1
 73
     0
 74
     5
  7

 75
    16
147
1.0
148
0.0
149
0.0
100
AcDbLayout
  1
Layout1
 70
     1
 71
     1
 10
0.0
 20
0.0
 11
420.0
 21
297.0
 12
0.0
 22
0.0
 32
0.0
 14
1.0000000000E+20
 24
1.0000000000E+20
 34
1.0000000000E+20
 15
-1.0000000000E+20
 25
-1.0000000000E+20
 35
-1.0000000000E+20
146
0.0
 13
0.0
 23
0.0
 33
0.0
 16
1.0
 26
0.0
 36
0.0
 17
0.0
 27
1.0
 37
0.0
 76
     0
330
1B
  0
LAYOUT
  5
26
102
{ACAD_REACTORS
330
1A
102
}
330
1A
100
AcDbPlotSettings
  1

  2
none_device
  4

  6

 40
0.0
 41
0.0
 42
0.0
 43
0.0
 44
0.0
 45
0.0
 46
0.0
 47
0.0
 48
0.0
 49
0.0
140
0.0
141
0.0
142
1.0
143
1.0
 70
   688
 72
     1
 73
     0
 74
     5
  7

 75
    16
147
1.0
148
0.0
149
0.0
100
AcDbLayout
  1
Layout2
 70
     1
 71
     2
 10
0.0
 20
0.0
 11
0.0
 21
0.0
 12
0.0
 22
0.0
 32
0.0
 14
0.0
 24
0.0
 34
0.0
 15
0.0
 25
0.0
 35
0.0
146
0.0
 13
0.0
 23
0.0
 33
0.0
 16
1.0
 26
0.0
 36
0.0
 17
0.0
 27
1.0
 37
0.0
 76
     0
330
23
  0
LAYOUT
  5
22
102
{ACAD_REACTORS
330
1A
102
}
330
1A
100
AcDbPlotSettings
  1

  2
none_device
  4
ANSI_A_(11.00_x_8.50_Inches)
  6

 40
6.35
 41
19.05
 42
6.35000508
 43
19.05000254
 44
279.4
 45
215.9
 46
-4.95300254
 47
35.4968372069
 48
0.0
 49
0.0
140
0.0
141
0.0
142
0.0036950557
143
1.0
 70
  1696
 72
     0
 73
     0
 74
     0
  7

 75
     0
147
0.0179189148
148
-1300.4909072572
149
0.0
100
AcDbLayout
  1
Model
 70
     1
 71
     0
 10
0.0
 20
0.0
 11
420.0
 21
297.0
 12
0.0
 22
0.0
 32
0.0
 14
0.0
 24
-56.0
 34
0.0
 15
2947.1815808475
 25
1194.0
 35
0.0
146
0.0
 13
0.0
 23
0.0
 33
0.0
 16
1.0
 26
0.0
 36
0.0
 17
0.0
 27
1.0
 37
0.0
 76
     0
330
1F
331
29
  0
MLINESTYLE
  5
18
102
{ACAD_REACTORS
330
17
102
}
330
17
100
AcDbMlineStyle
  2
Standard
 70
     0
  3

 62
   256
 51
90.0
 52
90.0
 71
     2
 49
0.5
 62
   256
  6
BYLAYER
 49
-0.5
 62
   256
  6
BYLAYER
  0
ACDBPLACEHOLDER
  5
F
102
{ACAD_REACTORS
330
E
102
}
330
E
  0
SCALE
  5
48
102
{ACAD_REACTORS
330
47
102
}
330
47
100
AcDbScale
 70
     0
300
1:1
140
1.0
141
1.0
290
     1
  0
SCALE
  5
49
102
{ACAD_REACTORS
330
47
102
}
330
47
100
AcDbScale
 70
     0
300
1:2
140
1.0
141
2.0
290
     0
  0
SCALE
  5
4A
102
{ACAD_REACTORS
330
47
102
}
330
47
100
AcDbScale
 70
     0
300
1:4
140
1.0
141
4.0
290
     0
  0
SCALE
  5
4B
102
{ACAD_REACTORS
330
47
102
}
330
47
100
AcDbScale
 70
     0
300
1:5
140
1.0
141
5.0
290
     0
  0
SCALE
  5
4C
102
{ACAD_REACTORS
330
47
102
}
330
47
100
AcDbScale
 70
     0
300
1:8
140
1.0
141
8.0
290
     0
  0
SCALE
  5
4D
102
{ACAD_REACTORS
330
47
102
}
330
47
100
AcDbScale
 70
     0
300
1:10
140
1.0
141
10.0
290
     0
  0
SCALE
  5
4E
102
{ACAD_REACTORS
330
47
102
}
330
47
100
AcDbScale
 70
     0
300
1:16
140
1.0
141
16.0
290
     0
  0
SCALE
  5
4F
102
{ACAD_REACTORS
330
47
102
}
330
47
100
AcDbScale
 70
     0
300
1:20
140
1.0
141
20.0
290
     0
  0
SCALE
  5
50
102
{ACAD_REACTORS
330
47
102
}
330
47
100
AcDbScale
 70
     0
300
1:30
140
1.0
141
30.0
290
     0
  0
SCALE
  5
51
102
{ACAD_REACTORS
330
47
102
}
330
47
100
AcDbScale
 70
     0
300
1:40
140
1.0
141
40.0
290
     0
  0
SCALE
  5
52
102
{ACAD_REACTORS
330
47
102
}
330
47
100
AcDbScale
 70
     0
300
1:50
140
1.0
141
50.0
290
     0
  0
SCALE
  5
53
102
{ACAD_REACTORS
330
47
102
}
330
47
100
AcDbScale
 70
     0
300
1:100
140
1.0
141
100.0
290
     0
  0
SCALE
  5
54
102
{ACAD_REACTORS
330
47
102
}
330
47
100
AcDbScale
 70
     0
300
2:1
140
2.0
141
1.0
290
     0
  0
SCALE
  5
55
102
{ACAD_REACTORS
330
47
102
}
330
47
100
AcDbScale
 70
     0
300
4:1
140
4.0
141
1.0
290
     0
  0
SCALE
  5
56
102
{ACAD_REACTORS
330
47
102
}
330
47
100
AcDbScale
 70
     0
300
8:1
140
8.0
141
1.0
290
     0
  0
SCALE
  5
57
102
{ACAD_REACTORS
330
47
102
}
330
47
100
AcDbScale
 70
     0
300
10:1
140
10.0
141
1.0
290
     0
  0
SCALE
  5
58
102
{ACAD_REACTORS
330
47
102
}
330
47
100
AcDbScale
 70
     0
300
100:1
140
100.0
141
1.0
290
     0
  0
ENDSEC
  0
EOF
