  0
SECTION
  2
HEADER
  9
$ACADVER
  1
AC1015
  9
$ACADMAINTVER
 70
     6
  9
$DWGCODEPAGE
  3
ANSI_1252
  9
$INSBASE
 10
0.0
 20
0.0
 30
0.0
  9
$EXTMIN
 10
-2372.3669960483
 20
-56.0
 30
0.0
  9
$EXTMAX
 10
0.0
 20
1194.0
 30
0.0
  9
$LIMMIN
 10
0.0
 20
0.0
  9
$LIMMAX
 10
420.0
 20
297.0
  9
$ORTHOMODE
 70
     0
  9
$REGENMODE
 70
     1
  9
$FILLMODE
 70
     1
  9
$QTEXTMODE
 70
     0
  9
$MIRRTEXT
 70
     1
  9
$LTSCALE
 40
1.0
  9
$ATTMODE
 70
     1
  9
$TEXTSIZE
 40
3.5
  9
$TRACEWID
 40
1.0
  9
$TEXTSTYLE
  7
Standard
  9
$CLAYER
  8
0
  9
$CELTYPE
  6
ByLayer
  9
$CECOLOR
 62
   256
  9
$CELTSCALE
 40
1.0
  9
$DISPSILH
 70
     0
  9
$DIMSCALE
 40
1.0
  9
$DIMASZ
 40
3.556
  9
$DIMEXO
 40
0.0
  9
$DIMDLI
 40
3.75
  9
$DIMRND
 40
0.0
  9
$DIMDLE
 40
0.0
  9
$DIMEXE
 40
1.0
  9
$DIMTP
 40
0.0
  9
$DIMTM
 40
0.0
  9
$DIMTXT
 40
3.5
  9
$DIMCEN
 40
2.5
  9
$DIMTSZ
 40
0.0
  9
$DIMTOL
 70
     0
  9
$DIMLIM
 70
     0
  9
$DIMTIH
 70
     1
  9
$DIMTOH
 70
     1
  9
$DIMSE1
 70
     0
  9
$DIMSE2
 70
     0
  9
$DIMTAD
 70
     1
  9
$DIMZIN
 70
     0
  9
$DIMBLK
  1

  9
$DIMASO
 70
     1
  9
$DIMSHO
 70
     1
  9
$DIMPOST
  1

  9
$DIMAPOST
  1

  9
$DIMALT
 70
     0
  9
$DIMALTD
 70
     3
  9
$DIMALTF
 40
0.0393700787
  9
$DIMLFAC
 40
1.0
  9
$DIMTOFL
 70
     1
  9
$DIMTVP
 40
0.0
  9
$DIMTIX
 70
     0
  9
$DIMSOXD
 70
     0
  9
$DIMSAH
 70
     0
  9
$DIMBLK1
  1

  9
$DIMBLK2
  1

  9
$DIMSTYLE
  2
ISO-25
  9
$DIMCLRD
 70
     0
  9
$DIMCLRE
 70
     0
  9
$DIMCLRT
 70
     0
  9
$DIMTFAC
 40
1.0
  9
$DIMGAP
 40
1.524
  9
$DIMJUST
 70
     0
  9
$DIMSD1
 70
     0
  9
$DIMSD2
 70
     0
  9
$DIMTOLJ
 70
     0
  9
$DIMTZIN
 70
     0
  9
$DIMALTZ
 70
     0
  9
$DIMALTTZ
 70
     0
  9
$DIMUPT
 70
     0
  9
$DIMDEC
 70
     2
  9
$DIMTDEC
 70
     2
  9
$DIMALTU
 70
     2
  9
$DIMALTTD
 70
     3
  9
$DIMTXSTY
  7
Standard
  9
$DIMAUNIT
 70
     0
  9
$DIMADEC
 70
     0
  9
$DIMALTRND
 40
0.0
  9
$DIMAZIN
 70
     0
  9
$DIMDSEP
 70
    44
  9
$DIMATFIT
 70
     3
  9
$DIMFRAC
 70
     0
  9
$DIMLDRBLK
  1

  9
$DIMLUNIT
 70
     2
  9
$DIMLWD
 70
    -2
  9
$DIMLWE
 70
    -2
  9
$DIMTMOVE
 70
     0
  9
$LUNITS
 70
     2
  9
$LUPREC
 70
     0
  9
$SKETCHINC
 40
1.0
  9
$FILLETRAD
 40
0.0
  9
$AUNITS
 70
     0
  9
$AUPREC
 70
     0
  9
$MENU
  1
.
  9
$ELEVATION
 40
0.0
  9
$PELEVATION
 40
0.0
  9
$THICKNESS
 40
0.0
  9
$LIMCHECK
 70
     0
  9
$CHAMFERA
 40
0.0
  9
$CHAMFERB
 40
0.0
  9
$CHAMFERC
 40
0.0
  9
$CHAMFERD
 40
0.0
  9
$SKPOLY
 70
     0
  9
$TDCREATE
 40
2460269.581579352
  9
$TDUCREATE
 40
2460269.539912685
  9
$TDUPDATE
 40
2460269.581616192
  9
$TDUUPDATE
 40
2460269.539949526
  9
$TDINDWG
 40
0.0000000116
  9
$TDUSRTIMER
 40
0.0000000116
  9
$USRTIMER
 70
     1
  9
$ANGBASE
 50
0.0
  9
$ANGDIR
 70
     0
  9
$PDMODE
 70
     0
  9
$PDSIZE
 40
-1.0
  9
$PLINEWID
 40
0.0
  9
$SPLFRAME
 70
     0
  9
$SPLINETYPE
 70
     6
  9
$SPLINESEGS
 70
     8
  9
$HANDSEED
  5
95
  9
$SURFTAB1
 70
     6
  9
$SURFTAB2
 70
     6
  9
$SURFTYPE
 70
     6
  9
$SURFU
 70
     6
  9
$SURFV
 70
     6
  9
$UCSBASE
  2

  9
$UCSNAME
  2

  9
$UCSORG
 10
0.0
 20
0.0
 30
0.0
  9
$UCSXDIR
 10
1.0
 20
0.0
 30
0.0
  9
$UCSYDIR
 10
0.0
 20
1.0
 30
0.0
  9
$UCSORTHOREF
  2

  9
$UCSORTHOVIEW
 70
     0
  9
$UCSORGTOP
 10
0.0
 20
0.0
 30
0.0
  9
$UCSORGBOTTOM
 10
0.0
 20
0.0
 30
0.0
  9
$UCSORGLEFT
 10
0.0
 20
0.0
 30
0.0
  9
$UCSORGRIGHT
 10
0.0
 20
0.0
 30
0.0
  9
$UCSORGFRONT
 10
0.0
 20
0.0
 30
0.0
  9
$UCSORGBACK
 10
0.0
 20
0.0
 30
0.0
  9
$PUCSBASE
  2

  9
$PUCSNAME
  2

  9
$PUCSORG
 10
0.0
 20
0.0
 30
0.0
  9
$PUCSXDIR
 10
1.0
 20
0.0
 30
0.0
  9
$PUCSYDIR
 10
0.0
 20
1.0
 30
0.0
  9
$PUCSORTHOREF
  2

  9
$PUCSORTHOVIEW
 70
     0
  9
$PUCSORGTOP
 10
0.0
 20
0.0
 30
0.0
  9
$PUCSORGBOTTOM
 10
0.0
 20
0.0
 30
0.0
  9
$PUCSORGLEFT
 10
0.0
 20
0.0
 30
0.0
  9
$PUCSORGRIGHT
 10
0.0
 20
0.0
 30
0.0
  9
$PUCSORGFRONT
 10
0.0
 20
0.0
 30
0.0
  9
$PUCSORGBACK
 10
0.0
 20
0.0
 30
0.0
  9
$USERI1
 70
     0
  9
$USERI2
 70
     0
  9
$USERI3
 70
     0
  9
$USERI4
 70
     0
  9
$USERI5
 70
     0
  9
$USERR1
 40
0.0
  9
$USERR2
 40
0.0
  9
$USERR3
 40
0.0
  9
$USERR4
 40
0.0
  9
$USERR5
 40
0.0
  9
$WORLDVIEW
 70
     1
  9
$SHADEDGE
 70
     3
  9
$SHADEDIF
 70
    70
  9
$TILEMODE
 70
     1
  9
$MAXACTVP
 70
    64
  9
$PINSBASE
 10
0.0
 20
0.0
 30
0.0
  9
$PLIMCHECK
 70
     0
  9
$PEXTMIN
 10
1.0000000000E+20
 20
1.0000000000E+20
 30
1.0000000000E+20
  9
$PEXTMAX
 10
-1.0000000000E+20
 20
-1.0000000000E+20
 30
-1.0000000000E+20
  9
$PLIMMIN
 10
0.0
 20
0.0
  9
$PLIMMAX
 10
420.0
 20
297.0
  9
$UNITMODE
 70
     0
  9
$VISRETAIN
 70
     1
  9
$PLINEGEN
 70
     0
  9
$PSLTSCALE
 70
     1
  9
$TREEDEPTH
 70
  3020
  9
$CMLSTYLE
  2
Standard
  9
$CMLJUST
 70
     0
  9
$CMLSCALE
 40
20.0
  9
$PROXYGRAPHICS
 70
     1
  9
$MEASUREMENT
 70
     1
  9
$CELWEIGHT
370
    -1
  9
$ENDCAPS
280
     0
  9
$JOINSTYLE
280
     0
  9
$LWDISPLAY
290
     1
  9
$INSUNITS
 70
     4
  9
$HYPERLINKBASE
  1

  9
$STYLESHEET
  1

  9
$XEDIT
290
     1
  9
$CEPSNTYPE
380
     0
  9
$PSTYLEMODE
290
     1
  9
$FINGERPRINTGUID
  2
{2bf4f2ae-68f5-431a-be2c-7b23dd313a48}
  9
$VERSIONGUID
  2
{FAEB1C32-E019-11D5-929B-00C0DF256EC4}
  9
$EXTNAMES
290
     1
  9
$PSVPSCALE
 40
0.0
  9
$OLESTARTUP
290
     0
  0
ENDSEC
  0
SECTION
  2
CLASSES
  0
CLASS
  1
ACDBDICTIONARYWDFLT
  2
AcDbDictionaryWithDefault
  3
ObjectDBX Classes
 90
        0
280
     0
281
     0
  0
CLASS
  1
VISUALSTYLE
  2
AcDbVisualStyle
  3
ObjectDBX Classes
 90
     4095
280
     0
281
     0
  0
CLASS
  1
MATERIAL
  2
AcDbMaterial
  3
ObjectDBX Classes
 90
     1153
280
     0
281
     0
  0
CLASS
  1
SCALE
  2
AcDbScale
  3
ObjectDBX Classes
 90
     1153
280
     0
281
     0
  0
CLASS
  1
TABLESTYLE
  2
AcDbTableStyle
  3
ObjectDBX Classes
 90
     4095
280
     0
281
     0
  0
CLASS
  1
MLEADERSTYLE
  2
AcDbMLeaderStyle
  3
ACDB_MLEADERSTYLE_CLASS
 90
     4095
280
     0
281
     0
  0
CLASS
  1
SUN
  2
AcDbSun
  3
SCENEOE
 90
     1153
280
     0
281
     0
  0
CLASS
  1
ACDBPLACEHOLDER
  2
AcDbPlaceHolder
  3
ObjectDBX Classes
 90
        0
280
     0
281
     0
  0
CLASS
  1
LAYOUT
  2
AcDbLayout
  3
ObjectDBX Classes
 90
        0
280
     0
281
     0
  0
ENDSEC
  0
SECTION
  2
TABLES
  0
TABLE
  2
VPORT
  5
8
330
0
100
AcDbSymbolTable
 70
     1
  0
VPORT
  5
29
330
8
100
AcDbSymbolTableRecord
100
AcDbViewportTableRecord
  2
*Active
 70
     0
 10
0.0
 20
0.0
 11
1.0
 21
1.0
 12
-1186.1834980242
 22
569.0
 13
0.0
 23
0.0
 14
10.0
 24
10.0
 15
10.0
 25
10.0
 16
0.0
 26
0.0
 36
1.0
 17
0.0
 27
0.0
 37
0.0
 40
1275.0
 41
1.8978935968
 42
50.0
 43
0.0
 44
0.0
 50
0.0
 51
0.0
 71
     0
 72
   100
 73
     1
 74
     3
 75
     0
 76
     0
 77
     0
 78
     0
281
     0
 65
     1
110
0.0
120
0.0
130
0.0
111
1.0
121
0.0
131
0.0
112
0.0
122
1.0
132
0.0
 79
     0
146
0.0
  0
ENDTAB
  0
TABLE
  2
LTYPE
  5
5
330
0
100
AcDbSymbolTable
 70
     6
  0
LTYPE
  5
14
330
5
100
AcDbSymbolTableRecord
100
AcDbLinetypeTableRecord
  2
ByBlock
 70
     0
  3

 72
    65
 73
     0
 40
0.0
  0
LTYPE
  5
15
330
5
100
AcDbSymbolTableRecord
100
AcDbLinetypeTableRecord
  2
ByLayer
 70
     0
  3

 72
    65
 73
     0
 40
0.0
  0
LTYPE
  5
16
330
5
100
AcDbSymbolTableRecord
100
AcDbLinetypeTableRecord
  2
Continuous
 70
     0
  3
Solid line
 72
    65
 73
     0
 40
0.0
  0
LTYPE
  5
5E
330
5
100
AcDbSymbolTableRecord
100
AcDbLinetypeTableRecord
  2
HIDDEN
 70
     0
  3
Hidden __ __ __ __ __ __ __ __ __ __ __ __ __ __
 72
    65
 73
     2
 40
1.905
 49
1.27
 74
     0
 49
-0.635
 74
     0
  0
LTYPE
  5
5F
330
5
100
AcDbSymbolTableRecord
100
AcDbLinetypeTableRecord
  2
PHANTOM
 70
     0
  3
Phantom ______  __  __  ______  __  __  ______
 72
    65
 73
     6
 40
12.7
 49
6.35
 74
     0
 49
-1.27
 74
     0
 49
1.27
 74
     0
 49
-1.27
 74
     0
 49
1.27
 74
     0
 49
-1.27
 74
     0
  0
LTYPE
  5
60
330
5
100
AcDbSymbolTableRecord
100
AcDbLinetypeTableRecord
  2
CENTER
 70
     0
  3
Center ____ _ ____ _ ____ _ ____ _ ____ _ ____
 72
    65
 73
     4
 40
10.16
 49
6.35
 74
     0
 49
-1.27
 74
     0
 49
1.27
 74
     0
 49
-1.27
 74
     0
  0
LTYPE
  5
61
330
5
100
AcDbSymbolTableRecord
100
AcDbLinetypeTableRecord
  2
CENTERX2
 70
     0
  3
Center (2x) ________  __  ________  __  _____
 72
    65
 73
     4
 40
20.32
 49
12.7
 74
     0
 49
-2.54
 74
     0
 49
2.54
 74
     0
 49
-2.54
 74
     0
  0
LTYPE
  5
62
330
5
100
AcDbSymbolTableRecord
100
AcDbLinetypeTableRecord
  2
DOT2
 70
     0
  3
Dot (.5x) ........................................
 72
    65
 73
     2
 40
0.635
 49
0.0
 74
     0
 49
-0.635
 74
     0
  0
ENDTAB
  0
TABLE
  2
LAYER
  5
2
330
0
100
AcDbSymbolTable
 70
     1
  0
LAYER
  5
10
330
2
100
AcDbSymbolTableRecord
100
AcDbLayerTableRecord
  2
0
 70
     0
 62
     7
  6
Continuous
370
    -3
390
F
  0
ENDTAB
  0
TABLE
  2
STYLE
  5
3
330
0
100
AcDbSymbolTable
 70
     1
  0
STYLE
  5
11
330
3
100
AcDbSymbolTableRecord
100
AcDbTextStyleTableRecord
  2
Standard
 70
     0
 40
0.0
 41
1.0
 50
0.0
 71
     0
 42
3.5
  3
txt
  4

  0
ENDTAB
  0
TABLE
  2
VIEW
  5
6
330
0
100
AcDbSymbolTable
 70
     0
  0
ENDTAB
  0
TABLE
  2
UCS
  5
7
330
0
100
AcDbSymbolTable
 70
     0
  0
ENDTAB
  0
TABLE
  2
APPID
  5
9
330
0
100
AcDbSymbolTable
 70
     1
  0
APPID
  5
12
330
9
100
AcDbSymbolTableRecord
100
AcDbRegAppTableRecord
  2
ACAD
 70
     0
  0
ENDTAB
  0
TABLE
  2
DIMSTYLE
  5
A
330
0
100
AcDbSymbolTable
 70
     1
100
AcDbDimStyleTable
  0
DIMSTYLE
105
27
330
A
100
AcDbSymbolTableRecord
100
AcDbDimStyleTableRecord
  2
ISO-25
 70
     0
 41
2.5
 42
0.625
 43
3.75
 44
1.25
 73
     0
 74
     0
 77
     1
 78
     8
140
2.5
141
2.5
143
0.0393700787
147
0.625
171
     3
172
     1
178
     0
271
     2
272
     2
274
     3
278
    44
283
     0
284
     8
340
11
  0
ENDTAB
  0
TABLE
  2
BLOCK_RECORD
  5
1
330
0
100
AcDbSymbolTable
 70
     1
  0
BLOCK_RECORD
  5
1F
330
1
100
AcDbSymbolTableRecord
100
AcDbBlockTableRecord
  2
*Model_Space
340
22
  0
BLOCK_RECORD
  5
1B
330
1
100
AcDbSymbolTableRecord
100
AcDbBlockTableRecord
  2
*Paper_Space
340
1E
  0
BLOCK_RECORD
  5
23
330
1
100
AcDbSymbolTableRecord
100
AcDbBlockTableRecord
  2
*Paper_Space0
340
26
  0
ENDTAB
  0
ENDSEC
  0
SECTION
  2
BLOCKS
  0
BLOCK
  5
20
330
1F
100
AcDbEntity
  8
0
100
AcDbBlockBegin
  2
*Model_Space
 70
     0
 10
0.0
 20
0.0
 30
0.0
  3
*Model_Space
  1

  0
ENDBLK
  5
21
330
1F
100
AcDbEntity
  8
0
100
AcDbBlockEnd
  0
BLOCK
  5
1C
330
1B
100
AcDbEntity
 67
     1
  8
0
100
AcDbBlockBegin
  2
*Paper_Space
 70
     0
 10
0.0
 20
0.0
 30
0.0
  3
*Paper_Space
  1

  0
ENDBLK
  5
1D
330
1B
100
AcDbEntity
 67
     1
  8
0
100
AcDbBlockEnd
  0
BLOCK
  5
24
330
23
100
AcDbEntity
  8
0
100
AcDbBlockBegin
  2
*Paper_Space0
 70
     0
 10
0.0
 20
0.0
 30
0.0
  3
*Paper_Space0
  1

  0
ENDBLK
  5
25
330
23
100
AcDbEntity
  8
0
100
AcDbBlockEnd
  0
ENDSEC
  0
SECTION
  2
ENTITIES
  0
SPLINE
  5
63
330
1F
100
AcDbEntity
  8
0
  6
Continuous
 62
     7
370
    25
100
AcDbSpline
210
0.0
220
0.0
230
1.0
 70
    11
 71
     3
 72
    38
 73
    34
 74
     0
 42
0.00000001
 43
0.00000001
 40
0.0
 40
0.0
 40
0.0
 40
0.0
 40
0.0625
 40
0.0625
 40
0.125
 40
0.125
 40
0.1875
 40
0.1875
 40
0.25
 40
0.25
 40
0.3125
 40
0.3125
 40
0.375
 40
0.375
 40
0.4375
 40
0.4375
 40
0.5
 40
0.5
 40
0.5625
 40
0.5625
 40
0.625
 40
0.625
 40
0.6875
 40
0.6875
 40
0.75
 40
0.75
 40
0.8125
 40
0.8125
 40
0.875
 40
0.875
 40
0.9375
 40
0.9375
 40
1.0
 40
1.0
 40
1.0
 40
1.0
 10
-2218.844902088262
 20
1011.0
 30
0.0
 10
-2218.844901805926
 20
1013.320908443641
 30
0.0
 10
-2219.288792590336
 20
1015.552700002235
 30
0.0
 10
-2221.065743537572
 20
1019.841397485546
 30
0.0
 10
-2222.32972081431
 20
1021.733167775669
 30
0.0
 10
-2225.61269548274
 20
1025.015567257865
 30
0.0
 10
-2227.504259534973
 20
1026.279657248151
 30
0.0
 10
-2231.793415320368
 20
1028.056050599695
 30
0.0
 10
-2234.024783846297
 20
1028.500099337194
 30
0.0
 10
-2238.667106813988
 20
1028.499900678689
 30
0.0
 10
-2240.898607652316
 20
1028.056212365459
 30
0.0
 10
-2245.187501121507
 20
1026.2794982025
 30
0.0
 10
-2247.07929990493
 20
1025.015747693647
 30
0.0
 10
-2250.362068596236
 20
1021.732992813176
 30
0.0
 10
-2251.626281123578
 20
1019.841602620461
 30
0.0
 10
-2253.402969947785
 20
1015.552502196872
 30
0.0
 10
-2253.847092489853
 20
1013.321152087853
 30
0.0
 10
-2253.846893576783
 20
1008.678850940713
 30
0.0
 10
-2253.403101962935
 20
1006.447298230046
 30
0.0
 10
-2251.626151261631
 20
1002.158602151801
 30
0.0
 10
-2250.362173644003
 20
1000.266831718382
 30
0.0
 10
-2247.079199479611
 20
996.9844323706463
 30
0.0
 10
-2245.187637519784
 20
995.720343336966
 30
0.0
 10
-2240.898480484502
 20
993.9439499027206
 30
0.0
 10
-2238.667110730591
 20
993.4999009888389
 30
0.0
 10
-2234.024788582352
 20
993.5000990235158
 30
0.0
 10
-2231.793286581799
 20
993.9437878308551
 30
0.0
 10
-2227.504393444568
 20
995.72050219165
 30
0.0
 10
-2225.612594737971
 20
996.9842527671103
 30
0.0
 10
-2222.32982582433
 20
1000.267007913903
 30
0.0
 10
-2221.065513592136
 20
1002.158639084477
 30
0.0
 10
-2219.289024727764
 20
1006.44725817989
 30
0.0
 10
-2218.844902370598
 20
1008.67909155636
 30
0.0
 10
-2218.844902088262
 20
1011.0
 30
0.0
  0
SPLINE
  5
64
330
1F
100
AcDbEntity
  8
0
  6
Continuous
 62
     7
370
    25
100
AcDbSpline
210
0.0
220
0.0
230
1.0
 70
    11
 71
     3
 72
    22
 73
    18
 74
     0
 42
0.00000001
 43
0.00000001
 40
0.0
 40
0.0
 40
0.0
 40
0.0
 40
0.125
 40
0.125
 40
0.25
 40
0.25
 40
0.375
 40
0.375
 40
0.5
 40
0.5
 40
0.625
 40
0.625
 40
0.75
 40
0.75
 40
0.875
 40
0.875
 40
1.0
 40
1.0
 40
1.0
 40
1.0
 10
-1185.54741140226
 20
89.00000000000003
 30
0.0
 10
-1185.547408875093
 20
89.55746257210012
 30
0.0
 10
-1185.767805714004
 20
90.09052183183836
 30
0.0
 10
-1186.557163616613
 20
90.87931934385112
 30
0.0
 10
-1187.089464830833
 20
91.10019757156634
 30
0.0
 10
-1188.205352605284
 20
91.0998025537289
 30
0.0
 10
-1188.737938984601
 20
90.8796024345821
 30
0.0
 10
-1189.526728864122
 20
90.09025439674085
 30
0.0
 10
-1189.747613171589
 20
89.55796761937479
 30
0.0
 10
-1189.747216877338
 20
88.44204094647873
 30
0.0
 10
-1189.527004226145
 20
87.90946264006311
 30
0.0
 10
-1188.737675028761
 20
87.12069184047849
 30
0.0
 10
-1188.205375868863
 20
86.89980188512786
 30
0.0
 10
-1187.089460613651
 20
86.90019808942823
 30
0.0
 10
-1186.556890488737
 20
87.12039349773177
 30
0.0
 10
-1185.768090934585
 20
87.9097532207101
 30
0.0
 10
-1185.547413929426
 20
88.44253742789992
 30
0.0
 10
-1185.54741140226
 20
89.00000000000003
 30
0.0
  0
SPLINE
  5
65
330
1F
100
AcDbEntity
  8
0
  6
Continuous
 62
     7
370
    25
100
AcDbSpline
210
0.0
220
0.0
230
1.0
 70
    11
 71
     3
 72
    22
 73
    18
 74
     0
 42
0.00000001
 43
0.00000001
 40
0.0
 40
0.0
 40
0.0
 40
0.0
 40
0.125
 40
0.125
 40
0.25
 40
0.25
 40
0.375
 40
0.375
 40
0.5
 40
0.5
 40
0.625
 40
0.625
 40
0.75
 40
0.75
 40
0.875
 40
0.875
 40
1.0
 40
1.0
 40
1.0
 40
1.0
 10
-1185.547411402259
 20
329.0000000000001
 30
0.0
 10
-1185.547408875093
 20
329.5574625719419
 30
0.0
 10
-1185.767805713893
 20
330.0905218317769
 30
0.0
 10
-1186.557163616724
 20
330.8793193439123
 30
0.0
 10
-1187.089464830771
 20
331.100197571566
 30
0.0
 10
-1188.205352605345
 20
331.0998025537286
 30
0.0
 10
-1188.737938984263
 20
330.8796024347291
 30
0.0
 10
-1189.52672886446
 20
330.0902543965927
 30
0.0
 10
-1189.747613171498
 20
329.557967618936
 30
0.0
 10
-1189.747216877429
 20
328.4420409469164
 30
0.0
 10
-1189.527004226134
 20
327.9094626400828
 30
0.0
 10
-1188.737675028773
 20
327.1206918404575
 30
0.0
 10
-1188.205375869062
 20
326.8998018851068
 30
0.0
 10
-1187.089460613451
 20
326.9001980894486
 30
0.0
 10
-1186.556890488702
 20
327.1203934978373
 30
0.0
 10
-1185.76809093462
 20
327.9097532206044
 30
0.0
 10
-1185.547413929425
 20
328.4425374280582
 30
0.0
 10
-1185.547411402259
 20
329.0000000000001
 30
0.0
  0
SPLINE
  5
66
330
1F
100
AcDbEntity
  8
0
  6
Continuous
 62
     7
370
    25
100
AcDbSpline
210
0.0
220
0.0
230
1.0
 70
    11
 71
     3
 72
    22
 73
    18
 74
     0
 42
0.00000001
 43
0.00000001
 40
0.0
 40
0.0
 40
0.0
 40
0.0
 40
0.125
 40
0.125
 40
0.25
 40
0.25
 40
0.375
 40
0.375
 40
0.5
 40
0.5
 40
0.625
 40
0.625
 40
0.75
 40
0.75
 40
0.875
 40
0.875
 40
1.0
 40
1.0
 40
1.0
 40
1.0
 10
-1185.54741140226
 20
569.0000000000001
 30
0.0
 10
-1185.547408875096
 20
569.5574625719285
 30
0.0
 10
-1185.767805714073
 20
570.0905218319047
 30
0.0
 10
-1186.557163616543
 20
570.8793193437846
 30
0.0
 10
-1187.089464830682
 20
571.1001975715868
 30
0.0
 10
-1188.205352605434
 20
571.099802553708
 30
0.0
 10
-1188.737938984373
 20
570.8796024346601
 30
0.0
 10
-1189.526728864349
 20
570.0902543966627
 30
0.0
 10
-1189.74761317151
 20
569.5579676191842
 30
0.0
 10
-1189.747216877417
 20
568.4420409466693
 30
0.0
 10
-1189.527004226189
 20
567.9094626400476
 30
0.0
 10
-1188.737675028718
 20
567.1206918404935
 30
0.0
 10
-1188.205375868955
 20
566.8998018851279
 30
0.0
 10
-1187.089460613558
 20
566.9001980894282
 30
0.0
 10
-1186.556890488511
 20
567.1203934978257
 30
0.0
 10
-1185.76809093481
 20
567.9097532206162
 30
0.0
 10
-1185.547413929423
 20
568.4425374280717
 30
0.0
 10
-1185.54741140226
 20
569.0000000000001
 30
0.0
  0
SPLINE
  5
67
330
1F
100
AcDbEntity
  8
0
  6
Continuous
 62
     7
370
    25
100
AcDbSpline
210
0.0
220
0.0
230
1.0
 70
    11
 71
     3
 72
    22
 73
    18
 74
     0
 42
0.00000001
 43
0.00000001
 40
0.0
 40
0.0
 40
0.0
 40
0.0
 40
0.125
 40
0.125
 40
0.25
 40
0.25
 40
0.375
 40
0.375
 40
0.5
 40
0.5
 40
0.625
 40
0.625
 40
0.75
 40
0.75
 40
0.875
 40
0.875
 40
1.0
 40
1.0
 40
1.0
 40
1.0
 10
-1185.547411402259
 20
808.9999999999998
 30
0.0
 10
-1185.547408875085
 20
809.5574625720783
 30
0.0
 10
-1185.76780571336
 20
810.090521831457
 30
0.0
 10
-1186.557163617255
 20
810.879319344232
 30
0.0
 10
-1187.089464830881
 20
811.1001975715869
 30
0.0
 10
-1188.205352605233
 20
811.0998025537083
 30
0.0
 10
-1188.737938984857
 20
810.8796024341757
 30
0.0
 10
-1189.526728863865
 20
810.0902543971472
 30
0.0
 10
-1189.747613171498
 20
809.5579676189797
 30
0.0
 10
-1189.747216877428
 20
808.4420409468736
 30
0.0
 10
-1189.527004225679
 20
807.9094626398786
 30
0.0
 10
-1188.737675029226
 20
807.1206918406626
 30
0.0
 10
-1188.205375868942
 20
806.899801885169
 30
0.0
 10
-1187.089460613571
 20
806.9001980893868
 30
0.0
 10
-1186.556890488546
 20
807.1203934980135
 30
0.0
 10
-1185.768090934775
 20
807.909753220428
 30
0.0
 10
-1185.547413929433
 20
808.4425374279211
 30
0.0
 10
-1185.547411402259
 20
808.9999999999998
 30
0.0
  0
SPLINE
  5
68
330
1F
100
AcDbEntity
  8
0
  6
Continuous
 62
     7
370
    25
100
AcDbSpline
210
0.0
220
0.0
230
1.0
 70
    11
 71
     3
 72
    22
 73
    18
 74
     0
 42
0.00000001
 43
0.00000001
 40
0.0
 40
0.0
 40
0.0
 40
0.0
 40
0.125
 40
0.125
 40
0.25
 40
0.25
 40
0.375
 40
0.375
 40
0.5
 40
0.5
 40
0.625
 40
0.625
 40
0.75
 40
0.75
 40
0.875
 40
0.875
 40
1.0
 40
1.0
 40
1.0
 40
1.0
 10
-1185.547411402259
 20
1049.0
 30
0.0
 10
-1185.547408875088
 20
1049.557462572168
 30
0.0
 10
-1185.767805713778
 20
1050.090521831833
 30
0.0
 10
-1186.557163616838
 20
1050.879319343857
 30
0.0
 10
-1187.08946483049
 20
1051.10019757167
 30
0.0
 10
-1188.205352605625
 20
1051.099802553626
 30
0.0
 10
-1188.737938984717
 20
1050.8796024341
 30
0.0
 10
-1189.526728864005
 20
1050.090254397222
 30
0.0
 10
-1189.747613171588
 20
1049.557967618788
 30
0.0
 10
-1189.747216877337
 20
1048.442040947065
 30
0.0
 10
-1189.527004226024
 20
1047.90946264005
 30
0.0
 10
-1188.737675028881
 20
1047.120691840491
 30
0.0
 10
-1188.205375868857
 20
1046.899801885128
 30
0.0
 10
-1187.089460613658
 20
1046.900198089428
 30
0.0
 10
-1186.556890488772
 20
1047.120393497689
 30
0.0
 10
-1185.76809093455
 20
1047.909753220753
 30
0.0
 10
-1185.547413929431
 20
1048.442537427833
 30
0.0
 10
-1185.547411402259
 20
1049.0
 30
0.0
  0
SPLINE
  5
69
330
1F
100
AcDbEntity
  8
0
  6
Continuous
 62
     7
370
    25
100
AcDbSpline
210
0.0
220
0.0
230
1.0
 70
    11
 71
     3
 72
    22
 73
    18
 74
     0
 42
0.00000001
 43
0.00000001
 40
0.0
 40
0.0
 40
0.0
 40
0.0
 40
0.125
 40
0.125
 40
0.25
 40
0.25
 40
0.375
 40
0.375
 40
0.5
 40
0.5
 40
0.625
 40
0.625
 40
0.75
 40
0.75
 40
0.875
 40
0.875
 40
1.0
 40
1.0
 40
1.0
 40
1.0
 10
-604.7297616065765
 20
1169.0
 30
0.0
 10
-604.7297590794079
 20
1169.55746257181
 30
0.0
 10
-604.9501559183265
 20
1170.090521831848
 30
0.0
 10
-605.7395138209246
 20
1170.879319343841
 30
0.0
 10
-606.2718150352995
 20
1171.100197571587
 30
0.0
 10
-607.387702809451
 20
1171.099802553709
 30
0.0
 10
-607.9202891887568
 20
1170.879602434598
 30
0.0
 10
-608.7090790686004
 20
1170.090254396725
 30
0.0
 10
-608.9299633758986
 20
1169.55796761884
 30
0.0
 10
-608.9295670816614
 20
1168.442040947013
 30
0.0
 10
-608.7093544302711
 20
1167.909462639898
 30
0.0
 10
-607.9200252332695
 20
1167.120691840643
 30
0.0
 10
-607.3877260733444
 20
1166.899801885128
 30
0.0
 10
-606.2718108178026
 20
1166.900198089428
 30
0.0
 10
-605.739240693025
 20
1167.120393497886
 30
0.0
 10
-604.9504411389306
 20
1167.909753220556
 30
0.0
 10
-604.7297641337452
 20
1168.44253742819
 30
0.0
 10
-604.7297616065765
 20
1169.0
 30
0.0
  0
SPLINE
  5
6A
330
1F
100
AcDbEntity
  8
0
  6
Continuous
 62
     7
370
    25
100
AcDbSpline
210
0.0
220
0.0
230
1.0
 70
    11
 71
     3
 72
    22
 73
    18
 74
     0
 42
0.00000001
 43
0.00000001
 40
0.0
 40
0.0
 40
0.0
 40
0.0
 40
0.125
 40
0.125
 40
0.25
 40
0.25
 40
0.375
 40
0.375
 40
0.5
 40
0.5
 40
0.625
 40
0.625
 40
0.75
 40
0.75
 40
0.875
 40
0.875
 40
1.0
 40
1.0
 40
1.0
 40
1.0
 10
-2347.182710993614
 20
1169.0
 30
0.0
 10
-2347.182708466456
 20
1169.557462571918
 30
0.0
 10
-2347.403105305018
 20
1170.090521831587
 30
0.0
 10
-2348.192463208306
 20
1170.879319344103
 30
0.0
 10
-2348.724764421937
 20
1171.100197571587
 30
0.0
 10
-2349.840652196885
 20
1171.099802553709
 30
0.0
 10
-2350.373238576286
 20
1170.879602434271
 30
0.0
 10
-2351.162028455145
 20
1170.090254397053
 30
0.0
 10
-2351.382912762604
 20
1169.557967618126
 30
0.0
 10
-2351.382516469028
 20
1168.442040947727
 30
0.0
 10
-2351.162303818151
 20
1167.909462640534
 30
0.0
 10
-2350.372974619464
 20
1167.120691840008
 30
0.0
 10
-2349.840675460464
 20
1166.899801885045
 30
0.0
 10
-2348.724760204757
 20
1166.900198089511
 30
0.0
 10
-2348.192190080174
 20
1167.12039349765
 30
0.0
 10
-2347.403390525857
 20
1167.909753220792
 30
0.0
 10
-2347.182713520771
 20
1168.442537428083
 30
0.0
 10
-2347.182710993614
 20
1169.0
 30
0.0
  0
SPLINE
  5
6B
330
1F
100
AcDbEntity
  8
0
  6
Continuous
 62
     7
370
    25
100
AcDbSpline
210
0.0
220
0.0
230
1.0
 70
    11
 71
     3
 72
    22
 73
    18
 74
     0
 42
0.00000001
 43
0.00000001
 40
0.0
 40
0.0
 40
0.0
 40
0.0
 40
0.125
 40
0.125
 40
0.25
 40
0.25
 40
0.375
 40
0.375
 40
0.5
 40
0.5
 40
0.625
 40
0.625
 40
0.75
 40
0.75
 40
0.875
 40
0.875
 40
1.0
 40
1.0
 40
1.0
 40
1.0
 10
-1768.465063004222
 20
-33.10000000000002
 30
0.0
 10
-1767.907592393158
 20
-33.10000277652214
 30
0.0
 10
-1767.374528636622
 20
-32.87959182445555
 30
0.0
 10
-1766.585754933982
 20
-32.090264094913
 30
0.0
 10
-1766.364863634827
 20
-31.55796500258823
 30
0.0
 10
-1766.365258735602
 20
-30.4420491717915
 30
0.0
 10
-1766.585454728789
 20
-29.9094784299937
 30
0.0
 10
-1767.37481526929
 20
-29.12067930502393
 30
0.0
 10
-1767.907112042105
 20
-28.89980360622424
 30
0.0
 10
-1769.023013966339
 20
-28.90019639377584
 30
0.0
 10
-1769.555597371726
 20
-29.12040817540584
 30
0.0
 10
-1770.344371074561
 20
-29.90973590522528
 30
0.0
 10
-1770.565262373741
 20
-30.44203499711173
 30
0.0
 10
-1770.564867272718
 20
-31.55795082850865
 30
0.0
 10
-1770.344671279702
 20
-32.09052156995995
 30
0.0
 10
-1769.555310739108
 20
-32.87932069502231
 30
0.0
 10
-1769.022533615286
 20
-33.09999722347789
 30
0.0
 10
-1768.465063004222
 20
-33.10000000000002
 30
0.0
  0
SPLINE
  5
6C
330
1F
100
AcDbEntity
  8
0
  6
Continuous
 62
     7
370
    25
100
AcDbSpline
210
0.0
220
0.0
230
1.0
 70
    11
 71
     3
 72
    22
 73
    18
 74
     0
 42
0.00000001
 43
0.00000001
 40
0.0
 40
0.0
 40
0.0
 40
0.0
 40
0.125
 40
0.125
 40
0.25
 40
0.25
 40
0.375
 40
0.375
 40
0.5
 40
0.5
 40
0.625
 40
0.625
 40
0.75
 40
0.75
 40
0.875
 40
0.875
 40
1.0
 40
1.0
 40
1.0
 40
1.0
 10
-604.7297616065767
 20
89.00000000000013
 30
0.0
 10
-604.729759079408
 20
89.55746257203046
 30
0.0
 10
-604.9501559183809
 20
90.09052183179872
 30
0.0
 10
-605.7395138208711
 20
90.87931934389076
 30
0.0
 10
-606.2718150351507
 20
91.10019757156623
 30
0.0
 10
-607.3877028096
 20
91.0998025537288
 30
0.0
 10
-607.9202891888009
 20
90.8796024346159
 30
0.0
 10
-608.7090790685565
 20
90.0902543967066
 30
0.0
 10
-608.9299633757751
 20
89.55796761858103
 30
0.0
 10
-608.9295670817858
 20
88.44204094727203
 30
0.0
 10
-608.7093544304701
 20
87.90946264009658
 30
0.0
 10
-607.9200252330705
 20
87.12069184044447
 30
0.0
 10
-607.3877260732543
 20
86.89980188512774
 30
0.0
 10
-606.2718108178937
 20
86.90019808942812
 30
0.0
 10
-605.7392406930834
 20
87.12039349770329
 30
0.0
 10
-604.9504411388722
 20
87.90975322073868
 30
0.0
 10
-604.7297641337456
 20
88.44253742796981
 30
0.0
 10
-604.7297616065767
 20
89.00000000000013
 30
0.0
  0
SPLINE
  5
6D
330
1F
100
AcDbEntity
  8
0
  6
Continuous
 62
     7
370
    25
100
AcDbSpline
210
0.0
220
0.0
230
1.0
 70
    11
 71
     3
 72
    22
 73
    18
 74
     0
 42
0.00000001
 43
0.00000001
 40
0.0
 40
0.0
 40
0.0
 40
0.0
 40
0.125
 40
0.125
 40
0.25
 40
0.25
 40
0.375
 40
0.375
 40
0.5
 40
0.5
 40
0.625
 40
0.625
 40
0.75
 40
0.75
 40
0.875
 40
0.875
 40
1.0
 40
1.0
 40
1.0
 40
1.0
 10
-2347.182710993614
 20
89.00000000000009
 30
0.0
 10
-2347.182708466446
 20
89.55746257103264
 30
0.0
 10
-2347.403105305451
 20
90.09052183191585
 30
0.0
 10
-2348.192463207874
 20
90.87931934377386
 30
0.0
 10
-2348.724764421974
 20
91.1001975715664
 30
0.0
 10
-2349.840652196851
 20
91.09980255372885
 30
0.0
 10
-2350.373238575623
 20
90.87960243485065
 30
0.0
 10
-2351.162028455806
 20
90.09025439647206
 30
0.0
 10
-2351.382912762604
 20
89.55796761768825
 30
0.0
 10
-2351.382516469029
 20
88.44204094816527
 30
0.0
 10
-2351.162303817437
 20
87.90946264006833
 30
0.0
 10
-2350.372974620177
 20
87.12069184047338
 30
0.0
 10
-2349.840675460582
 20
86.8998018851278
 30
0.0
 10
-2348.724760204643
 20
86.90019808942839
 30
0.0
 10
-2348.192190080131
 20
87.12039349787898
 30
0.0
 10
-2347.4033905259
 20
87.90975322056322
 30
0.0
 10
-2347.182713520783
 20
88.44253742896751
 30
0.0
 10
-2347.182710993614
 20
89.00000000000009
 30
0.0
  0
SPLINE
  5
6E
330
1F
100
AcDbEntity
  8
0
  6
Continuous
 62
     7
370
    25
100
AcDbSpline
210
0.0
220
0.0
230
1.0
 70
    11
 71
     3
 72
    22
 73
    18
 74
     0
 42
0.00000001
 43
0.00000001
 40
0.0
 40
0.0
 40
0.0
 40
0.0
 40
0.125
 40
0.125
 40
0.25
 40
0.25
 40
0.375
 40
0.375
 40
0.5
 40
0.5
 40
0.625
 40
0.625
 40
0.75
 40
0.75
 40
0.875
 40
0.875
 40
1.0
 40
1.0
 40
1.0
 40
1.0
 10
-1766.365061197931
 20
209.0000000000001
 30
0.0
 10
-1766.36505867076
 20
209.5574625717256
 30
0.0
 10
-1766.585455509981
 20
210.0905218319001
 30
0.0
 10
-1767.374813411979
 20
210.8793193437891
 30
0.0
 10
-1767.907114626364
 20
211.1001975715868
 30
0.0
 10
-1769.023002401095
 20
211.0998025537082
 30
0.0
 10
-1769.555588780014
 20
210.8796024347568
 30
0.0
 10
-1770.344378660052
 20
210.0902543965655
 30
0.0
 10
-1770.565262966881
 20
209.5579676183821
 30
0.0
 10
-1770.564866673388
 20
208.4420409474708
 30
0.0
 10
-1770.344654021818
 20
207.9094626400901
 30
0.0
 10
-1769.555324824431
 20
207.1206918404506
 30
0.0
 10
-1769.023025664443
 20
206.8998018851278
 30
0.0
 10
-1767.907110409414
 20
206.900198089428
 30
0.0
 10
-1767.374540284536
 20
207.1203934976672
 30
0.0
 10
-1766.585740730129
 20
207.9097532207749
 30
0.0
 10
-1766.365063725103
 20
208.4425374282747
 30
0.0
 10
-1766.365061197931
 20
209.0000000000001
 30
0.0
  0
SPLINE
  5
6F
330
1F
100
AcDbEntity
  8
0
  6
Continuous
 62
     7
370
    25
100
AcDbSpline
210
0.0
220
0.0
230
1.0
 70
    11
 71
     3
 72
    22
 73
    18
 74
     0
 42
0.00000001
 43
0.00000001
 40
0.0
 40
0.0
 40
0.0
 40
0.0
 40
0.125
 40
0.125
 40
0.25
 40
0.25
 40
0.375
 40
0.375
 40
0.5
 40
0.5
 40
0.625
 40
0.625
 40
0.75
 40
0.75
 40
0.875
 40
0.875
 40
1.0
 40
1.0
 40
1.0
 40
1.0
 10
-604.7297616065767
 20
329.0
 30
0.0
 10
-604.7297590794117
 20
329.5574625719394
 30
0.0
 10
-604.9501559182919
 20
330.0905218318132
 30
0.0
 10
-605.7395138209597
 20
330.8793193438762
 30
0.0
 10
-606.271815035282
 20
331.1001975715454
 30
0.0
 10
-607.3877028094679
 20
331.0998025537496
 30
0.0
 10
-607.9202891888591
 20
330.8796024344746
 30
0.0
 10
-608.7090790684977
 20
330.090254396848
 30
0.0
 10
-608.9299633758575
 20
329.5579676188606
 30
0.0
 10
-608.9295670817028
 20
328.4420409469925
 30
0.0
 10
-608.7093544304115
 20
327.9094626400382
 30
0.0
 10
-607.9200252331292
 20
327.1206918405028
 30
0.0
 10
-607.3877260733032
 20
326.8998018851276
 30
0.0
 10
-606.2718108178449
 20
326.900198089428
 30
0.0
 10
-605.7392406931012
 20
327.1203934975616
 30
0.0
 10
-604.9504411388547
 20
327.9097532208803
 30
0.0
 10
-604.7297641337419
 20
328.4425374280606
 30
0.0
 10
-604.7297616065767
 20
329.0
 30
0.0
  0
SPLINE
  5
70
330
1F
100
AcDbEntity
  8
0
  6
Continuous
 62
     7
370
    25
100
AcDbSpline
210
0.0
220
0.0
230
1.0
 70
    11
 71
     3
 72
    22
 73
    18
 74
     0
 42
0.00000001
 43
0.00000001
 40
0.0
 40
0.0
 40
0.0
 40
0.0
 40
0.125
 40
0.125
 40
0.25
 40
0.25
 40
0.375
 40
0.375
 40
0.5
 40
0.5
 40
0.625
 40
0.625
 40
0.75
 40
0.75
 40
0.875
 40
0.875
 40
1.0
 40
1.0
 40
1.0
 40
1.0
 10
-2347.182710993612
 20
328.9999999999999
 30
0.0
 10
-2347.182708466449
 20
329.5574625724392
 30
0.0
 10
-2347.403105305204
 20
330.0905218317926
 30
0.0
 10
-2348.192463208121
 20
330.8793193438967
 30
0.0
 10
-2348.724764422187
 20
331.1001975715661
 30
0.0
 10
-2349.840652196637
 20
331.0998025537289
 30
0.0
 10
-2350.373238575685
 20
330.8796024346864
 30
0.0
 10
-2351.162028455746
 20
330.0902543966361
 30
0.0
 10
-2351.382912762771
 20
329.5579676185038
 30
0.0
 10
-2351.382516468864
 20
328.4420409473491
 30
0.0
 10
-2351.162303817498
 20
327.9094626400454
 30
0.0
 10
-2350.372974620116
 20
327.1206918404955
 30
0.0
 10
-2349.840675460464
 20
326.8998018851277
 30
0.0
 10
-2348.724760204757
 20
326.9001980894282
 30
0.0
 10
-2348.192190080505
 20
327.1203934969863
 30
0.0
 10
-2347.403390525522
 20
327.9097532214551
 30
0.0
 10
-2347.182713520775
 20
328.4425374275608
 30
0.0
 10
-2347.182710993612
 20
328.9999999999999
 30
0.0
  0
SPLINE
  5
71
330
1F
100
AcDbEntity
  8
0
  6
Continuous
 62
     7
370
    25
100
AcDbSpline
210
0.0
220
0.0
230
1.0
 70
    11
 71
     3
 72
    22
 73
    18
 74
     0
 42
0.00000001
 43
0.00000001
 40
0.0
 40
0.0
 40
0.0
 40
0.0
 40
0.125
 40
0.125
 40
0.25
 40
0.25
 40
0.375
 40
0.375
 40
0.5
 40
0.5
 40
0.625
 40
0.625
 40
0.75
 40
0.75
 40
0.875
 40
0.875
 40
1.0
 40
1.0
 40
1.0
 40
1.0
 10
-1766.365061197931
 20
449.0
 30
0.0
 10
-1766.36505867076
 20
449.5574625721595
 30
0.0
 10
-1766.585455509394
 20
450.0905218316441
 30
0.0
 10
-1767.374813412566
 20
450.8793193440451
 30
0.0
 10
-1767.907114626506
 20
451.1001975715661
 30
0.0
 10
-1769.023002400954
 20
451.0998025537288
 30
0.0
 10
-1769.555588780027
 20
450.8796024347228
 30
0.0
 10
-1770.344378660038
 20
450.0902543965993
 30
0.0
 10
-1770.565262967254
 20
449.5579676192779
 30
0.0
 10
-1770.564866673016
 20
448.4420409465754
 30
0.0
 10
-1770.344654021514
 20
447.9094626399096
 30
0.0
 10
-1769.555324824736
 20
447.1206918406313
 30
0.0
 10
-1769.023025664532
 20
446.8998018851897
 30
0.0
 10
-1767.907110409325
 20
446.900198089366
 30
0.0
 10
-1767.374540284522
 20
447.1203934975985
 30
0.0
 10
-1766.585740730143
 20
447.9097532208431
 30
0.0
 10
-1766.365063725102
 20
448.4425374278406
 30
0.0
 10
-1766.365061197931
 20
449.0
 30
0.0
  0
SPLINE
  5
72
330
1F
100
AcDbEntity
  8
0
  6
Continuous
 62
     7
370
    25
100
AcDbSpline
210
0.0
220
0.0
230
1.0
 70
    11
 71
     3
 72
    22
 73
    18
 74
     0
 42
0.00000001
 43
0.00000001
 40
0.0
 40
0.0
 40
0.0
 40
0.0
 40
0.125
 40
0.125
 40
0.25
 40
0.25
 40
0.375
 40
0.375
 40
0.5
 40
0.5
 40
0.625
 40
0.625
 40
0.75
 40
0.75
 40
0.875
 40
0.875
 40
1.0
 40
1.0
 40
1.0
 40
1.0
 10
-604.7297616065767
 20
568.9999999999998
 30
0.0
 10
-604.7297590794135
 20
569.5574625720224
 30
0.0
 10
-604.950155918327
 20
570.0905218318482
 30
0.0
 10
-605.739513820924
 20
570.8793193438406
 30
0.0
 10
-606.2718150351823
 20
571.1001975715453
 30
0.0
 10
-607.3877028095675
 20
571.0998025537492
 30
0.0
 10
-607.9202891887039
 20
570.8796024346094
 30
0.0
 10
-608.709079068653
 20
570.0902543967135
 30
0.0
 10
-608.9299633758161
 20
569.5579676187236
 30
0.0
 10
-608.9295670817442
 20
568.4420409471296
 30
0.0
 10
-608.7093544304531
 20
567.9094626400381
 30
0.0
 10
-607.9200252330878
 20
567.1206918405028
 30
0.0
 10
-607.387726073221
 20
566.8998018851275
 30
0.0
 10
-606.2718108179273
 20
566.9001980894278
 30
0.0
 10
-605.7392406930845
 20
567.1203934976612
 30
0.0
 10
-604.9504411388718
 20
567.9097532207804
 30
0.0
 10
-604.7297641337402
 20
568.4425374279771
 30
0.0
 10
-604.7297616065767
 20
568.9999999999998
 30
0.0
  0
SPLINE
  5
73
330
1F
100
AcDbEntity
  8
0
  6
Continuous
 62
     7
370
    25
100
AcDbSpline
210
0.0
220
0.0
230
1.0
 70
    11
 71
     3
 72
    22
 73
    18
 74
     0
 42
0.00000001
 43
0.00000001
 40
0.0
 40
0.0
 40
0.0
 40
0.0
 40
0.125
 40
0.125
 40
0.25
 40
0.25
 40
0.375
 40
0.375
 40
0.5
 40
0.5
 40
0.625
 40
0.625
 40
0.75
 40
0.75
 40
0.875
 40
0.875
 40
1.0
 40
1.0
 40
1.0
 40
1.0
 10
-2347.182710993614
 20
569.0
 30
0.0
 10
-2347.182708466446
 20
569.5574625718078
 30
0.0
 10
-2347.40310530531
 20
570.0905218318366
 30
0.0
 10
-2348.192463208014
 20
570.8793193438527
 30
0.0
 10
-2348.724764422665
 20
571.1001975715451
 30
0.0
 10
-2349.840652196158
 20
571.0998025537494
 30
0.0
 10
-2350.373238576067
 20
570.8796024342428
 30
0.0
 10
-2351.162028455366
 20
570.0902543970798
 30
0.0
 10
-2351.382912762936
 20
569.5579676187209
 30
0.0
 10
-2351.382516468698
 20
568.4420409471319
 30
0.0
 10
-2351.162303817577
 20
567.9094626401263
 30
0.0
 10
-2350.372974620037
 20
567.1206918404149
 30
0.0
 10
-2349.840675460565
 20
566.8998018851279
 30
0.0
 10
-2348.724760204657
 20
566.9001980894284
 30
0.0
 10
-2348.192190080096
 20
567.1203934975622
 30
0.0
 10
-2347.403390525933
 20
567.9097532208801
 30
0.0
 10
-2347.182713520783
 20
568.442537428192
 30
0.0
 10
-2347.182710993614
 20
569.0
 30
0.0
  0
SPLINE
  5
74
330
1F
100
AcDbEntity
  8
0
  6
Continuous
 62
     7
370
    25
100
AcDbSpline
210
0.0
220
0.0
230
1.0
 70
    11
 71
     3
 72
    22
 73
    18
 74
     0
 42
0.00000001
 43
0.00000001
 40
0.0
 40
0.0
 40
0.0
 40
0.0
 40
0.125
 40
0.125
 40
0.25
 40
0.25
 40
0.375
 40
0.375
 40
0.5
 40
0.5
 40
0.625
 40
0.625
 40
0.75
 40
0.75
 40
0.875
 40
0.875
 40
1.0
 40
1.0
 40
1.0
 40
1.0
 10
-1766.365061197931
 20
689.0
 30
0.0
 10
-1766.365058670762
 20
689.5574625717525
 30
0.0
 10
-1766.585455509593
 20
690.0905218318023
 30
0.0
 10
-1767.374813412367
 20
690.8793193438871
 30
0.0
 10
-1767.907114626554
 20
691.100197571504
 30
0.0
 10
-1769.023002400904
 20
691.0998025537909
 30
0.0
 10
-1769.555588780779
 20
690.8796024338471
 30
0.0
 10
-1770.344378659287
 20
690.0902543974755
 30
0.0
 10
-1770.565262967336
 20
689.5579676190382
 30
0.0
 10
-1770.564866672933
 20
688.4420409468153
 30
0.0
 10
-1770.344654021708
 20
687.9094626399392
 30
0.0
 10
-1769.555324824542
 20
687.120691840602
 30
0.0
 10
-1769.023025664599
 20
686.8998018851278
 30
0.0
 10
-1767.907110409258
 20
686.9001980894283
 30
0.0
 10
-1767.374540284636
 20
687.1203934973798
 30
0.0
 10
-1766.585740730028
 20
687.9097532210615
 30
0.0
 10
-1766.3650637251
 20
688.4425374282476
 30
0.0
 10
-1766.365061197931
 20
689.0
 30
0.0
  0
SPLINE
  5
75
330
1F
100
AcDbEntity
  8
0
  6
Continuous
 62
     7
370
    25
100
AcDbSpline
210
0.0
220
0.0
230
1.0
 70
    11
 71
     3
 72
    22
 73
    18
 74
     0
 42
0.00000001
 43
0.00000001
 40
0.0
 40
0.0
 40
0.0
 40
0.0
 40
0.125
 40
0.125
 40
0.25
 40
0.25
 40
0.375
 40
0.375
 40
0.5
 40
0.5
 40
0.625
 40
0.625
 40
0.75
 40
0.75
 40
0.875
 40
0.875
 40
1.0
 40
1.0
 40
1.0
 40
1.0
 10
-604.7297616065762
 20
809.0000000000002
 30
0.0
 10
-604.7297590794097
 20
809.5574625719548
 30
0.0
 10
-604.9501559182278
 20
810.0905218317494
 30
0.0
 10
-605.7395138210234
 20
810.8793193439399
 30
0.0
 10
-606.2718150349999
 20
811.1001975715868
 30
0.0
 10
-607.3877028097501
 20
811.099802553708
 30
0.0
 10
-607.9202891887447
 20
810.8796024346924
 30
0.0
 10
-608.709079068612
 20
810.09025439663
 30
0.0
 10
-608.9299633758571
 20
809.5579676188231
 30
0.0
 10
-608.9295670817025
 20
808.4420409470297
 30
0.0
 10
-608.7093544304403
 20
807.9094626400667
 30
0.0
 10
-607.9200252331005
 20
807.120691840474
 30
0.0
 10
-607.3877260732455
 20
806.8998018851277
 30
0.0
 10
-606.271810817902
 20
806.9001980894282
 30
0.0
 10
-605.7392406930542
 20
807.1203934977738
 30
0.0
 10
-604.9504411389015
 20
807.9097532206679
 30
0.0
 10
-604.7297641337428
 20
808.4425374280457
 30
0.0
 10
-604.7297616065762
 20
809.0000000000002
 30
0.0
  0
SPLINE
  5
76
330
1F
100
AcDbEntity
  8
0
  6
Continuous
 62
     7
370
    25
100
AcDbSpline
210
0.0
220
0.0
230
1.0
 70
    11
 71
     3
 72
    22
 73
    18
 74
     0
 42
0.00000001
 43
0.00000001
 40
0.0
 40
0.0
 40
0.0
 40
0.0
 40
0.125
 40
0.125
 40
0.25
 40
0.25
 40
0.375
 40
0.375
 40
0.5
 40
0.5
 40
0.625
 40
0.625
 40
0.75
 40
0.75
 40
0.875
 40
0.875
 40
1.0
 40
1.0
 40
1.0
 40
1.0
 10
-2347.182710993614
 20
809.0
 30
0.0
 10
-2347.182708466456
 20
809.5574625726763
 30
0.0
 10
-2347.403105305218
 20
810.0905218317029
 30
0.0
 10
-2348.192463208107
 20
810.8793193439868
 30
0.0
 10
-2348.724764421936
 20
811.1001975715872
 30
0.0
 10
-2349.840652196888
 20
811.0998025537085
 30
0.0
 10
-2350.373238576347
 20
810.8796024340019
 30
0.0
 10
-2351.162028455082
 20
810.0902543973215
 30
0.0
 10
-2351.382912762936
 20
809.557967618924
 30
0.0
 10
-2351.382516468698
 20
808.4420409469302
 30
0.0
 10
-2351.162303817906
 20
807.909462640371
 30
0.0
 10
-2350.37297461971
 20
807.1206918401713
 30
0.0
 10
-2349.840675460018
 20
806.8998018851282
 30
0.0
 10
-2348.724760205205
 20
806.9001980894283
 30
0.0
 10
-2348.192190080149
 20
807.1203934978423
 30
0.0
 10
-2347.403390525884
 20
807.9097532206
 30
0.0
 10
-2347.182713520771
 20
808.4425374273238
 30
0.0
 10
-2347.182710993614
 20
809.0
 30
0.0
  0
SPLINE
  5
77
330
1F
100
AcDbEntity
  8
0
  6
Continuous
 62
     7
370
    25
100
AcDbSpline
210
0.0
220
0.0
230
1.0
 70
    11
 71
     3
 72
    22
 73
    18
 74
     0
 42
0.00000001
 43
0.00000001
 40
0.0
 40
0.0
 40
0.0
 40
0.0
 40
0.125
 40
0.125
 40
0.25
 40
0.25
 40
0.375
 40
0.375
 40
0.5
 40
0.5
 40
0.625
 40
0.625
 40
0.75
 40
0.75
 40
0.875
 40
0.875
 40
1.0
 40
1.0
 40
1.0
 40
1.0
 10
-1766.365061197931
 20
928.9999999999998
 30
0.0
 10
-1766.365058670765
 20
929.5574625719978
 30
0.0
 10
-1766.585455509452
 20
930.0905218317437
 30
0.0
 10
-1767.374813412507
 20
930.8793193439453
 30
0.0
 10
-1767.907114626255
 20
931.1001975716695
 30
0.0
 10
-1769.023002401204
 20
931.0998025536252
 30
0.0
 10
-1769.55558878011
 20
930.8796024346399
 30
0.0
 10
-1770.344378659954
 20
930.0902543966823
 30
0.0
 10
-1770.565262967253
 20
929.557967618897
 30
0.0
 10
-1770.564866673016
 20
928.442040946956
 30
0.0
 10
-1770.344654021508
 20
927.909462639863
 30
0.0
 10
-1769.555324824741
 20
927.1206918406776
 30
0.0
 10
-1769.023025664634
 20
926.8998018850863
 30
0.0
 10
-1767.907110409222
 20
926.9001980894691
 30
0.0
 10
-1767.374540284315
 20
927.1203934977024
 30
0.0
 10
-1766.58574073035
 20
927.9097532207394
 30
0.0
 10
-1766.365063725097
 20
928.4425374280019
 30
0.0
 10
-1766.365061197931
 20
928.9999999999998
 30
0.0
  0
SPLINE
  5
78
330
1F
100
AcDbEntity
  8
0
  6
Continuous
 62
     7
370
    25
100
AcDbSpline
210
0.0
220
0.0
230
1.0
 70
    11
 71
     3
 72
    22
 73
    18
 74
     0
 42
0.00000001
 43
0.00000001
 40
0.0
 40
0.0
 40
0.0
 40
0.0
 40
0.125
 40
0.125
 40
0.25
 40
0.25
 40
0.375
 40
0.375
 40
0.5
 40
0.5
 40
0.625
 40
0.625
 40
0.75
 40
0.75
 40
0.875
 40
0.875
 40
1.0
 40
1.0
 40
1.0
 40
1.0
 10
-604.7297616065765
 20
1049.0
 30
0.0
 10
-604.7297590794105
 20
1049.557462571981
 30
0.0
 10
-604.9501559183682
 20
1050.090521831931
 30
0.0
 10
-605.7395138208825
 20
1050.879319343758
 30
0.0
 10
-606.2718150349411
 20
1051.100197571587
 30
0.0
 10
-607.3877028098086
 20
1051.099802553708
 30
0.0
 10
-607.9202891888311
 20
1050.879602434482
 30
0.0
 10
-608.7090790685252
 20
1050.090254396841
 30
0.0
 10
-608.9299633758573
 20
1049.557967618724
 30
0.0
 10
-608.9295670817025
 20
1048.442040947129
 30
0.0
 10
-608.7093544306522
 20
1047.909462640155
 30
0.0
 10
-607.9200252328883
 20
1047.120691840386
 30
0.0
 10
-607.3877260733046
 20
1046.899801885128
 30
0.0
 10
-606.2718108178424
 20
1046.900198089428
 30
0.0
 10
-605.7392406929536
 20
1047.120393497791
 30
0.0
 10
-604.9504411390011
 20
1047.909753220651
 30
0.0
 10
-604.7297641337425
 20
1048.442537428019
 30
0.0
 10
-604.7297616065765
 20
1049.0
 30
0.0
  0
LINE
  5
79
330
1F
100
AcDbEntity
  8
0
  6
Continuous
 62
     7
370
    25
100
AcDbLine
 10
-2372.3669960483
 20
-56.0
 30
0.0
 11
-2372.3669960483
 21
1194.0
 31
0.0
  0
LINE
  5
7A
330
1F
100
AcDbEntity
  8
0
  6
Continuous
 62
     7
370
    25
100
AcDbLine
 10
0.0
 20
-56.0
 30
0.0
 11
-2372.3669960483
 21
-56.0
 31
0.0
  0
LINE
  5
7B
330
1F
100
AcDbEntity
  8
0
  6
Continuous
 62
     7
370
    25
100
AcDbLine
 10
0.0
 20
1194.0
 30
0.0
 11
0.0
 21
-56.0
 31
0.0
  0
LINE
  5
7C
330
1F
100
AcDbEntity
  8
0
  6
Continuous
 62
     7
370
    25
100
AcDbLine
 10
-2372.3669960483
 20
1194.0
 30
0.0
 11
0.0
 21
1194.0
 31
0.0
  0
SPLINE
  5
7D
330
1F
100
AcDbEntity
  8
0
  6
Continuous
 62
     7
370
    25
100
AcDbSpline
210
0.0
220
0.0
230
1.0
 70
    11
 71
     3
 72
    22
 73
    18
 74
     0
 42
0.00000001
 43
0.00000001
 40
0.0
 40
0.0
 40
0.0
 40
0.0
 40
0.125
 40
0.125
 40
0.25
 40
0.25
 40
0.375
 40
0.375
 40
0.5
 40
0.5
 40
0.625
 40
0.625
 40
0.75
 40
0.75
 40
0.875
 40
0.875
 40
1.0
 40
1.0
 40
1.0
 40
1.0
 10
-1766.365061197931
 20
1049.0
 30
0.0
 10
-1766.365058670759
 20
1049.557462571986
 30
0.0
 10
-1766.585455509381
 20
1050.090521831673
 30
0.0
 10
-1767.374813412578
 20
1050.879319344017
 30
0.0
 10
-1767.907114626852
 20
1051.100197571422
 30
0.0
 10
-1769.023002400605
 20
1051.099802553874
 30
0.0
 10
-1769.555588779859
 20
1050.879602434975
 30
0.0
 10
-1770.344378660207
 20
1050.090254396349
 30
0.0
 10
-1770.565262967172
 20
1049.557967618539
 30
0.0
 10
-1770.564866673099
 20
1048.442040947315
 30
0.0
 10
-1770.344654021174
 20
1047.909462639778
 30
0.0
 10
-1769.555324825075
 20
1047.120691840764
 30
0.0
 10
-1769.0230256647
 20
1046.899801885128
 30
0.0
 10
-1767.907110409157
 20
1046.900198089429
 30
0.0
 10
-1767.374540284157
 20
1047.120393497943
 30
0.0
 10
-1766.585740730508
 20
1047.909753220499
 30
0.0
 10
-1766.365063725103
 20
1048.442537428015
 30
0.0
 10
-1766.365061197931
 20
1049.0
 30
0.0
  0
SPLINE
  5
7E
330
1F
100
AcDbEntity
  8
0
  6
Continuous
 62
     7
370
    25
100
AcDbSpline
210
0.0
220
0.0
230
1.0
 70
    11
 71
     3
 72
    22
 73
    18
 74
     0
 42
0.00000001
 43
0.00000001
 40
0.0
 40
0.0
 40
0.0
 40
0.0
 40
0.125
 40
0.125
 40
0.25
 40
0.25
 40
0.375
 40
0.375
 40
0.5
 40
0.5
 40
0.625
 40
0.625
 40
0.75
 40
0.75
 40
0.875
 40
0.875
 40
1.0
 40
1.0
 40
1.0
 40
1.0
 10
-2347.182710993614
 20
929.0
 30
0.0
 10
-2347.182708466451
 20
929.5574625720233
 30
0.0
 10
-2347.403105305148
 20
930.0905218317147
 30
0.0
 10
-2348.192463208177
 20
930.8793193439743
 30
0.0
 10
-2348.72476442204
 20
931.1001975715872
 30
0.0
 10
-2349.840652196786
 20
931.0998025537083
 30
0.0
 10
-2350.373238575755
 20
930.8796024345528
 30
0.0
 10
-2351.162028455674
 20
930.0902543967699
 30
0.0
 10
-2351.382912762771
 20
929.5579676188393
 30
0.0
 10
-2351.382516468864
 20
928.4420409470138
 30
0.0
 10
-2351.162303817319
 20
927.9094626399509
 30
0.0
 10
-2350.372974620294
 20
927.1206918405906
 30
0.0
 10
-2349.840675460929
 20
926.8998018850449
 30
0.0
 10
-2348.724760204293
 20
926.9001980895107
 30
0.0
 10
-2348.192190080572
 20
927.1203934972516
 30
0.0
 10
-2347.403390525458
 20
927.9097532211904
 30
0.0
 10
-2347.182713520777
 20
928.4425374279767
 30
0.0
 10
-2347.182710993614
 20
929.0
 30
0.0
  0
SPLINE
  5
7F
330
1F
100
AcDbEntity
  8
0
  6
Continuous
 62
     7
370
    25
100
AcDbSpline
210
0.0
220
0.0
230
1.0
 70
    11
 71
     3
 72
    22
 73
    18
 74
     0
 42
0.00000001
 43
0.00000001
 40
0.0
 40
0.0
 40
0.0
 40
0.0
 40
0.125
 40
0.125
 40
0.25
 40
0.25
 40
0.375
 40
0.375
 40
0.5
 40
0.5
 40
0.625
 40
0.625
 40
0.75
 40
0.75
 40
0.875
 40
0.875
 40
1.0
 40
1.0
 40
1.0
 40
1.0
 10
-604.7297616065762
 20
929.0
 30
0.0
 10
-604.7297590794097
 20
929.5574625719137
 30
0.0
 10
-604.9501559184386
 20
930.0905218319598
 30
0.0
 10
-605.7395138208128
 20
930.8793193437291
 30
0.0
 10
-606.2718150350597
 20
931.1001975715866
 30
0.0
 10
-607.3877028096904
 20
931.099802553708
 30
0.0
 10
-607.9202891889439
 20
930.8796024344102
 30
0.0
 10
-608.7090790684131
 20
930.0902543969115
 30
0.0
 10
-608.9299633758989
 20
929.5579676188797
 30
0.0
 10
-608.9295670816615
 20
928.4420409469724
 30
0.0
 10
-608.7093544304283
 20
927.9094626400962
 30
0.0
 10
-607.9200252331113
 20
927.1206918404439
 30
0.0
 10
-607.3877260733028
 20
926.8998018851273
 30
0.0
 10
-606.2718108178435
 20
926.9001980894278
 30
0.0
 10
-605.7392406929963
 20
927.1203934978316
 30
0.0
 10
-604.950441138959
 20
927.9097532206107
 30
0.0
 10
-604.7297641337428
 20
928.4425374280864
 30
0.0
 10
-604.7297616065762
 20
929.0
 30
0.0
  0
SPLINE
  5
80
330
1F
100
AcDbEntity
  8
0
  6
Continuous
 62
     7
370
    25
100
AcDbSpline
210
0.0
220
0.0
230
1.0
 70
    11
 71
     3
 72
    22
 73
    18
 74
     0
 42
0.00000001
 43
0.00000001
 40
0.0
 40
0.0
 40
0.0
 40
0.0
 40
0.125
 40
0.125
 40
0.25
 40
0.25
 40
0.375
 40
0.375
 40
0.5
 40
0.5
 40
0.625
 40
0.625
 40
0.75
 40
0.75
 40
0.875
 40
0.875
 40
1.0
 40
1.0
 40
1.0
 40
1.0
 10
-1766.365061197931
 20
808.9999999999999
 30
0.0
 10
-1766.365058670767
 20
809.5574625720047
 30
0.0
 10
-1766.585455510016
 20
810.0905218319763
 30
0.0
 10
-1767.374813411944
 20
810.8793193437127
 30
0.0
 10
-1767.907114626553
 20
811.1001975715867
 30
0.0
 10
-1769.023002400904
 20
811.0998025537081
 30
0.0
 10
-1769.555588780202
 20
810.8796024343409
 30
0.0
 10
-1770.344378659863
 20
810.0902543969815
 30
0.0
 10
-1770.565262967337
 20
809.5579676189218
 30
0.0
 10
-1770.564866672934
 20
808.4420409469319
 30
0.0
 10
-1770.344654021638
 20
807.9094626399516
 30
0.0
 10
-1769.555324824612
 20
807.1206918405899
 30
0.0
 10
-1769.023025664733
 20
806.8998018851278
 30
0.0
 10
-1767.907110409124
 20
806.900198089428
 30
0.0
 10
-1767.374540284366
 20
807.1203934977743
 30
0.0
 10
-1766.585740730298
 20
807.9097532206675
 30
0.0
 10
-1766.365063725094
 20
808.4425374279949
 30
0.0
 10
-1766.365061197931
 20
808.9999999999999
 30
0.0
  0
SPLINE
  5
81
330
1F
100
AcDbEntity
  8
0
  6
Continuous
 62
     7
370
    25
100
AcDbSpline
210
0.0
220
0.0
230
1.0
 70
    11
 71
     3
 72
    22
 73
    18
 74
     0
 42
0.00000001
 43
0.00000001
 40
0.0
 40
0.0
 40
0.0
 40
0.0
 40
0.125
 40
0.125
 40
0.25
 40
0.25
 40
0.375
 40
0.375
 40
0.5
 40
0.5
 40
0.625
 40
0.625
 40
0.75
 40
0.75
 40
0.875
 40
0.875
 40
1.0
 40
1.0
 40
1.0
 40
1.0
 10
-2347.182710993613
 20
688.9999999999999
 30
0.0
 10
-2347.182708466445
 20
689.5574625722084
 30
0.0
 10
-2347.403105304981
 20
690.0905218316326
 30
0.0
 10
-2348.19246320834
 20
690.8793193440564
 30
0.0
 10
-2348.724764422236
 20
691.100197571587
 30
0.0
 10
-2349.840652196587
 20
691.0998025537084
 30
0.0
 10
-2350.373238575871
 20
690.8796024342716
 30
0.0
 10
-2351.162028455558
 20
690.0902543970515
 30
0.0
 10
-2351.382912762771
 20
689.5579676180449
 30
0.0
 10
-2351.382516468864
 20
688.442040947809
 30
0.0
 10
-2351.162303817296
 20
687.9094626400098
 30
0.0
 10
-2350.372974620318
 20
687.1206918405319
 30
0.0
 10
-2349.840675460101
 20
686.8998018851281
 30
0.0
 10
-2348.724760205121
 20
686.9001980894284
 30
0.0
 10
-2348.192190079551
 20
687.1203934984384
 30
0.0
 10
-2347.403390526478
 20
687.9097532200035
 30
0.0
 10
-2347.18271352078
 20
688.4425374277913
 30
0.0
 10
-2347.182710993613
 20
688.9999999999999
 30
0.0
  0
SPLINE
  5
82
330
1F
100
AcDbEntity
  8
0
  6
Continuous
 62
     7
370
    25
100
AcDbSpline
210
0.0
220
0.0
230
1.0
 70
    11
 71
     3
 72
    22
 73
    18
 74
     0
 42
0.00000001
 43
0.00000001
 40
0.0
 40
0.0
 40
0.0
 40
0.0
 40
0.125
 40
0.125
 40
0.25
 40
0.25
 40
0.375
 40
0.375
 40
0.5
 40
0.5
 40
0.625
 40
0.625
 40
0.75
 40
0.75
 40
0.875
 40
0.875
 40
1.0
 40
1.0
 40
1.0
 40
1.0
 10
-604.7297616065765
 20
688.9999999999998
 30
0.0
 10
-604.7297590794107
 20
689.5574625719166
 30
0.0
 10
-604.950155917999
 20
690.0905218316034
 30
0.0
 10
-605.739513821252
 20
690.8793193440856
 30
0.0
 10
-606.2718150354398
 20
691.1001975715037
 30
0.0
 10
-607.38770280931
 20
691.0998025537906
 30
0.0
 10
-607.9202891888018
 20
690.879602434511
 30
0.0
 10
-608.7090790685547
 20
690.0902543968108
 30
0.0
 10
-608.929963375816
 20
689.5579676187824
 30
0.0
 10
-608.929567081744
 20
688.4420409470704
 30
0.0
 10
-608.7093544303003
 20
687.9094626399682
 30
0.0
 10
-607.92002523324
 20
687.1206918405726
 30
0.0
 10
-607.3877260733032
 20
686.8998018851277
 30
0.0
 10
-606.271810817844
 20
686.9001980894282
 30
0.0
 10
-605.7392406930132
 20
687.1203934977734
 30
0.0
 10
-604.9504411389427
 20
687.909753220668
 30
0.0
 10
-604.7297641337427
 20
688.4425374280828
 30
0.0
 10
-604.7297616065765
 20
688.9999999999998
 30
0.0
  0
SPLINE
  5
83
330
1F
100
AcDbEntity
  8
0
  6
Continuous
 62
     7
370
    25
100
AcDbSpline
210
0.0
220
0.0
230
1.0
 70
    11
 71
     3
 72
    22
 73
    18
 74
     0
 42
0.00000001
 43
0.00000001
 40
0.0
 40
0.0
 40
0.0
 40
0.0
 40
0.125
 40
0.125
 40
0.25
 40
0.25
 40
0.375
 40
0.375
 40
0.5
 40
0.5
 40
0.625
 40
0.625
 40
0.75
 40
0.75
 40
0.875
 40
0.875
 40
1.0
 40
1.0
 40
1.0
 40
1.0
 10
-1766.365061197931
 20
569.0
 30
0.0
 10
-1766.365058670757
 20
569.5574625719796
 30
0.0
 10
-1766.585455509381
 20
570.0905218316726
 30
0.0
 10
-1767.374813412579
 20
570.8793193440166
 30
0.0
 10
-1767.907114626355
 20
571.100197571587
 30
0.0
 10
-1769.023002401103
 20
571.0998025537082
 30
0.0
 10
-1769.555588779999
 20
570.8796024348345
 30
0.0
 10
-1770.344378660067
 20
570.0902543964884
 30
0.0
 10
-1770.565262967088
 20
569.557967618243
 30
0.0
 10
-1770.564866673182
 20
568.4420409476105
 30
0.0
 10
-1770.344654021866
 20
567.9094626401389
 30
0.0
 10
-1769.555324824383
 20
567.1206918404027
 30
0.0
 10
-1769.023025664236
 20
566.8998018851694
 30
0.0
 10
-1767.907110409621
 20
566.9001980893869
 30
0.0
 10
-1767.374540284211
 20
567.1203934980132
 30
0.0
 10
-1766.585740730454
 20
567.9097532204282
 30
0.0
 10
-1766.365063725105
 20
568.4425374280203
 30
0.0
 10
-1766.365061197931
 20
569.0
 30
0.0
  0
SPLINE
  5
84
330
1F
100
AcDbEntity
  8
0
  6
Continuous
 62
     7
370
    25
100
AcDbSpline
210
0.0
220
0.0
230
1.0
 70
    11
 71
     3
 72
    22
 73
    18
 74
     0
 42
0.00000001
 43
0.00000001
 40
0.0
 40
0.0
 40
0.0
 40
0.0
 40
0.125
 40
0.125
 40
0.25
 40
0.25
 40
0.375
 40
0.375
 40
0.5
 40
0.5
 40
0.625
 40
0.625
 40
0.75
 40
0.75
 40
0.875
 40
0.875
 40
1.0
 40
1.0
 40
1.0
 40
1.0
 10
-2347.182710993613
 20
448.9999999999999
 30
0.0
 10
-2347.182708466455
 20
449.557462571078
 30
0.0
 10
-2347.403105305546
 20
450.0905218318656
 30
0.0
 10
-2348.192463207779
 20
450.8793193438239
 30
0.0
 10
-2348.724764422269
 20
451.100197571566
 30
0.0
 10
-2349.840652196554
 20
451.0998025537289
 30
0.0
 10
-2350.373238575871
 20
450.8796024342712
 30
0.0
 10
-2351.162028455558
 20
450.0902543970512
 30
0.0
 10
-2351.382912762771
 20
449.5579676178847
 30
0.0
 10
-2351.382516468864
 20
448.4420409479681
 30
0.0
 10
-2351.162303817637
 20
447.9094626400808
 30
0.0
 10
-2350.37297461998
 20
447.1206918404599
 30
0.0
 10
-2349.840675460317
 20
446.8998018851691
 30
0.0
 10
-2348.724760204906
 20
446.9001980893867
 30
0.0
 10
-2348.1921900794
 20
447.1203934986319
 30
0.0
 10
-2347.403390526631
 20
447.9097532198098
 30
0.0
 10
-2347.18271352077
 20
448.4425374289219
 30
0.0
 10
-2347.182710993613
 20
448.9999999999999
 30
0.0
  0
SPLINE
  5
85
330
1F
100
AcDbEntity
  8
0
  6
Continuous
 62
     7
370
    25
100
AcDbSpline
210
0.0
220
0.0
230
1.0
 70
    11
 71
     3
 72
    22
 73
    18
 74
     0
 42
0.00000001
 43
0.00000001
 40
0.0
 40
0.0
 40
0.0
 40
0.0
 40
0.125
 40
0.125
 40
0.25
 40
0.25
 40
0.375
 40
0.375
 40
0.5
 40
0.5
 40
0.625
 40
0.625
 40
0.75
 40
0.75
 40
0.875
 40
0.875
 40
1.0
 40
1.0
 40
1.0
 40
1.0
 10
-604.7297616065769
 20
448.9999999999999
 30
0.0
 10
-604.7297590794101
 20
449.5574625717362
 30
0.0
 10
-604.9501559182395
 20
450.090521831761
 30
0.0
 10
-605.7395138210118
 20
450.8793193439282
 30
0.0
 10
-606.2718150351008
 20
451.1001975715454
 30
0.0
 10
-607.3877028096496
 20
451.0998025537494
 30
0.0
 10
-607.920289188788
 20
450.8796024345662
 30
0.0
 10
-608.7090790685685
 20
450.0902543967563
 30
0.0
 10
-608.9299633757332
 20
449.557967618383
 30
0.0
 10
-608.9295670818267
 20
448.4420409474698
 30
0.0
 10
-608.7093544305178
 20
447.909462640082
 30
0.0
 10
-607.9200252330235
 20
447.1206918404591
 30
0.0
 10
-607.3877260734035
 20
446.8998018850863
 30
0.0
 10
-606.2718108177443
 20
446.9001980894694
 30
0.0
 10
-605.7392406930129
 20
447.1203934977943
 30
0.0
 10
-604.9504411389426
 20
447.9097532206473
 30
0.0
 10
-604.7297641337437
 20
448.4425374282636
 30
0.0
 10
-604.7297616065769
 20
448.9999999999999
 30
0.0
  0
SPLINE
  5
86
330
1F
100
AcDbEntity
  8
0
  6
Continuous
 62
     7
370
    25
100
AcDbSpline
210
0.0
220
0.0
230
1.0
 70
    11
 71
     3
 72
    22
 73
    18
 74
     0
 42
0.00000001
 43
0.00000001
 40
0.0
 40
0.0
 40
0.0
 40
0.0
 40
0.125
 40
0.125
 40
0.25
 40
0.25
 40
0.375
 40
0.375
 40
0.5
 40
0.5
 40
0.625
 40
0.625
 40
0.75
 40
0.75
 40
0.875
 40
0.875
 40
1.0
 40
1.0
 40
1.0
 40
1.0
 10
-1766.365061197931
 20
328.9999999999999
 30
0.0
 10
-1766.365058670765
 20
329.5574625719162
 30
0.0
 10
-1766.585455509535
 20
330.0905218316815
 30
0.0
 10
-1767.374813412425
 20
330.8793193440073
 30
0.0
 10
-1767.907114626207
 20
331.1001975715662
 30
0.0
 10
-1769.023002401252
 20
331.0998025537287
 30
0.0
 10
-1769.555588780098
 20
330.8796024345692
 30
0.0
 10
-1770.344378659967
 20
330.0902543967535
 30
0.0
 10
-1770.565262967171
 20
329.5579676184824
 30
0.0
 10
-1770.564866673099
 20
328.4420409473709
 30
0.0
 10
-1770.344654021703
 20
327.9094626399955
 30
0.0
 10
-1769.555324824547
 20
327.1206918405456
 30
0.0
 10
-1769.0230256646
 20
326.8998018851484
 30
0.0
 10
-1767.907110409257
 20
326.9001980894075
 30
0.0
 10
-1767.374540284301
 20
327.1203934977581
 30
0.0
 10
-1766.585740730364
 20
327.9097532206839
 30
0.0
 10
-1766.365063725098
 20
328.4425374280838
 30
0.0
 10
-1766.365061197931
 20
328.9999999999999
 30
0.0
  0
SPLINE
  5
87
330
1F
100
AcDbEntity
  8
0
  6
Continuous
 62
     7
370
    25
100
AcDbSpline
210
0.0
220
0.0
230
1.0
 70
    11
 71
     3
 72
    22
 73
    18
 74
     0
 42
0.00000001
 43
0.00000001
 40
0.0
 40
0.0
 40
0.0
 40
0.0
 40
0.125
 40
0.125
 40
0.25
 40
0.25
 40
0.375
 40
0.375
 40
0.5
 40
0.5
 40
0.625
 40
0.625
 40
0.75
 40
0.75
 40
0.875
 40
0.875
 40
1.0
 40
1.0
 40
1.0
 40
1.0
 10
-2347.182710993614
 20
209.0
 30
0.0
 10
-2347.182708466451
 20
209.5574625720436
 30
0.0
 10
-2347.40310530537
 20
210.0905218318345
 30
0.0
 10
-2348.192463207955
 20
210.8793193438551
 30
0.0
 10
-2348.72476442202
 20
211.1001975715662
 30
0.0
 10
-2349.840652196802
 20
211.0998025537291
 30
0.0
 10
-2350.373238576023
 20
210.8796024342853
 30
0.0
 10
-2351.162028455406
 20
210.0902543970379
 30
0.0
 10
-2351.382912762771
 20
209.5579676185042
 30
0.0
 10
-2351.382516468864
 20
208.4420409473496
 30
0.0
 10
-2351.162303817144
 20
207.9094626398786
 30
0.0
 10
-2350.37297462047
 20
207.1206918406634
 30
0.0
 10
-2349.840675460414
 20
206.8998018851278
 30
0.0
 10
-2348.724760204807
 20
206.9001980894285
 30
0.0
 10
-2348.192190079878
 20
207.1203934981114
 30
0.0
 10
-2347.403390526152
 20
207.9097532203309
 30
0.0
 10
-2347.182713520777
 20
208.4425374279565
 30
0.0
 10
-2347.182710993614
 20
209.0
 30
0.0
  0
SPLINE
  5
88
330
1F
100
AcDbEntity
  8
0
  6
Continuous
 62
     7
370
    25
100
AcDbSpline
210
0.0
220
0.0
230
1.0
 70
    11
 71
     3
 72
    22
 73
    18
 74
     0
 42
0.00000001
 43
0.00000001
 40
0.0
 40
0.0
 40
0.0
 40
0.0
 40
0.125
 40
0.125
 40
0.25
 40
0.25
 40
0.375
 40
0.375
 40
0.5
 40
0.5
 40
0.625
 40
0.625
 40
0.75
 40
0.75
 40
0.875
 40
0.875
 40
1.0
 40
1.0
 40
1.0
 40
1.0
 10
-604.7297616065765
 20
209.0000000000002
 30
0.0
 10
-604.7297590794127
 20
209.557462571822
 30
0.0
 10
-604.950155918105
 20
210.0905218316679
 30
0.0
 10
-605.7395138211466
 20
210.8793193440216
 30
0.0
 10
-606.271815035059
 20
211.1001975715868
 30
0.0
 10
-607.3877028096915
 20
211.099802553708
 30
0.0
 10
-607.9202891887181
 20
210.8796024346154
 30
0.0
 10
-608.7090790686385
 20
210.0902543967067
 30
0.0
 10
-608.9299633758161
 20
209.5579676186816
 30
0.0
 10
-608.9295670817442
 20
208.442040947171
 30
0.0
 10
-608.7093544306581
 20
207.9094626401606
 30
0.0
 10
-607.9200252328823
 20
207.1206918403799
 30
0.0
 10
-607.3877260732535
 20
206.8998018851483
 30
0.0
 10
-606.2718108178935
 20
206.9001980894074
 30
0.0
 10
-605.7392406931267
 20
207.1203934976181
 30
0.0
 10
-604.9504411388281
 20
207.9097532208237
 30
0.0
 10
-604.7297641337406
 20
208.4425374281784
 30
0.0
 10
-604.7297616065765
 20
209.0000000000002
 30
0.0
  0
SPLINE
  5
89
330
1F
100
AcDbEntity
  8
0
  6
Continuous
 62
     7
370
    25
100
AcDbSpline
210
0.0
220
0.0
230
1.0
 70
    11
 71
     3
 72
    22
 73
    18
 74
     0
 42
0.00000001
 43
0.00000001
 40
0.0
 40
0.0
 40
0.0
 40
0.0
 40
0.125
 40
0.125
 40
0.25
 40
0.25
 40
0.375
 40
0.375
 40
0.5
 40
0.5
 40
0.625
 40
0.625
 40
0.75
 40
0.75
 40
0.875
 40
0.875
 40
1.0
 40
1.0
 40
1.0
 40
1.0
 10
-1766.365061197931
 20
89.00000000000009
 30
0.0
 10
-1766.365058670757
 20
89.55746257191838
 30
0.0
 10
-1766.585455509219
 20
90.09052183155086
 30
0.0
 10
-1767.374813412742
 20
90.8793193441384
 30
0.0
 10
-1767.907114626463
 20
91.10019757156613
 30
0.0
 10
-1769.023002400996
 20
91.0998025537289
 30
0.0
 10
-1769.555588780309
 20
90.87960243446153
 30
0.0
 10
-1770.344378659756
 20
90.09025439686074
 30
0.0
 10
-1770.565262967046
 20
89.55796761820683
 30
0.0
 10
-1770.564866673222
 20
88.44204094764623
 30
0.0
 10
-1770.344654022078
 20
87.90946264018412
 30
0.0
 10
-1769.555324824172
 20
87.12069184035693
 30
0.0
 10
-1769.023025664436
 20
86.89980188512786
 30
0.0
 10
-1767.907110409422
 20
86.900198089428
 30
0.0
 10
-1767.374540284295
 20
87.12039349795026
 30
0.0
 10
-1766.58574073037
 20
87.90975322049194
 30
0.0
 10
-1766.365063725105
 20
88.44253742808178
 30
0.0
 10
-1766.365061197931
 20
89.00000000000009
 30
0.0
  0
SPLINE
  5
8A
330
1F
100
AcDbEntity
  8
0
  6
Continuous
 62
     7
370
    25
100
AcDbSpline
210
0.0
220
0.0
230
1.0
 70
    11
 71
     3
 72
    22
 73
    18
 74
     0
 42
0.00000001
 43
0.00000001
 40
0.0
 40
0.0
 40
0.0
 40
0.0
 40
0.125
 40
0.125
 40
0.25
 40
0.25
 40
0.375
 40
0.375
 40
0.5
 40
0.5
 40
0.625
 40
0.625
 40
0.75
 40
0.75
 40
0.875
 40
0.875
 40
1.0
 40
1.0
 40
1.0
 40
1.0
 10
-2349.282712799904
 20
-33.09999999999991
 30
0.0
 10
-2348.7252421887
 20
-33.10000277652192
 30
0.0
 10
-2348.192178432191
 20
-32.8795918243836
 30
0.0
 10
-2347.403404729777
 20
-32.09026409498539
 30
0.0
 10
-2347.182513430095
 20
-31.55796500298413
 30
0.0
 10
-2347.182908531697
 20
-30.44204917139559
 30
0.0
 10
-2347.403104524448
 20
-29.90947842989467
 30
0.0
 10
-2348.192465064998
 20
-29.12067930512274
 30
0.0
 10
-2348.724761837786
 20
-28.89980360622413
 30
0.0
 10
-2349.840663762022
 20
-28.90019639377572
 30
0.0
 10
-2350.373247167731
 20
-29.12040817568695
 30
0.0
 10
-2351.162020869921
 20
-29.90973590494417
 30
0.0
 10
-2351.382912169384
 20
-30.44203499701304
 30
0.0
 10
-2351.382517068441
 20
-31.55795082860713
 30
0.0
 10
-2351.16232107562
 20
-32.09052156988934
 30
0.0
 10
-2350.372960534555
 20
-32.87932069509269
 30
0.0
 10
-2349.84018341111
 20
-33.09999722347789
 30
0.0
 10
-2349.282712799904
 20
-33.09999999999991
 30
0.0
  0
SPLINE
  5
8B
330
1F
100
AcDbEntity
  8
0
  6
Continuous
 62
     7
370
    25
100
AcDbSpline
210
0.0
220
0.0
230
1.0
 70
    11
 71
     3
 72
    22
 73
    18
 74
     0
 42
0.00000001
 43
0.00000001
 40
0.0
 40
0.0
 40
0.0
 40
0.0
 40
0.125
 40
0.125
 40
0.25
 40
0.25
 40
0.375
 40
0.375
 40
0.5
 40
0.5
 40
0.625
 40
0.625
 40
0.75
 40
0.75
 40
0.875
 40
0.875
 40
1.0
 40
1.0
 40
1.0
 40
1.0
 10
-606.829763412868
 20
-33.09999999999991
 30
0.0
 10
-606.2722928017456
 20
-33.10000277652192
 30
0.0
 10
-605.7392290451527
 20
-32.87959182438283
 30
0.0
 10
-604.9504553427403
 20
-32.09026409498528
 30
0.0
 10
-604.7295640433896
 20
-31.55796500278674
 30
0.0
 10
-604.7299591443305
 20
-30.44204917159232
 30
0.0
 10
-604.950155137505
 20
-29.9094784299232
 30
0.0
 10
-605.7395156778656
 20
-29.12067930509399
 30
0.0
 10
-606.2718124507753
 20
-28.89980360618272
 30
0.0
 10
-607.3877143749603
 20
-28.90019639381713
 30
0.0
 10
-607.9202977807638
 20
-29.12040817579831
 30
0.0
 10
-608.709071482814
 20
-29.90973590483325
 30
0.0
 10
-608.9299627823873
 20
-30.4420349973552
 30
0.0
 10
-608.929567681364
 20
-31.5579508282654
 30
0.0
 10
-608.7093716883174
 20
-32.09052156994863
 30
0.0
 10
-607.9200111477832
 20
-32.87932069503407
 30
0.0
 10
-607.3872340239901
 20
-33.09999722347789
 30
0.0
 10
-606.829763412868
 20
-33.09999999999991
 30
0.0
  0
SPLINE
  5
8C
330
1F
100
AcDbEntity
  8
0
  6
Continuous
 62
     7
370
    25
100
AcDbSpline
210
0.0
220
0.0
230
1.0
 70
    11
 71
     3
 72
    22
 73
    18
 74
     0
 42
0.00000001
 43
0.00000001
 40
0.0
 40
0.0
 40
0.0
 40
0.0
 40
0.125
 40
0.125
 40
0.25
 40
0.25
 40
0.375
 40
0.375
 40
0.5
 40
0.5
 40
0.625
 40
0.625
 40
0.75
 40
0.75
 40
0.875
 40
0.875
 40
1.0
 40
1.0
 40
1.0
 40
1.0
 10
-1766.365061197931
 20
1169.0
 30
0.0
 10
-1766.365058670764
 20
1169.557462572295
 30
0.0
 10
-1766.585455509312
 20
1170.090521831562
 30
0.0
 10
-1767.374813412649
 20
1170.879319344128
 30
0.0
 10
-1767.907114626013
 20
1171.100197571752
 30
0.0
 10
-1769.023002401445
 20
1171.099802553543
 30
0.0
 10
-1769.555588780116
 20
1170.879602434552
 30
0.0
 10
-1770.344378659951
 20
1170.09025439677
 30
0.0
 10
-1770.565262967171
 20
1169.557967618722
 30
0.0
 10
-1770.564866673099
 20
1168.442040947131
 30
0.0
 10
-1770.344654022073
 20
1167.909462640097
 30
0.0
 10
-1769.555324824177
 20
1167.120691840444
 30
0.0
 10
-1769.023025664734
 20
1166.899801885045
 30
0.0
 10
-1767.907110409122
 20
1166.900198089511
 30
0.0
 10
-1767.374540284337
 20
1167.120393497805
 30
0.0
 10
-1766.585740730327
 20
1167.909753220638
 30
0.0
 10
-1766.365063725097
 20
1168.442537427705
 30
0.0
 10
-1766.365061197931
 20
1169.0
 30
0.0
  0
SPLINE
  5
8D
330
1F
100
AcDbEntity
  8
0
  6
Continuous
 62
     7
370
    25
100
AcDbSpline
210
0.0
220
0.0
230
1.0
 70
    11
 71
     3
 72
    22
 73
    18
 74
     0
 42
0.00000001
 43
0.00000001
 40
0.0
 40
0.0
 40
0.0
 40
0.0
 40
0.125
 40
0.125
 40
0.25
 40
0.25
 40
0.375
 40
0.375
 40
0.5
 40
0.5
 40
0.625
 40
0.625
 40
0.75
 40
0.75
 40
0.875
 40
0.875
 40
1.0
 40
1.0
 40
1.0
 40
1.0
 10
-1185.547411402259
 20
1169.0
 30
0.0
 10
-1185.547408875088
 20
1169.557462571676
 30
0.0
 10
-1185.7678057142
 20
1170.090521832084
 30
0.0
 10
-1186.557163616416
 20
1170.879319343605
 30
0.0
 10
-1187.089464830502
 20
1171.100197571587
 30
0.0
 10
-1188.205352605613
 20
1171.099802553708
 30
0.0
 10
-1188.737938984289
 20
1170.879602434783
 30
0.0
 10
-1189.526728864433
 20
1170.090254396541
 30
0.0
 10
-1189.747613171418
 20
1169.557967618186
 30
0.0
 10
-1189.747216877508
 20
1168.442040947667
 30
0.0
 10
-1189.527004226096
 20
1167.909462640043
 30
0.0
 10
-1188.737675028809
 20
1167.120691840498
 30
0.0
 10
-1188.205375868563
 20
1166.899801885128
 30
0.0
 10
-1187.089460613951
 20
1166.900198089428
 30
0.0
 10
-1186.556890488562
 20
1167.120393498001
 30
0.0
 10
-1185.768090934758
 20
1167.909753220442
 30
0.0
 10
-1185.547413929431
 20
1168.442537428324
 30
0.0
 10
-1185.547411402259
 20
1169.0
 30
0.0
  0
SPLINE
  5
8E
330
1F
100
AcDbEntity
  8
0
  6
Continuous
 62
     7
370
    25
100
AcDbSpline
210
0.0
220
0.0
230
1.0
 70
    11
 71
     3
 72
    22
 73
    18
 74
     0
 42
0.00000001
 43
0.00000001
 40
0.0
 40
0.0
 40
0.0
 40
0.0
 40
0.125
 40
0.125
 40
0.25
 40
0.25
 40
0.375
 40
0.375
 40
0.5
 40
0.5
 40
0.625
 40
0.625
 40
0.75
 40
0.75
 40
0.875
 40
0.875
 40
1.0
 40
1.0
 40
1.0
 40
1.0
 10
-1185.54741140226
 20
928.9999999999997
 30
0.0
 10
-1185.547408875096
 20
929.5574625721458
 30
0.0
 10
-1185.767805714146
 20
930.0905218319017
 30
0.0
 10
-1186.55716361647
 20
930.8793193437873
 30
0.0
 10
-1187.089464830673
 20
931.1001975715866
 30
0.0
 10
-1188.205352605443
 20
931.099802553708
 30
0.0
 10
-1188.737938984779
 20
930.8796024341708
 30
0.0
 10
-1189.526728863943
 20
930.0902543971512
 30
0.0
 10
-1189.747613171418
 20
929.557967618527
 30
0.0
 10
-1189.747216877508
 20
928.4420409473261
 30
0.0
 10
-1189.527004226019
 20
927.9094626400479
 30
0.0
 10
-1188.737675028887
 20
927.1206918404928
 30
0.0
 10
-1188.205375868395
 20
926.8998018852106
 30
0.0
 10
-1187.089460614119
 20
926.9001980893453
 30
0.0
 10
-1186.556890488794
 20
927.1203934976331
 30
0.0
 10
-1185.768090934527
 20
927.9097532208085
 30
0.0
 10
-1185.547413929423
 20
928.4425374278534
 30
0.0
 10
-1185.54741140226
 20
928.9999999999997
 30
0.0
  0
SPLINE
  5
8F
330
1F
100
AcDbEntity
  8
0
  6
Continuous
 62
     7
370
    25
100
AcDbSpline
210
0.0
220
0.0
230
1.0
 70
    11
 71
     3
 72
    22
 73
    18
 74
     0
 42
0.00000001
 43
0.00000001
 40
0.0
 40
0.0
 40
0.0
 40
0.0
 40
0.125
 40
0.125
 40
0.25
 40
0.25
 40
0.375
 40
0.375
 40
0.5
 40
0.5
 40
0.625
 40
0.625
 40
0.75
 40
0.75
 40
0.875
 40
0.875
 40
1.0
 40
1.0
 40
1.0
 40
1.0
 10
-1185.547411402259
 20
689.0
 30
0.0
 10
-1185.547408875088
 20
689.5574625716754
 30
0.0
 10
-1185.767805713502
 20
690.0905218315561
 30
0.0
 10
-1186.557163617115
 20
690.8793193441329
 30
0.0
 10
-1187.089464830981
 20
691.1001975715457
 30
0.0
 10
-1188.205352605134
 20
691.0998025537496
 30
0.0
 10
-1188.737938984371
 20
690.8796024347918
 30
0.0
 10
-1189.526728864351
 20
690.0902543965313
 30
0.0
 10
-1189.747613171498
 20
689.5579676189357
 30
0.0
 10
-1189.747216877429
 20
688.4420409469183
 30
0.0
 10
-1189.527004226253
 20
687.9094626401533
 30
0.0
 10
-1188.737675028654
 20
687.1206918403884
 30
0.0
 10
-1188.205375869043
 20
686.8998018850864
 30
0.0
 10
-1187.089460613471
 20
686.9001980894694
 30
0.0
 10
-1186.556890488721
 20
687.1203934976188
 30
0.0
 10
-1185.7680909346
 20
687.9097532208233
 30
0.0
 10
-1185.547413929431
 20
688.4425374283247
 30
0.0
 10
-1185.547411402259
 20
689.0
 30
0.0
  0
SPLINE
  5
90
330
1F
100
AcDbEntity
  8
0
  6
Continuous
 62
     7
370
    25
100
AcDbSpline
210
0.0
220
0.0
230
1.0
 70
    11
 71
     3
 72
    22
 73
    18
 74
     0
 42
0.00000001
 43
0.00000001
 40
0.0
 40
0.0
 40
0.0
 40
0.0
 40
0.125
 40
0.125
 40
0.25
 40
0.25
 40
0.375
 40
0.375
 40
0.5
 40
0.5
 40
0.625
 40
0.625
 40
0.75
 40
0.75
 40
0.875
 40
0.875
 40
1.0
 40
1.0
 40
1.0
 40
1.0
 10
-1185.547411402259
 20
449.0000000000002
 30
0.0
 10
-1185.547408875088
 20
449.5574625721067
 30
0.0
 10
-1185.767805713892
 20
450.090521831797
 30
0.0
 10
-1186.557163616725
 20
450.8793193438925
 30
0.0
 10
-1187.089464830721
 20
451.1001975715662
 30
0.0
 10
-1188.205352605394
 20
451.0998025537288
 30
0.0
 10
-1188.737938984431
 20
450.8796024345189
 30
0.0
 10
-1189.526728864291
 20
450.0902543968032
 30
0.0
 10
-1189.747613171498
 20
449.5579676187643
 30
0.0
 10
-1189.747216877429
 20
448.4420409470887
 30
0.0
 10
-1189.527004225999
 20
447.9094626399688
 30
0.0
 10
-1188.737675028908
 20
447.1206918405721
 30
0.0
 10
-1188.205375868993
 20
446.8998018851277
 30
0.0
 10
-1187.089460613521
 20
446.9001980894281
 30
0.0
 10
-1186.556890488891
 20
447.1203934975983
 30
0.0
 10
-1185.76809093443
 20
447.9097532208436
 30
0.0
 10
-1185.54741392943
 20
448.4425374278936
 30
0.0
 10
-1185.547411402259
 20
449.0000000000002
 30
0.0
  0
SPLINE
  5
91
330
1F
100
AcDbEntity
  8
0
  6
Continuous
 62
     7
370
    25
100
AcDbSpline
210
0.0
220
0.0
230
1.0
 70
    11
 71
     3
 72
    22
 73
    18
 74
     0
 42
0.00000001
 43
0.00000001
 40
0.0
 40
0.0
 40
0.0
 40
0.0
 40
0.125
 40
0.125
 40
0.25
 40
0.25
 40
0.375
 40
0.375
 40
0.5
 40
0.5
 40
0.625
 40
0.625
 40
0.75
 40
0.75
 40
0.875
 40
0.875
 40
1.0
 40
1.0
 40
1.0
 40
1.0
 10
-1185.547411402259
 20
209.0
 30
0.0
 10
-1185.547408875088
 20
209.5574625716754
 30
0.0
 10
-1185.767805713848
 20
210.0905218317742
 30
0.0
 10
-1186.557163616768
 20
210.8793193439151
 30
0.0
 10
-1187.089464830831
 20
211.1001975715662
 30
0.0
 10
-1188.205352605285
 20
211.0998025537287
 30
0.0
 10
-1188.737938984652
 20
210.8796024344395
 30
0.0
 10
-1189.52672886407
 20
210.090254396883
 30
0.0
 10
-1189.747613171588
 20
209.5579676187447
 30
0.0
 10
-1189.747216877338
 20
208.4420409471084
 30
0.0
 10
-1189.527004225963
 20
207.9094626399925
 30
0.0
 10
-1188.737675028942
 20
207.1206918405485
 30
0.0
 10
-1188.205375868963
 20
206.8998018851277
 30
0.0
 10
-1187.08946061355
 20
206.900198089428
 30
0.0
 10
-1186.556890488458
 20
207.1203934982136
 30
0.0
 10
-1185.768090934863
 20
207.9097532202281
 30
0.0
 10
-1185.547413929431
 20
208.4425374283245
 30
0.0
 10
-1185.547411402259
 20
209.0
 30
0.0
  0
SPLINE
  5
92
330
1F
100
AcDbEntity
  8
0
  6
Continuous
 62
     7
370
    25
100
AcDbSpline
210
0.0
220
0.0
230
1.0
 70
    11
 71
     3
 72
    22
 73
    18
 74
     0
 42
0.00000001
 43
0.00000001
 40
0.0
 40
0.0
 40
0.0
 40
0.0
 40
0.125
 40
0.125
 40
0.25
 40
0.25
 40
0.375
 40
0.375
 40
0.5
 40
0.5
 40
0.625
 40
0.625
 40
0.75
 40
0.75
 40
0.875
 40
0.875
 40
1.0
 40
1.0
 40
1.0
 40
1.0
 10
-1187.64741320855
 20
-33.10000000000002
 30
0.0
 10
-1187.089942597511
 20
-33.10000277652214
 30
0.0
 10
-1186.556878840627
 20
-32.87959182422184
 30
0.0
 10
-1185.768105138631
 20
-32.09026409514693
 30
0.0
 10
-1185.547213838988
 20
-31.55796500318264
 30
0.0
 10
-1185.547608940097
 20
-30.44204917119686
 30
0.0
 10
-1185.767804933061
 20
-29.90947843005232
 30
0.0
 10
-1186.557165473675
 20
-29.12067930496465
 30
0.0
 10
-1187.089462246576
 20
-28.89980360618294
 30
0.0
 10
-1188.205364170524
 20
-28.90019639381713
 30
0.0
 10
-1188.737947576139
 20
-29.12040817531092
 30
0.0
 10
-1189.526721278805
 20
-29.90973590532064
 30
0.0
 10
-1189.747612578022
 20
-30.44203499703768
 30
0.0
 10
-1189.747217477095
 20
-31.55795082858315
 30
0.0
 10
-1189.527021483905
 20
-32.09052157008207
 30
0.0
 10
-1188.737660943561
 20
-32.87932069490063
 30
0.0
 10
-1188.204883819589
 20
-33.09999722347789
 30
0.0
 10
-1187.64741320855
 20
-33.10000000000002
 30
0.0
  0
SPLINE
  5
93
330
1F
100
AcDbEntity
  8
0
  6
Continuous
 62
     7
370
    25
100
AcDbSpline
210
0.0
220
0.0
230
1.0
 70
    11
 71
     3
 72
    22
 73
    18
 74
     0
 42
0.00000001
 43
0.00000001
 40
0.0
 40
0.0
 40
0.0
 40
0.0
 40
0.125
 40
0.125
 40
0.25
 40
0.25
 40
0.375
 40
0.375
 40
0.5
 40
0.5
 40
0.625
 40
0.625
 40
0.75
 40
0.75
 40
0.875
 40
0.875
 40
1.0
 40
1.0
 40
1.0
 40
1.0
 10
-2347.182710993613
 20
1049.0
 30
0.0
 10
-2347.182708466449
 20
1049.557462571024
 30
0.0
 10
-2347.403105305169
 20
1050.09052183182
 30
0.0
 10
-2348.192463208155
 20
1050.87931934387
 30
0.0
 10
-2348.724764421575
 20
1051.100197571753
 30
0.0
 10
-2349.84065219725
 20
1051.099802553543
 30
0.0
 10
-2350.37323857564
 20
1050.879602434834
 30
0.0
 10
-2351.162028455791
 20
1050.090254396489
 30
0.0
 10
-2351.382912762936
 20
1049.557967619519
 30
0.0
 10
-2351.382516468698
 20
1048.442040946335
 30
0.0
 10
-2351.162303817345
 20
1047.909462639893
 30
0.0
 10
-2350.37297462027
 20
1047.120691840649
 30
0.0
 10
-2349.840675460465
 20
1046.899801885128
 30
0.0
 10
-2348.724760204756
 20
1046.900198089429
 30
0.0
 10
-2348.19219008023
 20
1047.120393497676
 30
0.0
 10
-2347.403390525799
 20
1047.909753220766
 30
0.0
 10
-2347.182713520776
 20
1048.442537428977
 30
0.0
 10
-2347.182710993613
 20
1049.0
 30
0.0
  0
ENDSEC
  0
SECTION
  2
OBJECTS
  0
DICTIONARY
  5
C
330
0
100
AcDbDictionary
281
     1
  3
ACAD_GROUP
350
D
  3
ACAD_LAYOUT
350
1A
  3
ACAD_MLINESTYLE
350
17
  3
ACAD_PLOTSETTINGS
350
19
  3
ACAD_PLOTSTYLENAME
350
E
  3
ACAD_SCALELIST
350
47
  3
DWGPROPS
350
94
  0
DICTIONARY
  5
D
102
{ACAD_REACTORS
330
C
102
}
330
C
100
AcDbDictionary
281
     1
  0
DICTIONARY
  5
1A
102
{ACAD_REACTORS
330
C
102
}
330
C
100
AcDbDictionary
281
     1
  3
Layout1
350
1E
  3
Layout2
350
26
  3
Model
350
22
  0
DICTIONARY
  5
17
102
{ACAD_REACTORS
330
C
102
}
330
C
100
AcDbDictionary
281
     1
  3
Standard
350
18
  0
DICTIONARY
  5
19
102
{ACAD_REACTORS
330
C
102
}
330
C
100
AcDbDictionary
281
     1
  0
ACDBDICTIONARYWDFLT
  5
E
102
{ACAD_REACTORS
330
C
102
}
330
C
100
AcDbDictionary
281
     1
  3
Normal
350
F
100
AcDbDictionaryWithDefault
340
F
  0
DICTIONARY
  5
47
102
{ACAD_REACTORS
330
C
102
}
330
C
100
AcDbDictionary
281
     1
  3
A0
350
48
  3
A1
350
49
  3
A2
350
4A
  3
A3
350
4B
  3
A4
350
4C
  3
A5
350
4D
  3
A6
350
4E
  3
A7
350
4F
  3
A8
350
50
  3
A9
350
51
  3
B0
350
52
  3
B1
350
53
  3
B2
350
54
  3
B3
350
55
  3
B4
350
56
  3
B5
350
57
  3
B6
350
58
  0
XRECORD
  5
94
102
{ACAD_REACTORS
330
C
102
}
330
C
100
AcDbXrecord
280
     1
  1
DWGPROPS COOKIE
  2

  3

  4

  6

  7

  8
ademathieu
  9

300
=
301
=
302
=
303
=
304
=
305
=
306
=
307
=
308
=
309
=
 40
0.0
 41
2460269.539912685
 42
2460269.539949526
  1

 90
        0
  0
LAYOUT
  5
1E
102
{ACAD_REACTORS
330
1A
102
}
330
1A
100
AcDbPlotSettings
  1

  2
none_device
  4

  6

 40
0.0
 41
0.0
 42
0.0
 43
0.0
 44
0.0
 45
0.0
 46
0.0
 47
0.0
 48
0.0
 49
0.0
140
0.0
141
0.0
142
1.0
143
1.0
 70
   688
 72
     1
 73
     0
 74
     5
  7

 75
    16
147
1.0
148
0.0
149
0.0
100
AcDbLayout
  1
Layout1
 70
     1
 71
     1
 10
0.0
 20
0.0
 11
420.0
 21
297.0
 12
0.0
 22
0.0
 32
0.0
 14
1.0000000000E+20
 24
1.0000000000E+20
 34
1.0000000000E+20
 15
-1.0000000000E+20
 25
-1.0000000000E+20
 35
-1.0000000000E+20
146
0.0
 13
0.0
 23
0.0
 33
0.0
 16
1.0
 26
0.0
 36
0.0
 17
0.0
 27
1.0
 37
0.0
 76
     0
330
1B
  0
LAYOUT
  5
26
102
{ACAD_REACTORS
330
1A
102
}
330
1A
100
AcDbPlotSettings
  1

  2
none_device
  4

  6

 40
0.0
 41
0.0
 42
0.0
 43
0.0
 44
0.0
 45
0.0
 46
0.0
 47
0.0
 48
0.0
 49
0.0
140
0.0
141
0.0
142
1.0
143
1.0
 70
   688
 72
     1
 73
     0
 74
     5
  7

 75
    16
147
1.0
148
0.0
149
0.0
100
AcDbLayout
  1
Layout2
 70
     1
 71
     2
 10
0.0
 20
0.0
 11
0.0
 21
0.0
 12
0.0
 22
0.0
 32
0.0
 14
0.0
 24
0.0
 34
0.0
 15
0.0
 25
0.0
 35
0.0
146
0.0
 13
0.0
 23
0.0
 33
0.0
 16
1.0
 26
0.0
 36
0.0
 17
0.0
 27
1.0
 37
0.0
 76
     0
330
23
  0
LAYOUT
  5
22
102
{ACAD_REACTORS
330
1A
102
}
330
1A
100
AcDbPlotSettings
  1

  2
none_device
  4
ANSI_A_(11.00_x_8.50_Inches)
  6

 40
6.35
 41
19.05
 42
6.35000508
 43
19.05000254
 44
279.4
 45
215.9
 46
271.65299746
 47
22.5574748869
 48
0.0
 49
0.0
140
0.0
141
0.0
142
0.0045903522
143
1.0
 70
  1696
 72
     0
 73
     0
 74
     0
  7

 75
     0
147
0.0179189148
148
-1300.4909072572
149
0.0
100
AcDbLayout
  1
Model
 70
     1
 71
     0
 10
0.0
 20
0.0
 11
420.0
 21
297.0
 12
0.0
 22
0.0
 32
0.0
 14
-2372.3669960483
 24
-56.0
 34
0.0
 15
0.0
 25
1194.0
 35
0.0
146
0.0
 13
0.0
 23
0.0
 33
0.0
 16
1.0
 26
0.0
 36
0.0
 17
0.0
 27
1.0
 37
0.0
 76
     0
330
1F
331
29
  0
MLINESTYLE
  5
18
102
{ACAD_REACTORS
330
17
102
}
330
17
100
AcDbMlineStyle
  2
Standard
 70
     0
  3

 62
   256
 51
90.0
 52
90.0
 71
     2
 49
0.5
 62
   256
  6
BYLAYER
 49
-0.5
 62
   256
  6
BYLAYER
  0
ACDBPLACEHOLDER
  5
F
102
{ACAD_REACTORS
330
E
102
}
330
E
  0
SCALE
  5
48
102
{ACAD_REACTORS
330
47
102
}
330
47
100
AcDbScale
 70
     0
300
1:1
140
1.0
141
1.0
290
     1
  0
SCALE
  5
49
102
{ACAD_REACTORS
330
47
102
}
330
47
100
AcDbScale
 70
     0
300
1:2
140
1.0
141
2.0
290
     0
  0
SCALE
  5
4A
102
{ACAD_REACTORS
330
47
102
}
330
47
100
AcDbScale
 70
     0
300
1:4
140
1.0
141
4.0
290
     0
  0
SCALE
  5
4B
102
{ACAD_REACTORS
330
47
102
}
330
47
100
AcDbScale
 70
     0
300
1:5
140
1.0
141
5.0
290
     0
  0
SCALE
  5
4C
102
{ACAD_REACTORS
330
47
102
}
330
47
100
AcDbScale
 70
     0
300
1:8
140
1.0
141
8.0
290
     0
  0
SCALE
  5
4D
102
{ACAD_REACTORS
330
47
102
}
330
47
100
AcDbScale
 70
     0
300
1:10
140
1.0
141
10.0
290
     0
  0
SCALE
  5
4E
102
{ACAD_REACTORS
330
47
102
}
330
47
100
AcDbScale
 70
     0
300
1:16
140
1.0
141
16.0
290
     0
  0
SCALE
  5
4F
102
{ACAD_REACTORS
330
47
102
}
330
47
100
AcDbScale
 70
     0
300
1:20
140
1.0
141
20.0
290
     0
  0
SCALE
  5
50
102
{ACAD_REACTORS
330
47
102
}
330
47
100
AcDbScale
 70
     0
300
1:30
140
1.0
141
30.0
290
     0
  0
SCALE
  5
51
102
{ACAD_REACTORS
330
47
102
}
330
47
100
AcDbScale
 70
     0
300
1:40
140
1.0
141
40.0
290
     0
  0
SCALE
  5
52
102
{ACAD_REACTORS
330
47
102
}
330
47
100
AcDbScale
 70
     0
300
1:50
140
1.0
141
50.0
290
     0
  0
SCALE
  5
53
102
{ACAD_REACTORS
330
47
102
}
330
47
100
AcDbScale
 70
     0
300
1:100
140
1.0
141
100.0
290
     0
  0
SCALE
  5
54
102
{ACAD_REACTORS
330
47
102
}
330
47
100
AcDbScale
 70
     0
300
2:1
140
2.0
141
1.0
290
     0
  0
SCALE
  5
55
102
{ACAD_REACTORS
330
47
102
}
330
47
100
AcDbScale
 70
     0
300
4:1
140
4.0
141
1.0
290
     0
  0
SCALE
  5
56
102
{ACAD_REACTORS
330
47
102
}
330
47
100
AcDbScale
 70
     0
300
8:1
140
8.0
141
1.0
290
     0
  0
SCALE
  5
57
102
{ACAD_REACTORS
330
47
102
}
330
47
100
AcDbScale
 70
     0
300
10:1
140
10.0
141
1.0
290
     0
  0
SCALE
  5
58
102
{ACAD_REACTORS
330
47
102
}
330
47
100
AcDbScale
 70
     0
300
100:1
140
100.0
141
1.0
290
     0
  0
ENDSEC
  0
EOF
