  0
SECTION
  2
HEADER
  9
$ACADVER
  1
AC1015
  9
$ACADMAINTVER
 70
     6
  9
$DWGCODEPAGE
  3
ANSI_1252
  9
$INSBASE
 10
0.0
 20
0.0
 30
0.0
  9
$EXTMIN
 10
-2372.3669960483
 20
-56.0
 30
0.0
  9
$EXTMAX
 10
0.0
 20
1194.0
 30
0.0
  9
$LIMMIN
 10
0.0
 20
0.0
  9
$LIMMAX
 10
420.0
 20
297.0
  9
$ORTHOMODE
 70
     0
  9
$REGENMODE
 70
     1
  9
$FILLMODE
 70
     1
  9
$QTEXTMODE
 70
     0
  9
$MIRRTEXT
 70
     1
  9
$LTSCALE
 40
1.0
  9
$ATTMODE
 70
     1
  9
$TEXTSIZE
 40
3.5
  9
$TRACEWID
 40
1.0
  9
$TEXTSTYLE
  7
Standard
  9
$CLAYER
  8
0
  9
$CELTYPE
  6
ByLayer
  9
$CECOLOR
 62
   256
  9
$CELTSCALE
 40
1.0
  9
$DISPSILH
 70
     0
  9
$DIMSCALE
 40
1.0
  9
$DIMASZ
 40
3.556
  9
$DIMEXO
 40
0.0
  9
$DIMDLI
 40
3.75
  9
$DIMRND
 40
0.0
  9
$DIMDLE
 40
0.0
  9
$DIMEXE
 40
1.0
  9
$DIMTP
 40
0.0
  9
$DIMTM
 40
0.0
  9
$DIMTXT
 40
3.5
  9
$DIMCEN
 40
2.5
  9
$DIMTSZ
 40
0.0
  9
$DIMTOL
 70
     0
  9
$DIMLIM
 70
     0
  9
$DIMTIH
 70
     1
  9
$DIMTOH
 70
     1
  9
$DIMSE1
 70
     0
  9
$DIMSE2
 70
     0
  9
$DIMTAD
 70
     1
  9
$DIMZIN
 70
     0
  9
$DIMBLK
  1

  9
$DIMASO
 70
     1
  9
$DIMSHO
 70
     1
  9
$DIMPOST
  1

  9
$DIMAPOST
  1

  9
$DIMALT
 70
     0
  9
$DIMALTD
 70
     3
  9
$DIMALTF
 40
0.0393700787
  9
$DIMLFAC
 40
1.0
  9
$DIMTOFL
 70
     1
  9
$DIMTVP
 40
0.0
  9
$DIMTIX
 70
     0
  9
$DIMSOXD
 70
     0
  9
$DIMSAH
 70
     0
  9
$DIMBLK1
  1

  9
$DIMBLK2
  1

  9
$DIMSTYLE
  2
ISO-25
  9
$DIMCLRD
 70
     0
  9
$DIMCLRE
 70
     0
  9
$DIMCLRT
 70
     0
  9
$DIMTFAC
 40
1.0
  9
$DIMGAP
 40
1.524
  9
$DIMJUST
 70
     0
  9
$DIMSD1
 70
     0
  9
$DIMSD2
 70
     0
  9
$DIMTOLJ
 70
     0
  9
$DIMTZIN
 70
     0
  9
$DIMALTZ
 70
     0
  9
$DIMALTTZ
 70
     0
  9
$DIMUPT
 70
     0
  9
$DIMDEC
 70
     2
  9
$DIMTDEC
 70
     2
  9
$DIMALTU
 70
     2
  9
$DIMALTTD
 70
     3
  9
$DIMTXSTY
  7
Standard
  9
$DIMAUNIT
 70
     0
  9
$DIMADEC
 70
     0
  9
$DIMALTRND
 40
0.0
  9
$DIMAZIN
 70
     0
  9
$DIMDSEP
 70
    44
  9
$DIMATFIT
 70
     3
  9
$DIMFRAC
 70
     0
  9
$DIMLDRBLK
  1

  9
$DIMLUNIT
 70
     2
  9
$DIMLWD
 70
    -2
  9
$DIMLWE
 70
    -2
  9
$DIMTMOVE
 70
     0
  9
$LUNITS
 70
     2
  9
$LUPREC
 70
     0
  9
$SKETCHINC
 40
1.0
  9
$FILLETRAD
 40
0.0
  9
$AUNITS
 70
     0
  9
$AUPREC
 70
     0
  9
$MENU
  1
.
  9
$ELEVATION
 40
0.0
  9
$PELEVATION
 40
0.0
  9
$THICKNESS
 40
0.0
  9
$LIMCHECK
 70
     0
  9
$CHAMFERA
 40
0.0
  9
$CHAMFERB
 40
0.0
  9
$CHAMFERC
 40
0.0
  9
$CHAMFERD
 40
0.0
  9
$SKPOLY
 70
     0
  9
$TDCREATE
 40
2460269.58610919
  9
$TDUCREATE
 40
2460269.544442523
  9
$TDUPDATE
 40
2460269.586145845
  9
$TDUUPDATE
 40
2460269.544479178
  9
$TDINDWG
 40
0.0000000116
  9
$TDUSRTIMER
 40
0.0000000116
  9
$USRTIMER
 70
     1
  9
$ANGBASE
 50
0.0
  9
$ANGDIR
 70
     0
  9
$PDMODE
 70
     0
  9
$PDSIZE
 40
-1.0
  9
$PLINEWID
 40
0.0
  9
$SPLFRAME
 70
     0
  9
$SPLINETYPE
 70
     6
  9
$SPLINESEGS
 70
     8
  9
$HANDSEED
  5
95
  9
$SURFTAB1
 70
     6
  9
$SURFTAB2
 70
     6
  9
$SURFTYPE
 70
     6
  9
$SURFU
 70
     6
  9
$SURFV
 70
     6
  9
$UCSBASE
  2

  9
$UCSNAME
  2

  9
$UCSORG
 10
0.0
 20
0.0
 30
0.0
  9
$UCSXDIR
 10
1.0
 20
0.0
 30
0.0
  9
$UCSYDIR
 10
0.0
 20
1.0
 30
0.0
  9
$UCSORTHOREF
  2

  9
$UCSORTHOVIEW
 70
     0
  9
$UCSORGTOP
 10
0.0
 20
0.0
 30
0.0
  9
$UCSORGBOTTOM
 10
0.0
 20
0.0
 30
0.0
  9
$UCSORGLEFT
 10
0.0
 20
0.0
 30
0.0
  9
$UCSORGRIGHT
 10
0.0
 20
0.0
 30
0.0
  9
$UCSORGFRONT
 10
0.0
 20
0.0
 30
0.0
  9
$UCSORGBACK
 10
0.0
 20
0.0
 30
0.0
  9
$PUCSBASE
  2

  9
$PUCSNAME
  2

  9
$PUCSORG
 10
0.0
 20
0.0
 30
0.0
  9
$PUCSXDIR
 10
1.0
 20
0.0
 30
0.0
  9
$PUCSYDIR
 10
0.0
 20
1.0
 30
0.0
  9
$PUCSORTHOREF
  2

  9
$PUCSORTHOVIEW
 70
     0
  9
$PUCSORGTOP
 10
0.0
 20
0.0
 30
0.0
  9
$PUCSORGBOTTOM
 10
0.0
 20
0.0
 30
0.0
  9
$PUCSORGLEFT
 10
0.0
 20
0.0
 30
0.0
  9
$PUCSORGRIGHT
 10
0.0
 20
0.0
 30
0.0
  9
$PUCSORGFRONT
 10
0.0
 20
0.0
 30
0.0
  9
$PUCSORGBACK
 10
0.0
 20
0.0
 30
0.0
  9
$USERI1
 70
     0
  9
$USERI2
 70
     0
  9
$USERI3
 70
     0
  9
$USERI4
 70
     0
  9
$USERI5
 70
     0
  9
$USERR1
 40
0.0
  9
$USERR2
 40
0.0
  9
$USERR3
 40
0.0
  9
$USERR4
 40
0.0
  9
$USERR5
 40
0.0
  9
$WORLDVIEW
 70
     1
  9
$SHADEDGE
 70
     3
  9
$SHADEDIF
 70
    70
  9
$TILEMODE
 70
     1
  9
$MAXACTVP
 70
    64
  9
$PINSBASE
 10
0.0
 20
0.0
 30
0.0
  9
$PLIMCHECK
 70
     0
  9
$PEXTMIN
 10
1.0000000000E+20
 20
1.0000000000E+20
 30
1.0000000000E+20
  9
$PEXTMAX
 10
-1.0000000000E+20
 20
-1.0000000000E+20
 30
-1.0000000000E+20
  9
$PLIMMIN
 10
0.0
 20
0.0
  9
$PLIMMAX
 10
420.0
 20
297.0
  9
$UNITMODE
 70
     0
  9
$VISRETAIN
 70
     1
  9
$PLINEGEN
 70
     0
  9
$PSLTSCALE
 70
     1
  9
$TREEDEPTH
 70
  3020
  9
$CMLSTYLE
  2
Standard
  9
$CMLJUST
 70
     0
  9
$CMLSCALE
 40
20.0
  9
$PROXYGRAPHICS
 70
     1
  9
$MEASUREMENT
 70
     1
  9
$CELWEIGHT
370
    -1
  9
$ENDCAPS
280
     0
  9
$JOINSTYLE
280
     0
  9
$LWDISPLAY
290
     1
  9
$INSUNITS
 70
     4
  9
$HYPERLINKBASE
  1

  9
$STYLESHEET
  1

  9
$XEDIT
290
     1
  9
$CEPSNTYPE
380
     0
  9
$PSTYLEMODE
290
     1
  9
$FINGERPRINTGUID
  2
{77a8ecc4-690d-4ca0-a683-fbd489070e53}
  9
$VERSIONGUID
  2
{FAEB1C32-E019-11D5-929B-00C0DF256EC4}
  9
$EXTNAMES
290
     1
  9
$PSVPSCALE
 40
0.0
  9
$OLESTARTUP
290
     0
  0
ENDSEC
  0
SECTION
  2
CLASSES
  0
CLASS
  1
ACDBDICTIONARYWDFLT
  2
AcDbDictionaryWithDefault
  3
ObjectDBX Classes
 90
        0
280
     0
281
     0
  0
CLASS
  1
VISUALSTYLE
  2
AcDbVisualStyle
  3
ObjectDBX Classes
 90
     4095
280
     0
281
     0
  0
CLASS
  1
MATERIAL
  2
AcDbMaterial
  3
ObjectDBX Classes
 90
     1153
280
     0
281
     0
  0
CLASS
  1
SCALE
  2
AcDbScale
  3
ObjectDBX Classes
 90
     1153
280
     0
281
     0
  0
CLASS
  1
TABLESTYLE
  2
AcDbTableStyle
  3
ObjectDBX Classes
 90
     4095
280
     0
281
     0
  0
CLASS
  1
MLEADERSTYLE
  2
AcDbMLeaderStyle
  3
ACDB_MLEADERSTYLE_CLASS
 90
     4095
280
     0
281
     0
  0
CLASS
  1
SUN
  2
AcDbSun
  3
SCENEOE
 90
     1153
280
     0
281
     0
  0
CLASS
  1
ACDBPLACEHOLDER
  2
AcDbPlaceHolder
  3
ObjectDBX Classes
 90
        0
280
     0
281
     0
  0
CLASS
  1
LAYOUT
  2
AcDbLayout
  3
ObjectDBX Classes
 90
        0
280
     0
281
     0
  0
ENDSEC
  0
SECTION
  2
TABLES
  0
TABLE
  2
VPORT
  5
8
330
0
100
AcDbSymbolTable
 70
     1
  0
VPORT
  5
29
330
8
100
AcDbSymbolTableRecord
100
AcDbViewportTableRecord
  2
*Active
 70
     0
 10
0.0
 20
0.0
 11
1.0
 21
1.0
 12
-1186.1834980242
 22
569.0
 13
0.0
 23
0.0
 14
10.0
 24
10.0
 15
10.0
 25
10.0
 16
0.0
 26
0.0
 36
1.0
 17
0.0
 27
0.0
 37
0.0
 40
1275.0
 41
1.8978935968
 42
50.0
 43
0.0
 44
0.0
 50
0.0
 51
0.0
 71
     0
 72
   100
 73
     1
 74
     3
 75
     0
 76
     0
 77
     0
 78
     0
281
     0
 65
     1
110
0.0
120
0.0
130
0.0
111
1.0
121
0.0
131
0.0
112
0.0
122
1.0
132
0.0
 79
     0
146
0.0
  0
ENDTAB
  0
TABLE
  2
LTYPE
  5
5
330
0
100
AcDbSymbolTable
 70
     6
  0
LTYPE
  5
14
330
5
100
AcDbSymbolTableRecord
100
AcDbLinetypeTableRecord
  2
ByBlock
 70
     0
  3

 72
    65
 73
     0
 40
0.0
  0
LTYPE
  5
15
330
5
100
AcDbSymbolTableRecord
100
AcDbLinetypeTableRecord
  2
ByLayer
 70
     0
  3

 72
    65
 73
     0
 40
0.0
  0
LTYPE
  5
16
330
5
100
AcDbSymbolTableRecord
100
AcDbLinetypeTableRecord
  2
Continuous
 70
     0
  3
Solid line
 72
    65
 73
     0
 40
0.0
  0
LTYPE
  5
5E
330
5
100
AcDbSymbolTableRecord
100
AcDbLinetypeTableRecord
  2
HIDDEN
 70
     0
  3
Hidden __ __ __ __ __ __ __ __ __ __ __ __ __ __
 72
    65
 73
     2
 40
1.905
 49
1.27
 74
     0
 49
-0.635
 74
     0
  0
LTYPE
  5
5F
330
5
100
AcDbSymbolTableRecord
100
AcDbLinetypeTableRecord
  2
PHANTOM
 70
     0
  3
Phantom ______  __  __  ______  __  __  ______
 72
    65
 73
     6
 40
12.7
 49
6.35
 74
     0
 49
-1.27
 74
     0
 49
1.27
 74
     0
 49
-1.27
 74
     0
 49
1.27
 74
     0
 49
-1.27
 74
     0
  0
LTYPE
  5
60
330
5
100
AcDbSymbolTableRecord
100
AcDbLinetypeTableRecord
  2
CENTER
 70
     0
  3
Center ____ _ ____ _ ____ _ ____ _ ____ _ ____
 72
    65
 73
     4
 40
10.16
 49
6.35
 74
     0
 49
-1.27
 74
     0
 49
1.27
 74
     0
 49
-1.27
 74
     0
  0
LTYPE
  5
61
330
5
100
AcDbSymbolTableRecord
100
AcDbLinetypeTableRecord
  2
CENTERX2
 70
     0
  3
Center (2x) ________  __  ________  __  _____
 72
    65
 73
     4
 40
20.32
 49
12.7
 74
     0
 49
-2.54
 74
     0
 49
2.54
 74
     0
 49
-2.54
 74
     0
  0
LTYPE
  5
62
330
5
100
AcDbSymbolTableRecord
100
AcDbLinetypeTableRecord
  2
DOT2
 70
     0
  3
Dot (.5x) ........................................
 72
    65
 73
     2
 40
0.635
 49
0.0
 74
     0
 49
-0.635
 74
     0
  0
ENDTAB
  0
TABLE
  2
LAYER
  5
2
330
0
100
AcDbSymbolTable
 70
     1
  0
LAYER
  5
10
330
2
100
AcDbSymbolTableRecord
100
AcDbLayerTableRecord
  2
0
 70
     0
 62
     7
  6
Continuous
370
    -3
390
F
  0
ENDTAB
  0
TABLE
  2
STYLE
  5
3
330
0
100
AcDbSymbolTable
 70
     1
  0
STYLE
  5
11
330
3
100
AcDbSymbolTableRecord
100
AcDbTextStyleTableRecord
  2
Standard
 70
     0
 40
0.0
 41
1.0
 50
0.0
 71
     0
 42
3.5
  3
txt
  4

  0
ENDTAB
  0
TABLE
  2
VIEW
  5
6
330
0
100
AcDbSymbolTable
 70
     0
  0
ENDTAB
  0
TABLE
  2
UCS
  5
7
330
0
100
AcDbSymbolTable
 70
     0
  0
ENDTAB
  0
TABLE
  2
APPID
  5
9
330
0
100
AcDbSymbolTable
 70
     1
  0
APPID
  5
12
330
9
100
AcDbSymbolTableRecord
100
AcDbRegAppTableRecord
  2
ACAD
 70
     0
  0
ENDTAB
  0
TABLE
  2
DIMSTYLE
  5
A
330
0
100
AcDbSymbolTable
 70
     1
100
AcDbDimStyleTable
  0
DIMSTYLE
105
27
330
A
100
AcDbSymbolTableRecord
100
AcDbDimStyleTableRecord
  2
ISO-25
 70
     0
 41
2.5
 42
0.625
 43
3.75
 44
1.25
 73
     0
 74
     0
 77
     1
 78
     8
140
2.5
141
2.5
143
0.0393700787
147
0.625
171
     3
172
     1
178
     0
271
     2
272
     2
274
     3
278
    44
283
     0
284
     8
340
11
  0
ENDTAB
  0
TABLE
  2
BLOCK_RECORD
  5
1
330
0
100
AcDbSymbolTable
 70
     1
  0
BLOCK_RECORD
  5
1F
330
1
100
AcDbSymbolTableRecord
100
AcDbBlockTableRecord
  2
*Model_Space
340
22
  0
BLOCK_RECORD
  5
1B
330
1
100
AcDbSymbolTableRecord
100
AcDbBlockTableRecord
  2
*Paper_Space
340
1E
  0
BLOCK_RECORD
  5
23
330
1
100
AcDbSymbolTableRecord
100
AcDbBlockTableRecord
  2
*Paper_Space0
340
26
  0
ENDTAB
  0
ENDSEC
  0
SECTION
  2
BLOCKS
  0
BLOCK
  5
20
330
1F
100
AcDbEntity
  8
0
100
AcDbBlockBegin
  2
*Model_Space
 70
     0
 10
0.0
 20
0.0
 30
0.0
  3
*Model_Space
  1

  0
ENDBLK
  5
21
330
1F
100
AcDbEntity
  8
0
100
AcDbBlockEnd
  0
BLOCK
  5
1C
330
1B
100
AcDbEntity
 67
     1
  8
0
100
AcDbBlockBegin
  2
*Paper_Space
 70
     0
 10
0.0
 20
0.0
 30
0.0
  3
*Paper_Space
  1

  0
ENDBLK
  5
1D
330
1B
100
AcDbEntity
 67
     1
  8
0
100
AcDbBlockEnd
  0
BLOCK
  5
24
330
23
100
AcDbEntity
  8
0
100
AcDbBlockBegin
  2
*Paper_Space0
 70
     0
 10
0.0
 20
0.0
 30
0.0
  3
*Paper_Space0
  1

  0
ENDBLK
  5
25
330
23
100
AcDbEntity
  8
0
100
AcDbBlockEnd
  0
ENDSEC
  0
SECTION
  2
ENTITIES
  0
SPLINE
  5
63
330
1F
100
AcDbEntity
  8
0
  6
Continuous
 62
     7
370
    25
100
AcDbSpline
210
0.0
220
0.0
230
1.0
 70
    11
 71
     3
 72
    38
 73
    34
 74
     0
 42
0.00000001
 43
0.00000001
 40
0.0
 40
0.0
 40
0.0
 40
0.0
 40
0.0625
 40
0.0625
 40
0.125
 40
0.125
 40
0.1875
 40
0.1875
 40
0.25
 40
0.25
 40
0.3125
 40
0.3125
 40
0.375
 40
0.375
 40
0.4375
 40
0.4375
 40
0.5
 40
0.5
 40
0.5625
 40
0.5625
 40
0.625
 40
0.625
 40
0.6875
 40
0.6875
 40
0.75
 40
0.75
 40
0.8125
 40
0.8125
 40
0.875
 40
0.875
 40
0.9375
 40
0.9375
 40
1.0
 40
1.0
 40
1.0
 40
1.0
 10
-2218.844902088261
 20
1011.0
 30
0.0
 10
-2218.844901805933
 20
1013.320908442828
 30
0.0
 10
-2219.288792591408
 20
1015.552700003993
 30
0.0
 10
-2221.065743536501
 20
1019.841397483787
 30
0.0
 10
-2222.32972081607
 20
1021.733167776742
 30
0.0
 10
-2225.61269548098
 20
1025.015567256793
 30
0.0
 10
-2227.504259534971
 20
1026.279657247807
 30
0.0
 10
-2231.79341532037
 20
1028.056050600039
 30
0.0
 10
-2234.024783845326
 20
1028.500099337538
 30
0.0
 10
-2238.66710681496
 20
1028.499900678346
 30
0.0
 10
-2240.898607651044
 20
1028.056212366045
 30
0.0
 10
-2245.187501122779
 20
1026.279498201915
 30
0.0
 10
-2247.079299905616
 20
1025.015747693647
 30
0.0
 10
-2250.362068595549
 20
1021.732992813174
 30
0.0
 10
-2251.626281122547
 20
1019.841602621291
 30
0.0
 10
-2253.402969948816
 20
1015.552502196042
 30
0.0
 10
-2253.847092490886
 20
1013.321152087025
 30
0.0
 10
-2253.846893575755
 20
1008.678850941542
 30
0.0
 10
-2253.403101960224
 20
1006.44729822682
 30
0.0
 10
-2251.626151264342
 20
1002.158602155027
 30
0.0
 10
-2250.362173643175
 20
1000.266831718069
 30
0.0
 10
-2247.079199480439
 20
996.98443237096
 30
0.0
 10
-2245.187637518611
 20
995.7203433364502
 30
0.0
 10
-2240.898480485675
 20
993.943949903236
 30
0.0
 10
-2238.66711073052
 20
993.4999009893548
 30
0.0
 10
-2234.024788582423
 20
993.5000990230008
 30
0.0
 10
-2231.79328658263
 20
993.9437878300246
 30
0.0
 10
-2227.504393443738
 20
995.72050219248
 30
0.0
 10
-2225.612594737969
 20
996.9842527671111
 30
0.0
 10
-2222.329825824332
 20
1000.267007913902
 30
0.0
 10
-2221.065513592144
 20
1002.158639084456
 30
0.0
 10
-2219.289024727756
 20
1006.447258179912
 30
0.0
 10
-2218.844902370589
 20
1008.679091557172
 30
0.0
 10
-2218.844902088261
 20
1011.0
 30
0.0
  0
SPLINE
  5
64
330
1F
100
AcDbEntity
  8
0
  6
Continuous
 62
     7
370
    25
100
AcDbSpline
210
0.0
220
0.0
230
1.0
 70
    11
 71
     3
 72
    22
 73
    18
 74
     0
 42
0.00000001
 43
0.00000001
 40
0.0
 40
0.0
 40
0.0
 40
0.0
 40
0.125
 40
0.125
 40
0.25
 40
0.25
 40
0.375
 40
0.375
 40
0.5
 40
0.5
 40
0.625
 40
0.625
 40
0.75
 40
0.75
 40
0.875
 40
0.875
 40
1.0
 40
1.0
 40
1.0
 40
1.0
 10
-1185.547411402259
 20
88.99999999999997
 30
0.0
 10
-1185.54740887508
 20
89.5574625720586
 30
0.0
 10
-1185.767805713785
 20
90.0905218317199
 30
0.0
 10
-1186.557163616831
 20
90.87931934396937
 30
0.0
 10
-1187.08946483082
 20
91.10019757156607
 30
0.0
 10
-1188.205352605295
 20
91.09980255372885
 30
0.0
 10
-1188.737938984141
 20
90.87960243504173
 30
0.0
 10
-1189.52672886458
 20
90.09025439628098
 30
0.0
 10
-1189.747613171497
 20
89.55796761874552
 30
0.0
 10
-1189.747216877429
 20
88.44204094710756
 30
0.0
 10
-1189.527004225899
 20
87.90946263994876
 30
0.0
 10
-1188.737675029007
 20
87.1206918405924
 30
0.0
 10
-1188.205375868992
 20
86.89980188512774
 30
0.0
 10
-1187.089460613521
 20
86.90019808942812
 30
0.0
 10
-1186.556890488851
 20
87.12039349765088
 30
0.0
 10
-1185.768090934471
 20
87.90975322079132
 30
0.0
 10
-1185.547413929439
 20
88.44253742794133
 30
0.0
 10
-1185.547411402259
 20
88.99999999999997
 30
0.0
  0
SPLINE
  5
65
330
1F
100
AcDbEntity
  8
0
  6
Continuous
 62
     7
370
    25
100
AcDbSpline
210
0.0
220
0.0
230
1.0
 70
    11
 71
     3
 72
    22
 73
    18
 74
     0
 42
0.00000001
 43
0.00000001
 40
0.0
 40
0.0
 40
0.0
 40
0.0
 40
0.125
 40
0.125
 40
0.25
 40
0.25
 40
0.375
 40
0.375
 40
0.5
 40
0.5
 40
0.625
 40
0.625
 40
0.75
 40
0.75
 40
0.875
 40
0.875
 40
1.0
 40
1.0
 40
1.0
 40
1.0
 10
-1185.547411402259
 20
328.9999999999999
 30
0.0
 10
-1185.547408875087
 20
329.5574625720573
 30
0.0
 10
-1185.767805713861
 20
330.0905218317758
 30
0.0
 10
-1186.557163616754
 20
330.8793193439134
 30
0.0
 10
-1187.089464830911
 20
331.1001975715661
 30
0.0
 10
-1188.205352605204
 20
331.0998025537288
 30
0.0
 10
-1188.737938984411
 20
330.8796024346009
 30
0.0
 10
-1189.52672886431
 20
330.0902543967217
 30
0.0
 10
-1189.747613171406
 20
329.5579676189147
 30
0.0
 10
-1189.747216877519
 20
328.4420409469383
 30
0.0
 10
-1189.527004226138
 20
327.9094626400977
 30
0.0
 10
-1188.737675028766
 20
327.1206918404434
 30
0.0
 10
-1188.205375868992
 20
326.8998018851484
 30
0.0
 10
-1187.08946061352
 20
326.9001980894075
 30
0.0
 10
-1186.556890488791
 20
327.120393497618
 30
0.0
 10
-1185.768090934529
 20
327.909753220824
 30
0.0
 10
-1185.547413929431
 20
328.4425374279427
 30
0.0
 10
-1185.547411402259
 20
328.9999999999999
 30
0.0
  0
SPLINE
  5
66
330
1F
100
AcDbEntity
  8
0
  6
Continuous
 62
     7
370
    25
100
AcDbSpline
210
0.0
220
0.0
230
1.0
 70
    11
 71
     3
 72
    22
 73
    18
 74
     0
 42
0.00000001
 43
0.00000001
 40
0.0
 40
0.0
 40
0.0
 40
0.0
 40
0.125
 40
0.125
 40
0.25
 40
0.25
 40
0.375
 40
0.375
 40
0.5
 40
0.5
 40
0.625
 40
0.625
 40
0.75
 40
0.75
 40
0.875
 40
0.875
 40
1.0
 40
1.0
 40
1.0
 40
1.0
 10
-1185.547411402259
 20
569.0
 30
0.0
 10
-1185.54740887509
 20
569.5574625721052
 30
0.0
 10
-1185.767805714083
 20
570.0905218318383
 30
0.0
 10
-1186.557163616533
 20
570.879319343851
 30
0.0
 10
-1187.08946483126
 20
571.1001975715038
 30
0.0
 10
-1188.205352604856
 20
571.0998025537909
 30
0.0
 10
-1188.737938984594
 20
570.8796024343972
 30
0.0
 10
-1189.526728864127
 20
570.0902543969253
 30
0.0
 10
-1189.747613171497
 20
569.5579676190051
 30
0.0
 10
-1189.747216877429
 20
568.4420409468477
 30
0.0
 10
-1189.527004225942
 20
567.9094626400209
 30
0.0
 10
-1188.737675028963
 20
567.1206918405198
 30
0.0
 10
-1188.205375868665
 20
566.8998018851692
 30
0.0
 10
-1187.089460613848
 20
566.9001980893867
 30
0.0
 10
-1186.556890488991
 20
567.12039349749
 30
0.0
 10
-1185.768090934331
 20
567.9097532209521
 30
0.0
 10
-1185.547413929428
 20
568.4425374278946
 30
0.0
 10
-1185.547411402259
 20
569.0
 30
0.0
  0
SPLINE
  5
67
330
1F
100
AcDbEntity
  8
0
  6
Continuous
 62
     7
370
    25
100
AcDbSpline
210
0.0
220
0.0
230
1.0
 70
    11
 71
     3
 72
    22
 73
    18
 74
     0
 42
0.00000001
 43
0.00000001
 40
0.0
 40
0.0
 40
0.0
 40
0.0
 40
0.125
 40
0.125
 40
0.25
 40
0.25
 40
0.375
 40
0.375
 40
0.5
 40
0.5
 40
0.625
 40
0.625
 40
0.75
 40
0.75
 40
0.875
 40
0.875
 40
1.0
 40
1.0
 40
1.0
 40
1.0
 10
-1185.547411402259
 20
808.9999999999999
 30
0.0
 10
-1185.54740887509
 20
809.5574625721052
 30
0.0
 10
-1185.767805713942
 20
810.0905218317394
 30
0.0
 10
-1186.557163616674
 20
810.8793193439503
 30
0.0
 10
-1187.08946483106
 20
811.1001975715039
 30
0.0
 10
-1188.205352605055
 20
811.0998025537908
 30
0.0
 10
-1188.737938984565
 20
810.8796024344676
 30
0.0
 10
-1189.526728864156
 20
810.090254396855
 30
0.0
 10
-1189.747613171497
 20
809.5579676189225
 30
0.0
 10
-1189.747216877429
 20
808.4420409469303
 30
0.0
 10
-1189.527004226047
 20
807.9094626399861
 30
0.0
 10
-1188.737675028858
 20
807.1206918405547
 30
0.0
 10
-1188.205375868764
 20
806.8998018852108
 30
0.0
 10
-1187.089460613749
 20
806.9001980893455
 30
0.0
 10
-1186.556890488894
 20
807.1203934975864
 30
0.0
 10
-1185.768090934427
 20
807.9097532208555
 30
0.0
 10
-1185.547413929428
 20
808.4425374278946
 30
0.0
 10
-1185.547411402259
 20
808.9999999999999
 30
0.0
  0
SPLINE
  5
68
330
1F
100
AcDbEntity
  8
0
  6
Continuous
 62
     7
370
    25
100
AcDbSpline
210
0.0
220
0.0
230
1.0
 70
    11
 71
     3
 72
    22
 73
    18
 74
     0
 42
0.00000001
 43
0.00000001
 40
0.0
 40
0.0
 40
0.0
 40
0.0
 40
0.125
 40
0.125
 40
0.25
 40
0.25
 40
0.375
 40
0.375
 40
0.5
 40
0.5
 40
0.625
 40
0.625
 40
0.75
 40
0.75
 40
0.875
 40
0.875
 40
1.0
 40
1.0
 40
1.0
 40
1.0
 10
-1185.547411402259
 20
1049.0
 30
0.0
 10
-1185.547408875085
 20
1049.557462571968
 30
0.0
 10
-1185.767805713722
 20
1050.09052183169
 30
0.0
 10
-1186.557163616894
 20
1050.879319344
 30
0.0
 10
-1187.08946483057
 20
1051.100197571587
 30
0.0
 10
-1188.205352605545
 20
1051.099802553708
 30
0.0
 10
-1188.737938984669
 20
1050.879602434326
 30
0.0
 10
-1189.526728864052
 20
1050.090254396997
 30
0.0
 10
-1189.747613171497
 20
1049.557967618787
 30
0.0
 10
-1189.747216877429
 20
1048.442040947067
 30
0.0
 10
-1189.527004226062
 20
1047.90946264
 30
0.0
 10
-1188.737675028844
 20
1047.120691840541
 30
0.0
 10
-1188.205375868474
 20
1046.899801885211
 30
0.0
 10
-1187.089460614038
 20
1046.900198089346
 30
0.0
 10
-1186.556890488757
 20
1047.120393497641
 30
0.0
 10
-1185.768090934564
 20
1047.909753220801
 30
0.0
 10
-1185.547413929434
 20
1048.442537428033
 30
0.0
 10
-1185.547411402259
 20
1049.0
 30
0.0
  0
SPLINE
  5
69
330
1F
100
AcDbEntity
  8
0
  6
Continuous
 62
     7
370
    25
100
AcDbSpline
210
0.0
220
0.0
230
1.0
 70
    11
 71
     3
 72
    22
 73
    18
 74
     0
 42
0.00000001
 43
0.00000001
 40
0.0
 40
0.0
 40
0.0
 40
0.0
 40
0.125
 40
0.125
 40
0.25
 40
0.25
 40
0.375
 40
0.375
 40
0.5
 40
0.5
 40
0.625
 40
0.625
 40
0.75
 40
0.75
 40
0.875
 40
0.875
 40
1.0
 40
1.0
 40
1.0
 40
1.0
 10
-604.7297616065763
 20
1169.0
 30
0.0
 10
-604.7297590794091
 20
1169.557462572029
 30
0.0
 10
-604.9501559183971
 20
1170.090521831877
 30
0.0
 10
-605.7395138208543
 20
1170.879319343812
 30
0.0
 10
-606.2718150351409
 20
1171.100197571587
 30
0.0
 10
-607.3877028096096
 20
1171.099802553708
 30
0.0
 10
-607.9202891888602
 20
1170.879602434328
 30
0.0
 10
-608.7090790684963
 20
1170.090254396993
 30
0.0
 10
-608.9299633758162
 20
1169.557967618442
 30
0.0
 10
-608.9295670817442
 20
1168.442040947411
 30
0.0
 10
-608.7093544305416
 20
1167.90946264021
 30
0.0
 10
-607.9200252329986
 20
1167.120691840332
 30
0.0
 10
-607.3877260733435
 20
1166.899801885045
 30
0.0
 10
-606.2718108178038
 20
1166.900198089511
 30
0.0
 10
-605.7392406929835
 20
1167.120393497803
 30
0.0
 10
-604.9504411389723
 20
1167.909753220638
 30
0.0
 10
-604.7297641337436
 20
1168.442537427971
 30
0.0
 10
-604.7297616065763
 20
1169.0
 30
0.0
  0
SPLINE
  5
6A
330
1F
100
AcDbEntity
  8
0
  6
Continuous
 62
     7
370
    25
100
AcDbSpline
210
0.0
220
0.0
230
1.0
 70
    11
 71
     3
 72
    22
 73
    18
 74
     0
 42
0.00000001
 43
0.00000001
 40
0.0
 40
0.0
 40
0.0
 40
0.0
 40
0.125
 40
0.125
 40
0.25
 40
0.25
 40
0.375
 40
0.375
 40
0.5
 40
0.5
 40
0.625
 40
0.625
 40
0.75
 40
0.75
 40
0.875
 40
0.875
 40
1.0
 40
1.0
 40
1.0
 40
1.0
 10
-2347.182710993615
 20
1169.0
 30
0.0
 10
-2347.182708466446
 20
1169.557462571015
 30
0.0
 10
-2347.403105305418
 20
1170.09052183182
 30
0.0
 10
-2348.192463207907
 20
1170.87931934387
 30
0.0
 10
-2348.72476442237
 20
1171.100197571504
 30
0.0
 10
-2349.840652196454
 20
1171.099802553791
 30
0.0
 10
-2350.373238576043
 20
1170.879602434268
 30
0.0
 10
-2351.162028455391
 20
1170.090254397055
 30
0.0
 10
-2351.382912762522
 20
1169.557967617842
 30
0.0
 10
-2351.382516469113
 20
1168.442040948011
 30
0.0
 10
-2351.162303816897
 20
1167.909462639777
 30
0.0
 10
-2350.372974620717
 20
1167.120691840765
 30
0.0
 10
-2349.840675460863
 20
1166.899801885045
 30
0.0
 10
-2348.724760204359
 20
1166.900198089511
 30
0.0
 10
-2348.19219008029
 20
1167.12039349745
 30
0.0
 10
-2347.403390525739
 20
1167.909753220991
 30
0.0
 10
-2347.182713520783
 20
1168.442537428986
 30
0.0
 10
-2347.182710993615
 20
1169.0
 30
0.0
  0
SPLINE
  5
6B
330
1F
100
AcDbEntity
  8
0
  6
Continuous
 62
     7
370
    25
100
AcDbSpline
210
0.0
220
0.0
230
1.0
 70
    11
 71
     3
 72
    22
 73
    18
 74
     0
 42
0.00000001
 43
0.00000001
 40
0.0
 40
0.0
 40
0.0
 40
0.0
 40
0.125
 40
0.125
 40
0.25
 40
0.25
 40
0.375
 40
0.375
 40
0.5
 40
0.5
 40
0.625
 40
0.625
 40
0.75
 40
0.75
 40
0.875
 40
0.875
 40
1.0
 40
1.0
 40
1.0
 40
1.0
 10
-1768.465063004221
 20
-33.10000000000002
 30
0.0
 10
-1767.907592393141
 20
-33.10000277652203
 30
0.0
 10
-1767.374528636624
 20
-32.87959182466516
 30
0.0
 10
-1766.585754933977
 20
-32.0902640947025
 30
0.0
 10
-1766.364863634951
 20
-31.55796500248587
 30
0.0
 10
-1766.365258735478
 20
-30.44204917189275
 30
0.0
 10
-1766.58545472906
 20
-29.90947842980651
 30
0.0
 10
-1767.374815269022
 20
-29.12067930521045
 30
0.0
 10
-1767.90711204237
 20
-28.89980360622424
 30
0.0
 10
-1769.023013966074
 20
-28.90019639377584
 30
0.0
 10
-1769.555597371897
 20
-29.12040817561812
 30
0.0
 10
-1770.344371074391
 20
-29.90973590501367
 30
0.0
 10
-1770.565262373741
 20
-30.44203499735643
 30
0.0
 10
-1770.564867272718
 20
-31.55795082826507
 30
0.0
 10
-1770.34467127953
 20
-32.09052157000669
 30
0.0
 10
-1769.555310739278
 20
-32.87932069497646
 30
0.0
 10
-1769.022533615302
 20
-33.09999722347801
 30
0.0
 10
-1768.465063004221
 20
-33.10000000000002
 30
0.0
  0
SPLINE
  5
6C
330
1F
100
AcDbEntity
  8
0
  6
Continuous
 62
     7
370
    25
100
AcDbSpline
210
0.0
220
0.0
230
1.0
 70
    11
 71
     3
 72
    22
 73
    18
 74
     0
 42
0.00000001
 43
0.00000001
 40
0.0
 40
0.0
 40
0.0
 40
0.0
 40
0.125
 40
0.125
 40
0.25
 40
0.25
 40
0.375
 40
0.375
 40
0.5
 40
0.5
 40
0.625
 40
0.625
 40
0.75
 40
0.75
 40
0.875
 40
0.875
 40
1.0
 40
1.0
 40
1.0
 40
1.0
 10
-604.7297616065767
 20
89.00000000000003
 30
0.0
 10
-604.7297590794102
 20
89.55746257183638
 30
0.0
 10
-604.9501559182686
 20
90.09052183176941
 30
0.0
 10
-605.7395138209824
 20
90.87931934391985
 30
0.0
 10
-606.2718150351412
 20
91.10019757158678
 30
0.0
 10
-607.3877028096084
 20
91.09980255370826
 30
0.0
 10
-607.9202891887326
 20
90.87960243460141
 30
0.0
 10
-608.7090790686243
 20
90.09025439672108
 30
0.0
 10
-608.9299633758988
 20
89.55796761868223
 30
0.0
 10
-608.929567081662
 20
88.44204094717084
 30
0.0
 10
-608.709354430617
 20
87.90946264013994
 30
0.0
 10
-607.920025232924
 20
87.12069184040111
 30
0.0
 10
-607.3877260733448
 20
86.89980188512774
 30
0.0
 10
-606.2718108178027
 20
86.90019808942812
 30
0.0
 10
-605.7392406930984
 20
87.12039349766792
 30
0.0
 10
-604.9504411388574
 20
87.90975322077405
 30
0.0
 10
-604.7297641337432
 20
88.44253742816366
 30
0.0
 10
-604.7297616065767
 20
89.00000000000003
 30
0.0
  0
SPLINE
  5
6D
330
1F
100
AcDbEntity
  8
0
  6
Continuous
 62
     7
370
    25
100
AcDbSpline
210
0.0
220
0.0
230
1.0
 70
    11
 71
     3
 72
    22
 73
    18
 74
     0
 42
0.00000001
 43
0.00000001
 40
0.0
 40
0.0
 40
0.0
 40
0.0
 40
0.125
 40
0.125
 40
0.25
 40
0.25
 40
0.375
 40
0.375
 40
0.5
 40
0.5
 40
0.625
 40
0.625
 40
0.75
 40
0.75
 40
0.875
 40
0.875
 40
1.0
 40
1.0
 40
1.0
 40
1.0
 10
-2347.182710993614
 20
89.00000000000003
 30
0.0
 10
-2347.182708466445
 20
89.55746257103364
 30
0.0
 10
-2347.40310530516
 20
90.09052183172767
 30
0.0
 10
-2348.192463208165
 20
90.87931934396204
 30
0.0
 10
-2348.724764422106
 20
91.10019757156618
 30
0.0
 10
-2349.840652196719
 20
91.09980255372874
 30
0.0
 10
-2350.37323857561
 20
90.87960243488469
 30
0.0
 10
-2351.162028455821
 20
90.0902543964377
 30
0.0
 10
-2351.382912762938
 20
89.55796761887846
 30
0.0
 10
-2351.3825164687
 20
88.44204094697439
 30
0.0
 10
-2351.162303816896
 20
87.90946263977517
 30
0.0
 10
-2350.372974620718
 20
87.12069184076555
 30
0.0
 10
-2349.840675460415
 20
86.89980188512774
 30
0.0
 10
-2348.724760204806
 20
86.90019808942812
 30
0.0
 10
-2348.192190080038
 20
87.12039349772415
 30
0.0
 10
-2347.403390525993
 20
87.90975322071759
 30
0.0
 10
-2347.182713520783
 20
88.4425374289664
 30
0.0
 10
-2347.182710993614
 20
89.00000000000003
 30
0.0
  0
SPLINE
  5
6E
330
1F
100
AcDbEntity
  8
0
  6
Continuous
 62
     7
370
    25
100
AcDbSpline
210
0.0
220
0.0
230
1.0
 70
    11
 71
     3
 72
    22
 73
    18
 74
     0
 42
0.00000001
 43
0.00000001
 40
0.0
 40
0.0
 40
0.0
 40
0.0
 40
0.125
 40
0.125
 40
0.25
 40
0.25
 40
0.375
 40
0.375
 40
0.5
 40
0.5
 40
0.625
 40
0.625
 40
0.75
 40
0.75
 40
0.875
 40
0.875
 40
1.0
 40
1.0
 40
1.0
 40
1.0
 10
-1766.365061197931
 20
209.0
 30
0.0
 10
-1766.365058670762
 20
209.5574625720111
 30
0.0
 10
-1766.585455509757
 20
210.0905218319441
 30
0.0
 10
-1767.374813412204
 20
210.8793193437453
 30
0.0
 10
-1767.90711462672
 20
211.1001975715454
 30
0.0
 10
-1769.023002400741
 20
211.0998025537496
 30
0.0
 10
-1769.555588780086
 20
210.8796024345816
 30
0.0
 10
-1770.34437865998
 20
210.090254396741
 30
0.0
 10
-1770.56526296717
 20
209.5579676188813
 30
0.0
 10
-1770.564866673098
 20
208.4420409469717
 30
0.0
 10
-1770.344654021959
 20
207.909462640169
 30
0.0
 10
-1769.555324824291
 20
207.1206918403721
 30
0.0
 10
-1769.023025664567
 20
206.8998018851278
 30
0.0
 10
-1767.90711040929
 20
206.900198089428
 30
0.0
 10
-1767.374540284284
 20
207.1203934977741
 30
0.0
 10
-1766.58574073038
 20
207.909753220668
 30
0.0
 10
-1766.3650637251
 20
208.442537427989
 30
0.0
 10
-1766.365061197931
 20
209.0
 30
0.0
  0
SPLINE
  5
6F
330
1F
100
AcDbEntity
  8
0
  6
Continuous
 62
     7
370
    25
100
AcDbSpline
210
0.0
220
0.0
230
1.0
 70
    11
 71
     3
 72
    22
 73
    18
 74
     0
 42
0.00000001
 43
0.00000001
 40
0.0
 40
0.0
 40
0.0
 40
0.0
 40
0.125
 40
0.125
 40
0.25
 40
0.25
 40
0.375
 40
0.375
 40
0.5
 40
0.5
 40
0.625
 40
0.625
 40
0.75
 40
0.75
 40
0.875
 40
0.875
 40
1.0
 40
1.0
 40
1.0
 40
1.0
 10
-604.7297616065765
 20
328.9999999999999
 30
0.0
 10
-604.7297590794105
 20
329.5574625719154
 30
0.0
 10
-604.9501559181689
 20
330.0905218317112
 30
0.0
 10
-605.7395138210823
 20
330.8793193439782
 30
0.0
 10
-606.2718150351903
 20
331.1001975715868
 30
0.0
 10
-607.3877028095593
 20
331.0998025537082
 30
0.0
 10
-607.920289188858
 20
330.8796024344963
 30
0.0
 10
-608.7090790684986
 20
330.090254396826
 30
0.0
 10
-608.9299633758162
 20
329.5579676183831
 30
0.0
 10
-608.9295670817445
 20
328.4420409474701
 30
0.0
 10
-608.7093544304821
 20
327.9094626400673
 30
0.0
 10
-607.9200252330588
 20
327.1206918404737
 30
0.0
 10
-607.3877260731953
 20
326.8998018851691
 30
0.0
 10
-606.2718108179521
 20
326.9001980893868
 30
0.0
 10
-605.739240693239
 20
327.1203934975475
 30
0.0
 10
-604.9504411387167
 20
327.9097532208944
 30
0.0
 10
-604.7297641337425
 20
328.4425374280846
 30
0.0
 10
-604.7297616065765
 20
328.9999999999999
 30
0.0
  0
SPLINE
  5
70
330
1F
100
AcDbEntity
  8
0
  6
Continuous
 62
     7
370
    25
100
AcDbSpline
210
0.0
220
0.0
230
1.0
 70
    11
 71
     3
 72
    22
 73
    18
 74
     0
 42
0.00000001
 43
0.00000001
 40
0.0
 40
0.0
 40
0.0
 40
0.0
 40
0.125
 40
0.125
 40
0.25
 40
0.25
 40
0.375
 40
0.375
 40
0.5
 40
0.5
 40
0.625
 40
0.625
 40
0.75
 40
0.75
 40
0.875
 40
0.875
 40
1.0
 40
1.0
 40
1.0
 40
1.0
 10
-2347.182710993614
 20
328.9999999999999
 30
0.0
 10
-2347.18270846644
 20
329.5574625714198
 30
0.0
 10
-2347.403105305463
 20
330.0905218319887
 30
0.0
 10
-2348.192463207862
 20
330.879319343701
 30
0.0
 10
-2348.724764422022
 20
331.1001975715454
 30
0.0
 10
-2349.840652196802
 20
331.0998025537494
 30
0.0
 10
-2350.373238576314
 20
330.8796024341804
 30
0.0
 10
-2351.162028455117
 20
330.0902543971418
 30
0.0
 10
-2351.382912762522
 20
329.5579676174844
 30
0.0
 10
-2351.382516469113
 20
328.4420409483685
 30
0.0
 10
-2351.162303817752
 20
327.9094626402999
 30
0.0
 10
-2350.372974619864
 20
327.1206918402407
 30
0.0
 10
-2349.840675460416
 20
326.8998018851276
 30
0.0
 10
-2348.724760204806
 20
326.900198089428
 30
0.0
 10
-2348.192190080573
 20
327.1203934971887
 30
0.0
 10
-2347.403390525459
 20
327.9097532212531
 30
0.0
 10
-2347.182713520788
 20
328.4425374285801
 30
0.0
 10
-2347.182710993614
 20
328.9999999999999
 30
0.0
  0
SPLINE
  5
71
330
1F
100
AcDbEntity
  8
0
  6
Continuous
 62
     7
370
    25
100
AcDbSpline
210
0.0
220
0.0
230
1.0
 70
    11
 71
     3
 72
    22
 73
    18
 74
     0
 42
0.00000001
 43
0.00000001
 40
0.0
 40
0.0
 40
0.0
 40
0.0
 40
0.125
 40
0.125
 40
0.25
 40
0.25
 40
0.375
 40
0.375
 40
0.5
 40
0.5
 40
0.625
 40
0.625
 40
0.75
 40
0.75
 40
0.875
 40
0.875
 40
1.0
 40
1.0
 40
1.0
 40
1.0
 10
-1766.365061197931
 20
449.0
 30
0.0
 10
-1766.365058670765
 20
449.5574625720164
 30
0.0
 10
-1766.585455509382
 20
450.0905218316527
 30
0.0
 10
-1767.374813412578
 20
450.8793193440364
 30
0.0
 10
-1767.90711462647
 20
451.1001975715247
 30
0.0
 10
-1769.023002400988
 20
451.0998025537701
 30
0.0
 10
-1769.555588780086
 20
450.8796024345815
 30
0.0
 10
-1770.34437865998
 20
450.0902543967407
 30
0.0
 10
-1770.565262967253
 20
449.557967618503
 30
0.0
 10
-1770.564866673017
 20
448.4420409473501
 30
0.0
 10
-1770.344654021995
 20
447.909462640205
 30
0.0
 10
-1769.555324824255
 20
447.1206918403361
 30
0.0
 10
-1769.023025664558
 20
446.8998018851484
 30
0.0
 10
-1767.907110409298
 20
446.9001980894074
 30
0.0
 10
-1767.374540284509
 20
447.1203934976321
 30
0.0
 10
-1766.585740730156
 20
447.9097532208098
 30
0.0
 10
-1766.365063725098
 20
448.4425374279836
 30
0.0
 10
-1766.365061197931
 20
449.0
 30
0.0
  0
SPLINE
  5
72
330
1F
100
AcDbEntity
  8
0
  6
Continuous
 62
     7
370
    25
100
AcDbSpline
210
0.0
220
0.0
230
1.0
 70
    11
 71
     3
 72
    22
 73
    18
 74
     0
 42
0.00000001
 43
0.00000001
 40
0.0
 40
0.0
 40
0.0
 40
0.0
 40
0.125
 40
0.125
 40
0.25
 40
0.25
 40
0.375
 40
0.375
 40
0.5
 40
0.5
 40
0.625
 40
0.625
 40
0.75
 40
0.75
 40
0.875
 40
0.875
 40
1.0
 40
1.0
 40
1.0
 40
1.0
 10
-604.7297616065763
 20
569.0
 30
0.0
 10
-604.7297590794117
 20
569.5574625717786
 30
0.0
 10
-604.9501559182686
 20
570.0905218317902
 30
0.0
 10
-605.7395138209821
 20
570.8793193438988
 30
0.0
 10
-606.2718150351822
 20
571.1001975715867
 30
0.0
 10
-607.3877028095676
 20
571.0998025537081
 30
0.0
 10
-607.9202891888559
 20
570.8796024346226
 30
0.0
 10
-608.7090790685011
 20
570.0902543967
 30
0.0
 10
-608.9299633758163
 20
569.5579676184243
 30
0.0
 10
-608.9295670817443
 20
568.4420409474288
 30
0.0
 10
-608.7093544306107
 20
567.9094626401544
 30
0.0
 10
-607.9200252329298
 20
567.1206918403864
 30
0.0
 10
-607.3877260732621
 20
566.8998018851278
 30
0.0
 10
-606.2718108178859
 20
566.900198089428
 30
0.0
 10
-605.7392406931541
 20
567.1203934976738
 30
0.0
 10
-604.9504411388016
 20
567.9097532207679
 30
0.0
 10
-604.729764133741
 20
568.4425374282213
 30
0.0
 10
-604.7297616065763
 20
569.0
 30
0.0
  0
SPLINE
  5
73
330
1F
100
AcDbEntity
  8
0
  6
Continuous
 62
     7
370
    25
100
AcDbSpline
210
0.0
220
0.0
230
1.0
 70
    11
 71
     3
 72
    22
 73
    18
 74
     0
 42
0.00000001
 43
0.00000001
 40
0.0
 40
0.0
 40
0.0
 40
0.0
 40
0.125
 40
0.125
 40
0.25
 40
0.25
 40
0.375
 40
0.375
 40
0.5
 40
0.5
 40
0.625
 40
0.625
 40
0.75
 40
0.75
 40
0.875
 40
0.875
 40
1.0
 40
1.0
 40
1.0
 40
1.0
 10
-2347.182710993614
 20
569.0
 30
0.0
 10
-2347.182708466451
 20
569.5574625714645
 30
0.0
 10
-2347.403105305418
 20
570.0905218317788
 30
0.0
 10
-2348.192463207907
 20
570.8793193439107
 30
0.0
 10
-2348.724764422119
 20
571.1001975715867
 30
0.0
 10
-2349.840652196704
 20
571.0998025537081
 30
0.0
 10
-2350.373238576178
 20
570.8796024341306
 30
0.0
 10
-2351.162028455254
 20
570.0902543971919
 30
0.0
 10
-2351.382912762689
 20
569.557967618241
 30
0.0
 10
-2351.382516468947
 20
568.4420409476118
 30
0.0
 10
-2351.162303817672
 20
567.9094626400963
 30
0.0
 10
-2350.372974619942
 20
567.1206918404442
 30
0.0
 10
-2349.840675460566
 20
566.8998018850863
 30
0.0
 10
-2348.724760204657
 20
566.9001980894693
 30
0.0
 10
-2348.192190080174
 20
567.1203934978153
 30
0.0
 10
-2347.403390525857
 20
567.9097532206265
 30
0.0
 10
-2347.182713520777
 20
568.4425374285355
 30
0.0
 10
-2347.182710993614
 20
569.0
 30
0.0
  0
SPLINE
  5
74
330
1F
100
AcDbEntity
  8
0
  6
Continuous
 62
     7
370
    25
100
AcDbSpline
210
0.0
220
0.0
230
1.0
 70
    11
 71
     3
 72
    22
 73
    18
 74
     0
 42
0.00000001
 43
0.00000001
 40
0.0
 40
0.0
 40
0.0
 40
0.0
 40
0.125
 40
0.125
 40
0.25
 40
0.25
 40
0.375
 40
0.375
 40
0.5
 40
0.5
 40
0.625
 40
0.625
 40
0.75
 40
0.75
 40
0.875
 40
0.875
 40
1.0
 40
1.0
 40
1.0
 40
1.0
 10
-1766.365061197931
 20
689.0
 30
0.0
 10
-1766.365058670767
 20
689.557462572023
 30
0.0
 10
-1766.585455509581
 20
690.0905218317893
 30
0.0
 10
-1767.374813412379
 20
690.8793193438996
 30
0.0
 10
-1767.90711462609
 20
691.1001975716283
 30
0.0
 10
-1769.023002401369
 20
691.0998025536667
 30
0.0
 10
-1769.55558877992
 20
690.8796024346233
 30
0.0
 10
-1770.344378660146
 20
690.0902543966989
 30
0.0
 10
-1770.565262967171
 20
689.5579676186404
 30
0.0
 10
-1770.564866673099
 20
688.4420409472126
 30
0.0
 10
-1770.344654021609
 20
687.9094626399224
 30
0.0
 10
-1769.555324824641
 20
687.1206918406186
 30
0.0
 10
-1769.023025664798
 20
686.8998018850862
 30
0.0
 10
-1767.907110409059
 20
686.9001980894692
 30
0.0
 10
-1767.374540284493
 20
687.120393497773
 30
0.0
 10
-1766.585740730173
 20
687.9097532206692
 30
0.0
 10
-1766.365063725096
 20
688.4425374279771
 30
0.0
 10
-1766.365061197931
 20
689.0
 30
0.0
  0
SPLINE
  5
75
330
1F
100
AcDbEntity
  8
0
  6
Continuous
 62
     7
370
    25
100
AcDbSpline
210
0.0
220
0.0
230
1.0
 70
    11
 71
     3
 72
    22
 73
    18
 74
     0
 42
0.00000001
 43
0.00000001
 40
0.0
 40
0.0
 40
0.0
 40
0.0
 40
0.125
 40
0.125
 40
0.25
 40
0.25
 40
0.375
 40
0.375
 40
0.5
 40
0.5
 40
0.625
 40
0.625
 40
0.75
 40
0.75
 40
0.875
 40
0.875
 40
1.0
 40
1.0
 40
1.0
 40
1.0
 10
-604.7297616065763
 20
808.9999999999998
 30
0.0
 10
-604.7297590794117
 20
809.5574625719775
 30
0.0
 10
-604.9501559182685
 20
810.0905218317898
 30
0.0
 10
-605.7395138209823
 20
810.8793193438989
 30
0.0
 10
-606.2718150351002
 20
811.1001975715456
 30
0.0
 10
-607.3877028096493
 20
811.0998025537494
 30
0.0
 10
-607.9202891888903
 20
810.8796024344226
 30
0.0
 10
-608.7090790684665
 20
810.0902543968998
 30
0.0
 10
-608.9299633757748
 20
809.5579676184656
 30
0.0
 10
-608.9295670817855
 20
808.4420409473877
 30
0.0
 10
-608.7093544306817
 20
807.9094626401843
 30
0.0
 10
-607.9200252328587
 20
807.1206918403567
 30
0.0
 10
-607.3877260732205
 20
806.8998018851278
 30
0.0
 10
-606.2718108179273
 20
806.900198089428
 30
0.0
 10
-605.7392406931249
 20
807.1203934977443
 30
0.0
 10
-604.9504411388309
 20
807.9097532206974
 30
0.0
 10
-604.729764133741
 20
808.442537428022
 30
0.0
 10
-604.7297616065763
 20
808.9999999999998
 30
0.0
  0
SPLINE
  5
76
330
1F
100
AcDbEntity
  8
0
  6
Continuous
 62
     7
370
    25
100
AcDbSpline
210
0.0
220
0.0
230
1.0
 70
    11
 71
     3
 72
    22
 73
    18
 74
     0
 42
0.00000001
 43
0.00000001
 40
0.0
 40
0.0
 40
0.0
 40
0.0
 40
0.125
 40
0.125
 40
0.25
 40
0.25
 40
0.375
 40
0.375
 40
0.5
 40
0.5
 40
0.625
 40
0.625
 40
0.75
 40
0.75
 40
0.875
 40
0.875
 40
1.0
 40
1.0
 40
1.0
 40
1.0
 10
-2347.182710993614
 20
808.9999999999999
 30
0.0
 10
-2347.182708466451
 20
809.5574625714231
 30
0.0
 10
-2347.403105305136
 20
810.0905218316619
 30
0.0
 10
-2348.192463208189
 20
810.8793193440274
 30
0.0
 10
-2348.72476442222
 20
811.1001975715867
 30
0.0
 10
-2349.840652196604
 20
811.0998025537081
 30
0.0
 10
-2350.373238576354
 20
810.8796024337073
 30
0.0
 10
-2351.162028455077
 20
810.0902543976149
 30
0.0
 10
-2351.382912762689
 20
809.5579676182822
 30
0.0
 10
-2351.382516468947
 20
808.4420409475707
 30
0.0
 10
-2351.162303817249
 20
807.9094626400038
 30
0.0
 10
-2350.372974620365
 20
807.120691840537
 30
0.0
 10
-2349.840675460567
 20
806.8998018850865
 30
0.0
 10
-2348.724760204656
 20
806.9001980894695
 30
0.0
 10
-2348.19219007998
 20
807.1203934978848
 30
0.0
 10
-2347.40339052605
 20
807.9097532205568
 30
0.0
 10
-2347.182713520777
 20
808.4425374285765
 30
0.0
 10
-2347.182710993614
 20
808.9999999999999
 30
0.0
  0
SPLINE
  5
77
330
1F
100
AcDbEntity
  8
0
  6
Continuous
 62
     7
370
    25
100
AcDbSpline
210
0.0
220
0.0
230
1.0
 70
    11
 71
     3
 72
    22
 73
    18
 74
     0
 42
0.00000001
 43
0.00000001
 40
0.0
 40
0.0
 40
0.0
 40
0.0
 40
0.125
 40
0.125
 40
0.25
 40
0.25
 40
0.375
 40
0.375
 40
0.5
 40
0.5
 40
0.625
 40
0.625
 40
0.75
 40
0.75
 40
0.875
 40
0.875
 40
1.0
 40
1.0
 40
1.0
 40
1.0
 10
-1766.365061197931
 20
929.0
 30
0.0
 10
-1766.365058670767
 20
929.5574625719819
 30
0.0
 10
-1766.585455509652
 20
930.0905218317773
 30
0.0
 10
-1767.374813412309
 20
930.8793193439117
 30
0.0
 10
-1767.907114626189
 20
931.1001975716281
 30
0.0
 10
-1769.02300240127
 20
931.0998025536667
 30
0.0
 10
-1769.555588779663
 20
930.8796024350462
 30
0.0
 10
-1770.344378660403
 20
930.090254396276
 30
0.0
 10
-1770.565262967253
 20
929.5579676186826
 30
0.0
 10
-1770.564866673016
 20
928.4420409471704
 30
0.0
 10
-1770.344654021795
 20
927.9094626401501
 30
0.0
 10
-1769.555324824454
 20
927.1206918403909
 30
0.0
 10
-1769.023025664599
 20
926.8998018851277
 30
0.0
 10
-1767.907110409258
 20
926.9001980894279
 30
0.0
 10
-1767.374540284364
 20
927.1203934979428
 30
0.0
 10
-1766.585740730301
 20
927.9097532204994
 30
0.0
 10
-1766.365063725096
 20
928.4425374280182
 30
0.0
 10
-1766.365061197931
 20
929.0
 30
0.0
  0
SPLINE
  5
78
330
1F
100
AcDbEntity
  8
0
  6
Continuous
 62
     7
370
    25
100
AcDbSpline
210
0.0
220
0.0
230
1.0
 70
    11
 71
     3
 72
    22
 73
    18
 74
     0
 42
0.00000001
 43
0.00000001
 40
0.0
 40
0.0
 40
0.0
 40
0.0
 40
0.125
 40
0.125
 40
0.25
 40
0.25
 40
0.375
 40
0.375
 40
0.5
 40
0.5
 40
0.625
 40
0.625
 40
0.75
 40
0.75
 40
0.875
 40
0.875
 40
1.0
 40
1.0
 40
1.0
 40
1.0
 10
-604.7297616065763
 20
1049.0
 30
0.0
 10
-604.7297590794091
 20
1049.557462572111
 30
0.0
 10
-604.9501559182278
 20
1050.090521831791
 30
0.0
 10
-605.7395138210235
 20
1050.879319343899
 30
0.0
 10
-606.2718150354985
 20
1051.100197571504
 30
0.0
 10
-607.3877028092518
 20
1051.099802553791
 30
0.0
 10
-607.9202891888023
 20
1050.879602434387
 30
0.0
 10
-608.7090790685543
 20
1050.090254396936
 30
0.0
 10
-608.9299633757744
 20
1049.557967618425
 30
0.0
 10
-608.9295670817853
 20
1048.442040947428
 30
0.0
 10
-608.7093544304702
 20
1047.909462640097
 30
0.0
 10
-607.9200252330702
 20
1047.120691840445
 30
0.0
 10
-607.3877260729455
 20
1046.899801885211
 30
0.0
 10
-606.271810818202
 20
1046.900198089346
 30
0.0
 10
-605.7392406931006
 20
1047.120393497604
 30
0.0
 10
-604.9504411388554
 20
1047.909753220838
 30
0.0
 10
-604.7297641337436
 20
1048.442537427889
 30
0.0
 10
-604.7297616065763
 20
1049.0
 30
0.0
  0
LINE
  5
79
330
1F
100
AcDbEntity
  8
0
  6
Continuous
 62
     7
370
    25
100
AcDbLine
 10
-2372.3669960483
 20
-56.0
 30
0.0
 11
-2372.3669960483
 21
1194.0
 31
0.0
  0
LINE
  5
7A
330
1F
100
AcDbEntity
  8
0
  6
Continuous
 62
     7
370
    25
100
AcDbLine
 10
0.0
 20
-56.0
 30
0.0
 11
-2372.3669960483
 21
-56.0
 31
0.0
  0
LINE
  5
7B
330
1F
100
AcDbEntity
  8
0
  6
Continuous
 62
     7
370
    25
100
AcDbLine
 10
0.0
 20
1194.0
 30
0.0
 11
0.0
 21
-56.0
 31
0.0
  0
LINE
  5
7C
330
1F
100
AcDbEntity
  8
0
  6
Continuous
 62
     7
370
    25
100
AcDbLine
 10
-2372.3669960483
 20
1194.0
 30
0.0
 11
0.0
 21
1194.0
 31
0.0
  0
SPLINE
  5
7D
330
1F
100
AcDbEntity
  8
0
  6
Continuous
 62
     7
370
    25
100
AcDbSpline
210
0.0
220
0.0
230
1.0
 70
    11
 71
     3
 72
    22
 73
    18
 74
     0
 42
0.00000001
 43
0.00000001
 40
0.0
 40
0.0
 40
0.0
 40
0.0
 40
0.125
 40
0.125
 40
0.25
 40
0.25
 40
0.375
 40
0.375
 40
0.5
 40
0.5
 40
0.625
 40
0.625
 40
0.75
 40
0.75
 40
0.875
 40
0.875
 40
1.0
 40
1.0
 40
1.0
 40
1.0
 10
-1766.365061197931
 20
1049.0
 30
0.0
 10
-1766.365058670762
 20
1049.557462572012
 30
0.0
 10
-1766.585455509499
 20
1050.09052183179
 30
0.0
 10
-1767.374813412461
 20
1050.879319343899
 30
0.0
 10
-1767.90711462642
 20
1051.100197571752
 30
0.0
 10
-1769.023002401039
 20
1051.099802553543
 30
0.0
 10
-1769.555588779862
 20
1050.879602434764
 30
0.0
 10
-1770.344378660203
 20
1050.090254396559
 30
0.0
 10
-1770.565262967253
 20
1049.557967618922
 30
0.0
 10
-1770.564866673016
 20
1048.442040946931
 30
0.0
 10
-1770.344654021737
 20
1047.909462640091
 30
0.0
 10
-1769.555324824513
 20
1047.12069184045
 30
0.0
 10
-1769.023025664699
 20
1046.899801885045
 30
0.0
 10
-1767.907110409158
 20
1046.900198089511
 30
0.0
 10
-1767.374540284392
 20
1047.120393497873
 30
0.0
 10
-1766.585740730273
 20
1047.909753220568
 30
0.0
 10
-1766.365063725101
 20
1048.442537427989
 30
0.0
 10
-1766.365061197931
 20
1049.0
 30
0.0
  0
SPLINE
  5
7E
330
1F
100
AcDbEntity
  8
0
  6
Continuous
 62
     7
370
    25
100
AcDbSpline
210
0.0
220
0.0
230
1.0
 70
    11
 71
     3
 72
    22
 73
    18
 74
     0
 42
0.00000001
 43
0.00000001
 40
0.0
 40
0.0
 40
0.0
 40
0.0
 40
0.125
 40
0.125
 40
0.25
 40
0.25
 40
0.375
 40
0.375
 40
0.5
 40
0.5
 40
0.625
 40
0.625
 40
0.75
 40
0.75
 40
0.875
 40
0.875
 40
1.0
 40
1.0
 40
1.0
 40
1.0
 10
-2347.182710993614
 20
928.9999999999999
 30
0.0
 10
-2347.182708466451
 20
929.5574625714232
 30
0.0
 10
-2347.403105305418
 20
930.0905218318197
 30
0.0
 10
-2348.192463207907
 20
930.8793193438697
 30
0.0
 10
-2348.724764422419
 20
931.1001975715037
 30
0.0
 10
-2349.840652196404
 20
931.0998025537908
 30
0.0
 10
-2350.373238576149
 20
930.8796024341598
 30
0.0
 10
-2351.162028455282
 20
930.0902543971624
 30
0.0
 10
-2351.382912762689
 20
929.5579676182409
 30
0.0
 10
-2351.382516468947
 20
928.4420409476119
 30
0.0
 10
-2351.16230381739
 20
927.9094626399793
 30
0.0
 10
-2350.372974620225
 20
927.1206918405612
 30
0.0
 10
-2349.840675460666
 20
926.8998018850863
 30
0.0
 10
-2348.724760204556
 20
926.9001980894695
 30
0.0
 10
-2348.192190080688
 20
927.1203934968868
 30
0.0
 10
-2347.403390525342
 20
927.9097532215548
 30
0.0
 10
-2347.182713520777
 20
928.4425374285767
 30
0.0
 10
-2347.182710993614
 20
928.9999999999999
 30
0.0
  0
SPLINE
  5
7F
330
1F
100
AcDbEntity
  8
0
  6
Continuous
 62
     7
370
    25
100
AcDbSpline
210
0.0
220
0.0
230
1.0
 70
    11
 71
     3
 72
    22
 73
    18
 74
     0
 42
0.00000001
 43
0.00000001
 40
0.0
 40
0.0
 40
0.0
 40
0.0
 40
0.125
 40
0.125
 40
0.25
 40
0.25
 40
0.375
 40
0.375
 40
0.5
 40
0.5
 40
0.625
 40
0.625
 40
0.75
 40
0.75
 40
0.875
 40
0.875
 40
1.0
 40
1.0
 40
1.0
 40
1.0
 10
-604.7297616065763
 20
929.0
 30
0.0
 10
-604.7297590794117
 20
929.557462572118
 30
0.0
 10
-604.9501559182971
 20
930.0905218318183
 30
0.0
 10
-605.7395138209537
 20
930.8793193438703
 30
0.0
 10
-606.2718150351
 20
931.1001975715868
 30
0.0
 10
-607.3877028096496
 20
931.0998025537082
 30
0.0
 10
-607.9202891887736
 20
930.879602434622
 30
0.0
 10
-608.7090790685832
 20
930.0902543967003
 30
0.0
 10
-608.9299633758163
 20
929.5579676184824
 30
0.0
 10
-608.9295670817443
 20
928.4420409473706
 30
0.0
 10
-608.7093544308223
 20
927.9094626403244
 30
0.0
 10
-607.9200252327182
 20
927.1206918402164
 30
0.0
 10
-607.3877260732037
 20
926.8998018851692
 30
0.0
 10
-606.2718108179442
 20
926.9001980893869
 30
0.0
 10
-605.7392406932125
 20
927.1203934975744
 30
0.0
 10
-604.9504411387433
 20
927.9097532208676
 30
0.0
 10
-604.729764133741
 20
928.442537427882
 30
0.0
 10
-604.7297616065763
 20
929.0
 30
0.0
  0
SPLINE
  5
80
330
1F
100
AcDbEntity
  8
0
  6
Continuous
 62
     7
370
    25
100
AcDbSpline
210
0.0
220
0.0
230
1.0
 70
    11
 71
     3
 72
    22
 73
    18
 74
     0
 42
0.00000001
 43
0.00000001
 40
0.0
 40
0.0
 40
0.0
 40
0.0
 40
0.125
 40
0.125
 40
0.25
 40
0.25
 40
0.375
 40
0.375
 40
0.5
 40
0.5
 40
0.625
 40
0.625
 40
0.75
 40
0.75
 40
0.875
 40
0.875
 40
1.0
 40
1.0
 40
1.0
 40
1.0
 10
-1766.365061197931
 20
809.0
 30
0.0
 10
-1766.365058670767
 20
809.5574625719406
 30
0.0
 10
-1766.585455509722
 20
810.090521831848
 30
0.0
 10
-1767.374813412238
 20
810.8793193438412
 30
0.0
 10
-1767.907114626488
 20
811.1001975715868
 30
0.0
 10
-1769.023002400971
 20
811.0998025537082
 30
0.0
 10
-1769.555588779605
 20
810.8796024351458
 30
0.0
 10
-1770.344378660461
 20
810.0902543961766
 30
0.0
 10
-1770.565262967253
 20
809.5579676188813
 30
0.0
 10
-1770.564866673016
 20
808.4420409469717
 30
0.0
 10
-1770.344654021596
 20
807.9094626399918
 30
0.0
 10
-1769.555324824654
 20
807.120691840549
 30
0.0
 10
-1769.0230256646
 20
806.8998018851278
 30
0.0
 10
-1767.907110409257
 20
806.900198089428
 30
0.0
 10
-1767.374540284364
 20
807.1203934979429
 30
0.0
 10
-1766.585740730301
 20
807.9097532204988
 30
0.0
 10
-1766.365063725096
 20
808.4425374280595
 30
0.0
 10
-1766.365061197931
 20
809.0
 30
0.0
  0
SPLINE
  5
81
330
1F
100
AcDbEntity
  8
0
  6
Continuous
 62
     7
370
    25
100
AcDbSpline
210
0.0
220
0.0
230
1.0
 70
    11
 71
     3
 72
    22
 73
    18
 74
     0
 42
0.00000001
 43
0.00000001
 40
0.0
 40
0.0
 40
0.0
 40
0.0
 40
0.125
 40
0.125
 40
0.25
 40
0.25
 40
0.375
 40
0.375
 40
0.5
 40
0.5
 40
0.625
 40
0.625
 40
0.75
 40
0.75
 40
0.875
 40
0.875
 40
1.0
 40
1.0
 40
1.0
 40
1.0
 10
-2347.182710993614
 20
689.0
 30
0.0
 10
-2347.182708466451
 20
689.5574625715057
 30
0.0
 10
-2347.403105305489
 20
690.090521831808
 30
0.0
 10
-2348.192463207837
 20
690.8793193438814
 30
0.0
 10
-2348.72476442222
 20
691.1001975715453
 30
0.0
 10
-2349.840652196604
 20
691.0998025537494
 30
0.0
 10
-2350.373238576149
 20
690.8796024341598
 30
0.0
 10
-2351.162028455282
 20
690.0902543971629
 30
0.0
 10
-2351.382912762689
 20
689.5579676181998
 30
0.0
 10
-2351.382516468947
 20
688.442040947653
 30
0.0
 10
-2351.162303817672
 20
687.9094626400964
 30
0.0
 10
-2350.372974619942
 20
687.1206918404444
 30
0.0
 10
-2349.840675460367
 20
686.8998018851277
 30
0.0
 10
-2348.724760204855
 20
686.9001980894282
 30
0.0
 10
-2348.192190080145
 20
687.1203934978859
 30
0.0
 10
-2347.403390525885
 20
687.9097532205557
 30
0.0
 10
-2347.182713520777
 20
688.4425374284945
 30
0.0
 10
-2347.182710993614
 20
689.0
 30
0.0
  0
SPLINE
  5
82
330
1F
100
AcDbEntity
  8
0
  6
Continuous
 62
     7
370
    25
100
AcDbSpline
210
0.0
220
0.0
230
1.0
 70
    11
 71
     3
 72
    22
 73
    18
 74
     0
 42
0.00000001
 43
0.00000001
 40
0.0
 40
0.0
 40
0.0
 40
0.0
 40
0.125
 40
0.125
 40
0.25
 40
0.25
 40
0.375
 40
0.375
 40
0.5
 40
0.5
 40
0.625
 40
0.625
 40
0.75
 40
0.75
 40
0.875
 40
0.875
 40
1.0
 40
1.0
 40
1.0
 40
1.0
 10
-604.7297616065763
 20
688.9999999999999
 30
0.0
 10
-604.7297590794117
 20
689.5574625718199
 30
0.0
 10
-604.9501559181979
 20
690.0905218317607
 30
0.0
 10
-605.739513821053
 20
690.8793193439283
 30
0.0
 10
-606.2718150351824
 20
691.1001975715868
 30
0.0
 10
-607.3877028095674
 20
691.0998025537082
 30
0.0
 10
-607.9202891889144
 20
690.8796024345643
 30
0.0
 10
-608.7090790684424
 20
690.0902543967584
 30
0.0
 10
-608.9299633758162
 20
689.5579676183415
 30
0.0
 10
-608.9295670817445
 20
688.4420409475115
 30
0.0
 10
-608.7093544306813
 20
687.909462640225
 30
0.0
 10
-607.9200252328592
 20
687.1206918403158
 30
0.0
 10
-607.387726073263
 20
686.8998018851279
 30
0.0
 10
-606.2718108178847
 20
686.9001980894282
 30
0.0
 10
-605.7392406931539
 20
687.120393497674
 30
0.0
 10
-604.950441138802
 20
687.9097532207676
 30
0.0
 10
-604.729764133741
 20
688.4425374281798
 30
0.0
 10
-604.7297616065763
 20
688.9999999999999
 30
0.0
  0
SPLINE
  5
83
330
1F
100
AcDbEntity
  8
0
  6
Continuous
 62
     7
370
    25
100
AcDbSpline
210
0.0
220
0.0
230
1.0
 70
    11
 71
     3
 72
    22
 73
    18
 74
     0
 42
0.00000001
 43
0.00000001
 40
0.0
 40
0.0
 40
0.0
 40
0.0
 40
0.125
 40
0.125
 40
0.25
 40
0.25
 40
0.375
 40
0.375
 40
0.5
 40
0.5
 40
0.625
 40
0.625
 40
0.75
 40
0.75
 40
0.875
 40
0.875
 40
1.0
 40
1.0
 40
1.0
 40
1.0
 10
-1766.365061197931
 20
569.0
 30
0.0
 10
-1766.365058670767
 20
569.5574625720644
 30
0.0
 10
-1766.585455509511
 20
570.0905218317605
 30
0.0
 10
-1767.37481341245
 20
570.8793193439287
 30
0.0
 10
-1767.907114626189
 20
571.1001975715868
 30
0.0
 10
-1769.02300240127
 20
571.099802553708
 30
0.0
 10
-1769.555588779746
 20
570.8796024349637
 30
0.0
 10
-1770.34437866032
 20
570.0902543963589
 30
0.0
 10
-1770.565262967171
 20
569.5579676186819
 30
0.0
 10
-1770.564866673099
 20
568.4420409471713
 30
0.0
 10
-1770.344654021678
 20
567.909462639951
 30
0.0
 10
-1769.55532482457
 20
567.1206918405898
 30
0.0
 10
-1769.0230256644
 20
566.8998018852105
 30
0.0
 10
-1767.907110409457
 20
566.9001980893453
 30
0.0
 10
-1767.374540284492
 20
567.1203934978143
 30
0.0
 10
-1766.585740730173
 20
567.9097532206276
 30
0.0
 10
-1766.365063725096
 20
568.4425374279355
 30
0.0
 10
-1766.365061197931
 20
569.0
 30
0.0
  0
SPLINE
  5
84
330
1F
100
AcDbEntity
  8
0
  6
Continuous
 62
     7
370
    25
100
AcDbSpline
210
0.0
220
0.0
230
1.0
 70
    11
 71
     3
 72
    22
 73
    18
 74
     0
 42
0.00000001
 43
0.00000001
 40
0.0
 40
0.0
 40
0.0
 40
0.0
 40
0.125
 40
0.125
 40
0.25
 40
0.25
 40
0.375
 40
0.375
 40
0.5
 40
0.5
 40
0.625
 40
0.625
 40
0.75
 40
0.75
 40
0.875
 40
0.875
 40
1.0
 40
1.0
 40
1.0
 40
1.0
 10
-2347.182710993614
 20
449.0
 30
0.0
 10
-2347.182708466456
 20
449.5574625718354
 30
0.0
 10
-2347.403105305453
 20
450.0905218318346
 30
0.0
 10
-2348.192463207872
 20
450.8793193438549
 30
0.0
 10
-2348.724764422174
 20
451.1001975715869
 30
0.0
 10
-2349.840652196653
 20
451.0998025537083
 30
0.0
 10
-2350.373238575728
 20
450.8796024345805
 30
0.0
 10
-2351.162028455702
 20
450.0902543967417
 30
0.0
 10
-2351.382912762936
 20
449.5579676189014
 30
0.0
 10
-2351.382516468698
 20
448.4420409469515
 30
0.0
 10
-2351.162303817541
 20
447.9094626402334
 30
0.0
 10
-2350.372974620074
 20
447.1206918403073
 30
0.0
 10
-2349.840675460116
 20
446.8998018851071
 30
0.0
 10
-2348.724760205105
 20
446.9001980894486
 30
0.0
 10
-2348.192190079857
 20
447.1203934976973
 30
0.0
 10
-2347.403390526172
 20
447.9097532207443
 30
0.0
 10
-2347.182713520772
 20
448.4425374281647
 30
0.0
 10
-2347.182710993614
 20
449.0
 30
0.0
  0
SPLINE
  5
85
330
1F
100
AcDbEntity
  8
0
  6
Continuous
 62
     7
370
    25
100
AcDbSpline
210
0.0
220
0.0
230
1.0
 70
    11
 71
     3
 72
    22
 73
    18
 74
     0
 42
0.00000001
 43
0.00000001
 40
0.0
 40
0.0
 40
0.0
 40
0.0
 40
0.125
 40
0.125
 40
0.25
 40
0.25
 40
0.375
 40
0.375
 40
0.5
 40
0.5
 40
0.625
 40
0.625
 40
0.75
 40
0.75
 40
0.875
 40
0.875
 40
1.0
 40
1.0
 40
1.0
 40
1.0
 10
-604.7297616065769
 20
449.0000000000001
 30
0.0
 10
-604.7297590794121
 20
449.5574625720196
 30
0.0
 10
-604.9501559182747
 20
450.0905218317963
 30
0.0
 10
-605.7395138209764
 20
450.8793193438931
 30
0.0
 10
-606.271815035341
 20
451.1001975715041
 30
0.0
 10
-607.3877028094091
 20
451.0998025537909
 30
0.0
 10
-607.9202891887732
 20
450.8796024346227
 30
0.0
 10
-608.7090790685836
 20
450.0902543966997
 30
0.0
 10
-608.9299633757748
 20
449.5579676185024
 30
0.0
 10
-608.9295670817855
 20
448.4420409473508
 30
0.0
 10
-608.7093544305106
 20
447.9094626401167
 30
0.0
 10
-607.9200252330296
 20
447.1206918404242
 30
0.0
 10
-607.3877260730711
 20
446.8998018851485
 30
0.0
 10
-606.2718108180762
 20
446.9001980894074
 30
0.0
 10
-605.7392406931418
 20
447.1203934975828
 30
0.0
 10
-604.950441138814
 20
447.9097532208591
 30
0.0
 10
-604.7297641337415
 20
448.4425374279806
 30
0.0
 10
-604.7297616065769
 20
449.0000000000001
 30
0.0
  0
SPLINE
  5
86
330
1F
100
AcDbEntity
  8
0
  6
Continuous
 62
     7
370
    25
100
AcDbSpline
210
0.0
220
0.0
230
1.0
 70
    11
 71
     3
 72
    22
 73
    18
 74
     0
 42
0.00000001
 43
0.00000001
 40
0.0
 40
0.0
 40
0.0
 40
0.0
 40
0.125
 40
0.125
 40
0.25
 40
0.25
 40
0.375
 40
0.375
 40
0.5
 40
0.5
 40
0.625
 40
0.625
 40
0.75
 40
0.75
 40
0.875
 40
0.875
 40
1.0
 40
1.0
 40
1.0
 40
1.0
 10
-1766.365061197931
 20
328.9999999999999
 30
0.0
 10
-1766.365058670757
 20
329.5574625717575
 30
0.0
 10
-1766.585455509241
 20
330.0905218315947
 30
0.0
 10
-1767.374813412718
 20
330.8793193440944
 30
0.0
 10
-1767.907114626453
 20
331.1001975715869
 30
0.0
 10
-1769.023002401006
 20
331.0998025537081
 30
0.0
 10
-1769.555588779795
 20
330.8796024352861
 30
0.0
 10
-1770.344378660271
 20
330.0902543960365
 30
0.0
 10
-1770.565262967171
 20
329.5579676182822
 30
0.0
 10
-1770.564866673099
 20
328.4420409475708
 30
0.0
 10
-1770.344654021532
 20
327.9094626398862
 30
0.0
 10
-1769.555324824718
 20
327.1206918406548
 30
0.0
 10
-1769.023025664477
 20
326.8998018851279
 30
0.0
 10
-1767.907110409381
 20
326.9001980894281
 30
0.0
 10
-1767.374540284367
 20
327.1203934977947
 30
0.0
 10
-1766.585740730297
 20
327.9097532206471
 30
0.0
 10
-1766.365063725105
 20
328.4425374282424
 30
0.0
 10
-1766.365061197931
 20
328.9999999999999
 30
0.0
  0
SPLINE
  5
87
330
1F
100
AcDbEntity
  8
0
  6
Continuous
 62
     7
370
    25
100
AcDbSpline
210
0.0
220
0.0
230
1.0
 70
    11
 71
     3
 72
    22
 73
    18
 74
     0
 42
0.00000001
 43
0.00000001
 40
0.0
 40
0.0
 40
0.0
 40
0.0
 40
0.125
 40
0.125
 40
0.25
 40
0.25
 40
0.375
 40
0.375
 40
0.5
 40
0.5
 40
0.625
 40
0.625
 40
0.75
 40
0.75
 40
0.875
 40
0.875
 40
1.0
 40
1.0
 40
1.0
 40
1.0
 10
-2347.182710993615
 20
209.0000000000001
 30
0.0
 10
-2347.182708466451
 20
209.5574625718262
 30
0.0
 10
-2347.403105305172
 20
210.0905218316979
 30
0.0
 10
-2348.192463208154
 20
210.8793193439919
 30
0.0
 10
-2348.724764422237
 20
211.1001975715454
 30
0.0
 10
-2349.840652196586
 20
211.0998025537496
 30
0.0
 10
-2350.373238575787
 20
210.8796024344391
 30
0.0
 10
-2351.162028455644
 20
210.0902543968832
 30
0.0
 10
-2351.382912763185
 20
209.557967619477
 30
0.0
 10
-2351.382516468452
 20
208.4420409463759
 30
0.0
 10
-2351.162303817543
 20
207.9094626401111
 30
0.0
 10
-2350.372974620072
 20
207.1206918404296
 30
0.0
 10
-2349.840675460465
 20
206.8998018851277
 30
0.0
 10
-2348.724760204758
 20
206.900198089428
 30
0.0
 10
-2348.192190080422
 20
207.1203934971742
 30
0.0
 10
-2347.403390525608
 20
207.9097532212675
 30
0.0
 10
-2347.182713520778
 20
208.442537428174
 30
0.0
 10
-2347.182710993615
 20
209.0000000000001
 30
0.0
  0
SPLINE
  5
88
330
1F
100
AcDbEntity
  8
0
  6
Continuous
 62
     7
370
    25
100
AcDbSpline
210
0.0
220
0.0
230
1.0
 70
    11
 71
     3
 72
    22
 73
    18
 74
     0
 42
0.00000001
 43
0.00000001
 40
0.0
 40
0.0
 40
0.0
 40
0.0
 40
0.125
 40
0.125
 40
0.25
 40
0.25
 40
0.375
 40
0.375
 40
0.5
 40
0.5
 40
0.625
 40
0.625
 40
0.75
 40
0.75
 40
0.875
 40
0.875
 40
1.0
 40
1.0
 40
1.0
 40
1.0
 10
-604.7297616065765
 20
209.0
 30
0.0
 10
-604.7297590794095
 20
209.5574625719132
 30
0.0
 10
-604.9501559182982
 20
210.0905218317988
 30
0.0
 10
-605.7395138209533
 20
210.8793193438906
 30
0.0
 10
-606.2718150351997
 20
211.1001975715662
 30
0.0
 10
-607.3877028095502
 20
211.0998025537288
 30
0.0
 10
-607.9202891888302
 20
210.8796024345452
 30
0.0
 10
-608.7090790685269
 20
210.0902543967773
 30
0.0
 10
-608.9299633757335
 20
209.5579676183045
 30
0.0
 10
-608.9295670818268
 20
208.4420409475486
 30
0.0
 10
-608.7093544302769
 20
207.9094626399862
 30
0.0
 10
-607.9200252332633
 20
207.1206918405548
 30
0.0
 10
-607.3877260732535
 20
206.8998018851278
 30
0.0
 10
-606.2718108178938
 20
206.900198089428
 30
0.0
 10
-605.7392406930688
 20
207.1203934977385
 30
0.0
 10
-604.950441138887
 20
207.9097532207035
 30
0.0
 10
-604.7297641337435
 20
208.4425374280867
 30
0.0
 10
-604.7297616065765
 20
209.0
 30
0.0
  0
SPLINE
  5
89
330
1F
100
AcDbEntity
  8
0
  6
Continuous
 62
     7
370
    25
100
AcDbSpline
210
0.0
220
0.0
230
1.0
 70
    11
 71
     3
 72
    22
 73
    18
 74
     0
 42
0.00000001
 43
0.00000001
 40
0.0
 40
0.0
 40
0.0
 40
0.0
 40
0.125
 40
0.125
 40
0.25
 40
0.25
 40
0.375
 40
0.375
 40
0.5
 40
0.5
 40
0.625
 40
0.625
 40
0.75
 40
0.75
 40
0.875
 40
0.875
 40
1.0
 40
1.0
 40
1.0
 40
1.0
 10
-1766.365061197931
 20
88.99999999999997
 30
0.0
 10
-1766.365058670765
 20
89.55746257233504
 30
0.0
 10
-1766.585455509552
 20
90.09052183173938
 30
0.0
 10
-1767.374813412409
 20
90.87931934394989
 30
0.0
 10
-1767.907114626504
 20
91.10019757156623
 30
0.0
 10
-1769.023002400955
 20
91.0998025537288
 30
0.0
 10
-1769.555588779916
 20
90.87960243479354
 30
0.0
 10
-1770.344378660149
 20
90.09025439652896
 30
0.0
 10
-1770.565262967253
 20
89.55796761848167
 30
0.0
 10
-1770.564866673017
 20
88.44204094737151
 30
0.0
 10
-1770.344654021854
 20
87.90946264012523
 30
0.0
 10
-1769.555324824397
 20
87.12069184041582
 30
0.0
 10
-1769.023025664691
 20
86.89980188512774
 30
0.0
 10
-1767.907110409165
 20
86.90019808942812
 30
0.0
 10
-1767.37454028448
 20
87.120393497703
 30
0.0
 10
-1766.585740730186
 20
87.90975322073908
 30
0.0
 10
-1766.365063725098
 20
88.44253742766489
 30
0.0
 10
-1766.365061197931
 20
88.99999999999997
 30
0.0
  0
SPLINE
  5
8A
330
1F
100
AcDbEntity
  8
0
  6
Continuous
 62
     7
370
    25
100
AcDbSpline
210
0.0
220
0.0
230
1.0
 70
    11
 71
     3
 72
    22
 73
    18
 74
     0
 42
0.00000001
 43
0.00000001
 40
0.0
 40
0.0
 40
0.0
 40
0.0
 40
0.125
 40
0.125
 40
0.25
 40
0.25
 40
0.375
 40
0.375
 40
0.5
 40
0.5
 40
0.625
 40
0.625
 40
0.75
 40
0.75
 40
0.875
 40
0.875
 40
1.0
 40
1.0
 40
1.0
 40
1.0
 10
-2349.282712799905
 20
-33.10000000000002
 30
0.0
 10
-2348.725242188884
 20
-33.10000277652181
 30
0.0
 10
-2348.192178432332
 20
-32.8795918245246
 30
0.0
 10
-2347.403404729636
 20
-32.09026409484395
 30
0.0
 10
-2347.182513430095
 20
-31.55796500278452
 30
0.0
 10
-2347.182908531697
 20
-30.44204917159521
 30
0.0
 10
-2347.403104524165
 20
-29.9094784300522
 30
0.0
 10
-2348.192465065279
 20
-29.12067930496542
 30
0.0
 10
-2348.724761837788
 20
-28.89980360622413
 30
0.0
 10
-2349.840663762021
 20
-28.90019639377595
 30
0.0
 10
-2350.373247167669
 20
-29.12040817533512
 30
0.0
 10
-2351.162020869984
 20
-29.909735905296
 30
0.0
 10
-2351.382912169384
 20
-30.44203499661369
 30
0.0
 10
-2351.382517068441
 20
-31.55795082900648
 30
0.0
 10
-2351.162321075197
 20
-32.09052157006409
 30
0.0
 10
-2350.372960534978
 20
-32.87932069491817
 30
0.0
 10
-2349.840183410926
 20
-33.09999722347823
 30
0.0
 10
-2349.282712799905
 20
-33.10000000000002
 30
0.0
  0
SPLINE
  5
8B
330
1F
100
AcDbEntity
  8
0
  6
Continuous
 62
     7
370
    25
100
AcDbSpline
210
0.0
220
0.0
230
1.0
 70
    11
 71
     3
 72
    22
 73
    18
 74
     0
 42
0.00000001
 43
0.00000001
 40
0.0
 40
0.0
 40
0.0
 40
0.0
 40
0.125
 40
0.125
 40
0.25
 40
0.25
 40
0.375
 40
0.375
 40
0.5
 40
0.5
 40
0.625
 40
0.625
 40
0.75
 40
0.75
 40
0.875
 40
0.875
 40
1.0
 40
1.0
 40
1.0
 40
1.0
 10
-606.829763412868
 20
-33.10000000000002
 30
0.0
 10
-606.2722928018451
 20
-33.10000277652181
 30
0.0
 10
-605.739229045124
 20
-32.87959182431266
 30
0.0
 10
-604.9504553427691
 20
-32.09026409505545
 30
0.0
 10
-604.7295640432656
 20
-31.55796500304342
 30
0.0
 10
-604.7299591444541
 20
-30.44204917133542
 30
0.0
 10
-604.9501551374765
 20
-29.90947842995162
 30
0.0
 10
-605.7395156778942
 20
-29.12067930506534
 30
0.0
 10
-606.2718124508341
 20
-28.89980360622424
 30
0.0
 10
-607.3877143749021
 20
-28.90019639377584
 30
0.0
 10
-607.9202977806242
 20
-29.12040817561701
 30
0.0
 10
-608.7090714829544
 20
-29.90973590501478
 30
0.0
 10
-608.9299627823872
 20
-30.44203499705578
 30
0.0
 10
-608.9295676813639
 20
-31.55795082856528
 30
0.0
 10
-608.7093716883296
 20
-32.09052156997782
 30
0.0
 10
-607.920011147771
 20
-32.8793206950051
 30
0.0
 10
-607.3872340238908
 20
-33.09999722347823
 30
0.0
 10
-606.829763412868
 20
-33.10000000000002
 30
0.0
  0
SPLINE
  5
8C
330
1F
100
AcDbEntity
  8
0
  6
Continuous
 62
     7
370
    25
100
AcDbSpline
210
0.0
220
0.0
230
1.0
 70
    11
 71
     3
 72
    22
 73
    18
 74
     0
 42
0.00000001
 43
0.00000001
 40
0.0
 40
0.0
 40
0.0
 40
0.0
 40
0.125
 40
0.125
 40
0.25
 40
0.25
 40
0.375
 40
0.375
 40
0.5
 40
0.5
 40
0.625
 40
0.625
 40
0.75
 40
0.75
 40
0.875
 40
0.875
 40
1.0
 40
1.0
 40
1.0
 40
1.0
 10
-1766.365061197931
 20
1169.0
 30
0.0
 10
-1766.365058670762
 20
1169.557462572012
 30
0.0
 10
-1766.585455509099
 20
1170.090521831556
 30
0.0
 10
-1767.37481341286
 20
1170.879319344133
 30
0.0
 10
-1767.907114627016
 20
1171.100197571586
 30
0.0
 10
-1769.023002400442
 20
1171.099802553708
 30
0.0
 10
-1769.555588779945
 20
1170.879602434764
 30
0.0
 10
-1770.344378660121
 20
1170.090254396559
 30
0.0
 10
-1770.565262967171
 20
1169.557967618558
 30
0.0
 10
-1770.564866673099
 20
1168.442040947296
 30
0.0
 10
-1770.344654021737
 20
1167.909462640092
 30
0.0
 10
-1769.555324824513
 20
1167.12069184045
 30
0.0
 10
-1769.023025664576
 20
1166.899801885045
 30
0.0
 10
-1767.907110409282
 20
1166.900198089511
 30
0.0
 10
-1767.374540284778
 20
1167.120393497239
 30
0.0
 10
-1766.585740729887
 20
1167.909753221203
 30
0.0
 10
-1766.365063725101
 20
1168.442537427988
 30
0.0
 10
-1766.365061197931
 20
1169.0
 30
0.0
  0
SPLINE
  5
8D
330
1F
100
AcDbEntity
  8
0
  6
Continuous
 62
     7
370
    25
100
AcDbSpline
210
0.0
220
0.0
230
1.0
 70
    11
 71
     3
 72
    22
 73
    18
 74
     0
 42
0.00000001
 43
0.00000001
 40
0.0
 40
0.0
 40
0.0
 40
0.0
 40
0.125
 40
0.125
 40
0.25
 40
0.25
 40
0.375
 40
0.375
 40
0.5
 40
0.5
 40
0.625
 40
0.625
 40
0.75
 40
0.75
 40
0.875
 40
0.875
 40
1.0
 40
1.0
 40
1.0
 40
1.0
 10
-1185.547411402259
 20
1169.0
 30
0.0
 10
-1185.547408875085
 20
1169.557462572051
 30
0.0
 10
-1185.767805714003
 20
1170.090521831887
 30
0.0
 10
-1186.557163616613
 20
1170.879319343802
 30
0.0
 10
-1187.089464830173
 20
1171.10019757167
 30
0.0
 10
-1188.205352605942
 20
1171.099802553626
 30
0.0
 10
-1188.737938984843
 20
1170.879602433986
 30
0.0
 10
-1189.526728863877
 20
1170.090254397337
 30
0.0
 10
-1189.747613171497
 20
1169.557967618703
 30
0.0
 10
-1189.747216877429
 20
1168.44204094715
 30
0.0
 10
-1189.527004226062
 20
1167.909462640001
 30
0.0
 10
-1188.737675028844
 20
1167.120691840541
 30
0.0
 10
-1188.205375868873
 20
1166.899801885128
 30
0.0
 10
-1187.089460613639
 20
1166.900198089428
 30
0.0
 10
-1186.556890488756
 20
1167.120393497724
 30
0.0
 10
-1185.768090934564
 20
1167.909753220718
 30
0.0
 10
-1185.547413929434
 20
1168.442537427949
 30
0.0
 10
-1185.547411402259
 20
1169.0
 30
0.0
  0
SPLINE
  5
8E
330
1F
100
AcDbEntity
  8
0
  6
Continuous
 62
     7
370
    25
100
AcDbSpline
210
0.0
220
0.0
230
1.0
 70
    11
 71
     3
 72
    22
 73
    18
 74
     0
 42
0.00000001
 43
0.00000001
 40
0.0
 40
0.0
 40
0.0
 40
0.0
 40
0.125
 40
0.125
 40
0.25
 40
0.25
 40
0.375
 40
0.375
 40
0.5
 40
0.5
 40
0.625
 40
0.625
 40
0.75
 40
0.75
 40
0.875
 40
0.875
 40
1.0
 40
1.0
 40
1.0
 40
1.0
 10
-1185.547411402259
 20
928.9999999999998
 30
0.0
 10
-1185.54740887509
 20
929.5574625718722
 30
0.0
 10
-1185.767805713896
 20
930.0905218317696
 30
0.0
 10
-1186.557163616719
 20
930.8793193439194
 30
0.0
 10
-1187.089464830873
 20
931.1001975715868
 30
0.0
 10
-1188.205352605242
 20
931.0998025537082
 30
0.0
 10
-1188.73793898433
 20
930.8796024345813
 30
0.0
 10
-1189.52672886439
 20
930.0902543967411
 30
0.0
 10
-1189.747613171498
 20
929.5579676191566
 30
0.0
 10
-1189.747216877429
 20
928.4420409466967
 30
0.0
 10
-1189.527004226252
 20
927.909462640149
 30
0.0
 10
-1188.737675028653
 20
927.1206918403918
 30
0.0
 10
-1188.205375868583
 20
926.8998018851279
 30
0.0
 10
-1187.08946061393
 20
926.9001980894279
 30
0.0
 10
-1186.556890488564
 20
927.1203934979575
 30
0.0
 10
-1185.768090934757
 20
927.9097532204847
 30
0.0
 10
-1185.547413929428
 20
928.4425374281275
 30
0.0
 10
-1185.547411402259
 20
928.9999999999998
 30
0.0
  0
SPLINE
  5
8F
330
1F
100
AcDbEntity
  8
0
  6
Continuous
 62
     7
370
    25
100
AcDbSpline
210
0.0
220
0.0
230
1.0
 70
    11
 71
     3
 72
    22
 73
    18
 74
     0
 42
0.00000001
 43
0.00000001
 40
0.0
 40
0.0
 40
0.0
 40
0.0
 40
0.125
 40
0.125
 40
0.25
 40
0.25
 40
0.375
 40
0.375
 40
0.5
 40
0.5
 40
0.625
 40
0.625
 40
0.75
 40
0.75
 40
0.875
 40
0.875
 40
1.0
 40
1.0
 40
1.0
 40
1.0
 10
-1185.547411402259
 20
689.0
 30
0.0
 10
-1185.54740887509
 20
689.557462572063
 30
0.0
 10
-1185.767805713818
 20
690.0905218316914
 30
0.0
 10
-1186.557163616797
 20
690.8793193439976
 30
0.0
 10
-1187.089464830682
 20
691.1001975716696
 30
0.0
 10
-1188.205352605434
 20
691.0998025536254
 30
0.0
 10
-1188.737938984495
 20
690.8796024344589
 30
0.0
 10
-1189.526728864227
 20
690.0902543968638
 30
0.0
 10
-1189.747613171498
 20
689.5579676191566
 30
0.0
 10
-1189.747216877429
 20
688.4420409466965
 30
0.0
 10
-1189.527004226041
 20
687.9094626400213
 30
0.0
 10
-1188.737675028864
 20
687.12069184052
 30
0.0
 10
-1188.205375868852
 20
686.8998018851279
 30
0.0
 10
-1187.089460613661
 20
686.9001980894282
 30
0.0
 10
-1186.556890488821
 20
687.1203934976089
 30
0.0
 10
-1185.768090934499
 20
687.9097532208332
 30
0.0
 10
-1185.547413929428
 20
688.4425374279369
 30
0.0
 10
-1185.547411402259
 20
689.0
 30
0.0
  0
SPLINE
  5
90
330
1F
100
AcDbEntity
  8
0
  6
Continuous
 62
     7
370
    25
100
AcDbSpline
210
0.0
220
0.0
230
1.0
 70
    11
 71
     3
 72
    22
 73
    18
 74
     0
 42
0.00000001
 43
0.00000001
 40
0.0
 40
0.0
 40
0.0
 40
0.0
 40
0.125
 40
0.125
 40
0.25
 40
0.25
 40
0.375
 40
0.375
 40
0.5
 40
0.5
 40
0.625
 40
0.625
 40
0.75
 40
0.75
 40
0.875
 40
0.875
 40
1.0
 40
1.0
 40
1.0
 40
1.0
 10
-1185.547411402259
 20
449.0000000000001
 30
0.0
 10
-1185.547408875085
 20
449.5574625718799
 30
0.0
 10
-1185.767805713956
 20
450.0905218317901
 30
0.0
 10
-1186.557163616661
 20
450.8793193438992
 30
0.0
 10
-1187.089464830741
 20
451.1001975715662
 30
0.0
 10
-1188.205352605375
 20
451.0998025537288
 30
0.0
 10
-1188.737938984267
 20
450.8796024349369
 30
0.0
 10
-1189.526728864455
 20
450.0902543963858
 30
0.0
 10
-1189.747613171406
 20
449.5579676189362
 30
0.0
 10
-1189.747216877519
 20
448.4420409469166
 30
0.0
 10
-1189.527004225998
 20
447.9094626400065
 30
0.0
 10
-1188.737675028908
 20
447.1206918405344
 30
0.0
 10
-1188.205375868942
 20
446.899801885169
 30
0.0
 10
-1187.089460613571
 20
446.9001980893868
 30
0.0
 10
-1186.556890488793
 20
447.1203934976174
 30
0.0
 10
-1185.768090934528
 20
447.9097532208248
 30
0.0
 10
-1185.547413929434
 20
448.4425374281203
 30
0.0
 10
-1185.547411402259
 20
449.0000000000001
 30
0.0
  0
SPLINE
  5
91
330
1F
100
AcDbEntity
  8
0
  6
Continuous
 62
     7
370
    25
100
AcDbSpline
210
0.0
220
0.0
230
1.0
 70
    11
 71
     3
 72
    22
 73
    18
 74
     0
 42
0.00000001
 43
0.00000001
 40
0.0
 40
0.0
 40
0.0
 40
0.0
 40
0.125
 40
0.125
 40
0.25
 40
0.25
 40
0.375
 40
0.375
 40
0.5
 40
0.5
 40
0.625
 40
0.625
 40
0.75
 40
0.75
 40
0.875
 40
0.875
 40
1.0
 40
1.0
 40
1.0
 40
1.0
 10
-1185.547411402259
 20
209.0000000000001
 30
0.0
 10
-1185.547408875085
 20
209.5574625720923
 30
0.0
 10
-1185.767805714032
 20
210.0905218317756
 30
0.0
 10
-1186.557163616585
 20
210.8793193439137
 30
0.0
 10
-1187.089464830909
 20
211.1001975715662
 30
0.0
 10
-1188.205352605205
 20
211.0998025537287
 30
0.0
 10
-1188.737938984397
 20
210.8796024346156
 30
0.0
 10
-1189.526728864325
 20
210.0902543967071
 30
0.0
 10
-1189.747613171497
 20
209.5579676187666
 30
0.0
 10
-1189.747216877429
 20
208.4420409470865
 30
0.0
 10
-1189.527004225792
 20
207.9094626399217
 30
0.0
 10
-1188.737675029113
 20
207.1206918406195
 30
0.0
 10
-1188.205375868914
 20
206.8998018851278
 30
0.0
 10
-1187.0894606136
 20
206.900198089428
 30
0.0
 10
-1186.556890488593
 20
207.1203934980786
 30
0.0
 10
-1185.768090934728
 20
207.9097532203634
 30
0.0
 10
-1185.547413929433
 20
208.4425374279079
 30
0.0
 10
-1185.547411402259
 20
209.0000000000001
 30
0.0
  0
SPLINE
  5
92
330
1F
100
AcDbEntity
  8
0
  6
Continuous
 62
     7
370
    25
100
AcDbSpline
210
0.0
220
0.0
230
1.0
 70
    11
 71
     3
 72
    22
 73
    18
 74
     0
 42
0.00000001
 43
0.00000001
 40
0.0
 40
0.0
 40
0.0
 40
0.0
 40
0.125
 40
0.125
 40
0.25
 40
0.25
 40
0.375
 40
0.375
 40
0.5
 40
0.5
 40
0.625
 40
0.625
 40
0.75
 40
0.75
 40
0.875
 40
0.875
 40
1.0
 40
1.0
 40
1.0
 40
1.0
 10
-1187.64741320855
 20
-33.10000000000002
 30
0.0
 10
-1187.089942597499
 20
-33.10000277652203
 30
0.0
 10
-1186.556878840732
 20
-32.87959182432721
 30
0.0
 10
-1185.768105138526
 20
-32.09026409504179
 30
0.0
 10
-1185.547213838987
 20
-31.55796500299368
 30
0.0
 10
-1185.547608940097
 20
-30.44204917138604
 30
0.0
 10
-1185.76780493297
 20
-29.90947843005187
 30
0.0
 10
-1186.557165473765
 20
-29.12067930496553
 30
0.0
 10
-1187.089462246685
 20
-28.89980360622424
 30
0.0
 10
-1188.205364170415
 20
-28.90019639377584
 30
0.0
 10
-1188.737947576331
 20
-29.12040817580663
 30
0.0
 10
-1189.526721278611
 20
-29.90973590482471
 30
0.0
 10
-1189.747612578113
 20
-30.44203499700648
 30
0.0
 10
-1189.747217477003
 20
-31.5579508286139
 30
0.0
 10
-1189.527021484201
 20
-32.09052156991843
 30
0.0
 10
-1188.737660943264
 20
-32.87932069506427
 30
0.0
 10
-1188.204883819601
 20
-33.09999722347801
 30
0.0
 10
-1187.64741320855
 20
-33.10000000000002
 30
0.0
  0
SPLINE
  5
93
330
1F
100
AcDbEntity
  8
0
  6
Continuous
 62
     7
370
    25
100
AcDbSpline
210
0.0
220
0.0
230
1.0
 70
    11
 71
     3
 72
    22
 73
    18
 74
     0
 42
0.00000001
 43
0.00000001
 40
0.0
 40
0.0
 40
0.0
 40
0.0
 40
0.125
 40
0.125
 40
0.25
 40
0.25
 40
0.375
 40
0.375
 40
0.5
 40
0.5
 40
0.625
 40
0.625
 40
0.75
 40
0.75
 40
0.875
 40
0.875
 40
1.0
 40
1.0
 40
1.0
 40
1.0
 10
-2347.182710993615
 20
1049.0
 30
0.0
 10
-2347.182708466446
 20
1049.557462571181
 30
0.0
 10
-2347.403105305019
 20
1050.090521831505
 30
0.0
 10
-2348.192463208306
 20
1050.879319344185
 30
0.0
 10
-2348.72476442217
 20
1051.100197571587
 30
0.0
 10
-2349.840652196654
 20
1051.099802553708
 30
0.0
 10
-2350.373238576114
 20
1050.879602434693
 30
0.0
 10
-2351.16202845532
 20
1050.09025439663
 30
0.0
 10
-2351.382912762936
 20
1049.55796761884
 30
0.0
 10
-2351.382516468699
 20
1048.442040947014
 30
0.0
 10
-2351.162303816757
 20
1047.909462639636
 30
0.0
 10
-2350.372974620857
 20
1047.120691840905
 30
0.0
 10
-2349.840675460466
 20
1046.899801885128
 30
0.0
 10
-2348.724760204756
 20
1046.900198089428
 30
0.0
 10
-2348.192190080232
 20
1047.120393497592
 30
0.0
 10
-2347.403390525797
 20
1047.90975322085
 30
0.0
 10
-2347.182713520783
 20
1048.44253742882
 30
0.0
 10
-2347.182710993615
 20
1049.0
 30
0.0
  0
ENDSEC
  0
SECTION
  2
OBJECTS
  0
DICTIONARY
  5
C
330
0
100
AcDbDictionary
281
     1
  3
ACAD_GROUP
350
D
  3
ACAD_LAYOUT
350
1A
  3
ACAD_MLINESTYLE
350
17
  3
ACAD_PLOTSETTINGS
350
19
  3
ACAD_PLOTSTYLENAME
350
E
  3
ACAD_SCALELIST
350
47
  3
DWGPROPS
350
94
  0
DICTIONARY
  5
D
102
{ACAD_REACTORS
330
C
102
}
330
C
100
AcDbDictionary
281
     1
  0
DICTIONARY
  5
1A
102
{ACAD_REACTORS
330
C
102
}
330
C
100
AcDbDictionary
281
     1
  3
Layout1
350
1E
  3
Layout2
350
26
  3
Model
350
22
  0
DICTIONARY
  5
17
102
{ACAD_REACTORS
330
C
102
}
330
C
100
AcDbDictionary
281
     1
  3
Standard
350
18
  0
DICTIONARY
  5
19
102
{ACAD_REACTORS
330
C
102
}
330
C
100
AcDbDictionary
281
     1
  0
ACDBDICTIONARYWDFLT
  5
E
102
{ACAD_REACTORS
330
C
102
}
330
C
100
AcDbDictionary
281
     1
  3
Normal
350
F
100
AcDbDictionaryWithDefault
340
F
  0
DICTIONARY
  5
47
102
{ACAD_REACTORS
330
C
102
}
330
C
100
AcDbDictionary
281
     1
  3
A0
350
48
  3
A1
350
49
  3
A2
350
4A
  3
A3
350
4B
  3
A4
350
4C
  3
A5
350
4D
  3
A6
350
4E
  3
A7
350
4F
  3
A8
350
50
  3
A9
350
51
  3
B0
350
52
  3
B1
350
53
  3
B2
350
54
  3
B3
350
55
  3
B4
350
56
  3
B5
350
57
  3
B6
350
58
  0
XRECORD
  5
94
102
{ACAD_REACTORS
330
C
102
}
330
C
100
AcDbXrecord
280
     1
  1
DWGPROPS COOKIE
  2

  3

  4

  6

  7

  8
ademathieu
  9

300
=
301
=
302
=
303
=
304
=
305
=
306
=
307
=
308
=
309
=
 40
0.0
 41
2460269.544442523
 42
2460269.544479178
  1

 90
        0
  0
LAYOUT
  5
1E
102
{ACAD_REACTORS
330
1A
102
}
330
1A
100
AcDbPlotSettings
  1

  2
none_device
  4

  6

 40
0.0
 41
0.0
 42
0.0
 43
0.0
 44
0.0
 45
0.0
 46
0.0
 47
0.0
 48
0.0
 49
0.0
140
0.0
141
0.0
142
1.0
143
1.0
 70
   688
 72
     1
 73
     0
 74
     5
  7

 75
    16
147
1.0
148
0.0
149
0.0
100
AcDbLayout
  1
Layout1
 70
     1
 71
     1
 10
0.0
 20
0.0
 11
420.0
 21
297.0
 12
0.0
 22
0.0
 32
0.0
 14
1.0000000000E+20
 24
1.0000000000E+20
 34
1.0000000000E+20
 15
-1.0000000000E+20
 25
-1.0000000000E+20
 35
-1.0000000000E+20
146
0.0
 13
0.0
 23
0.0
 33
0.0
 16
1.0
 26
0.0
 36
0.0
 17
0.0
 27
1.0
 37
0.0
 76
     0
330
1B
  0
LAYOUT
  5
26
102
{ACAD_REACTORS
330
1A
102
}
330
1A
100
AcDbPlotSettings
  1

  2
none_device
  4

  6

 40
0.0
 41
0.0
 42
0.0
 43
0.0
 44
0.0
 45
0.0
 46
0.0
 47
0.0
 48
0.0
 49
0.0
140
0.0
141
0.0
142
1.0
143
1.0
 70
   688
 72
     1
 73
     0
 74
     5
  7

 75
    16
147
1.0
148
0.0
149
0.0
100
AcDbLayout
  1
Layout2
 70
     1
 71
     2
 10
0.0
 20
0.0
 11
0.0
 21
0.0
 12
0.0
 22
0.0
 32
0.0
 14
0.0
 24
0.0
 34
0.0
 15
0.0
 25
0.0
 35
0.0
146
0.0
 13
0.0
 23
0.0
 33
0.0
 16
1.0
 26
0.0
 36
0.0
 17
0.0
 27
1.0
 37
0.0
 76
     0
330
23
  0
LAYOUT
  5
22
102
{ACAD_REACTORS
330
1A
102
}
330
1A
100
AcDbPlotSettings
  1

  2
none_device
  4
ANSI_A_(11.00_x_8.50_Inches)
  6

 40
6.35
 41
19.05
 42
6.35000508
 43
19.05000254
 44
279.4
 45
215.9
 46
271.65299746
 47
22.5574748869
 48
0.0
 49
0.0
140
0.0
141
0.0
142
0.0045903522
143
1.0
 70
  1696
 72
     0
 73
     0
 74
     0
  7

 75
     0
147
0.0179189148
148
-1300.4909072572
149
0.0
100
AcDbLayout
  1
Model
 70
     1
 71
     0
 10
0.0
 20
0.0
 11
420.0
 21
297.0
 12
0.0
 22
0.0
 32
0.0
 14
-2372.3669960483
 24
-56.0
 34
0.0
 15
0.0
 25
1194.0
 35
0.0
146
0.0
 13
0.0
 23
0.0
 33
0.0
 16
1.0
 26
0.0
 36
0.0
 17
0.0
 27
1.0
 37
0.0
 76
     0
330
1F
331
29
  0
MLINESTYLE
  5
18
102
{ACAD_REACTORS
330
17
102
}
330
17
100
AcDbMlineStyle
  2
Standard
 70
     0
  3

 62
   256
 51
90.0
 52
90.0
 71
     2
 49
0.5
 62
   256
  6
BYLAYER
 49
-0.5
 62
   256
  6
BYLAYER
  0
ACDBPLACEHOLDER
  5
F
102
{ACAD_REACTORS
330
E
102
}
330
E
  0
SCALE
  5
48
102
{ACAD_REACTORS
330
47
102
}
330
47
100
AcDbScale
 70
     0
300
1:1
140
1.0
141
1.0
290
     1
  0
SCALE
  5
49
102
{ACAD_REACTORS
330
47
102
}
330
47
100
AcDbScale
 70
     0
300
1:2
140
1.0
141
2.0
290
     0
  0
SCALE
  5
4A
102
{ACAD_REACTORS
330
47
102
}
330
47
100
AcDbScale
 70
     0
300
1:4
140
1.0
141
4.0
290
     0
  0
SCALE
  5
4B
102
{ACAD_REACTORS
330
47
102
}
330
47
100
AcDbScale
 70
     0
300
1:5
140
1.0
141
5.0
290
     0
  0
SCALE
  5
4C
102
{ACAD_REACTORS
330
47
102
}
330
47
100
AcDbScale
 70
     0
300
1:8
140
1.0
141
8.0
290
     0
  0
SCALE
  5
4D
102
{ACAD_REACTORS
330
47
102
}
330
47
100
AcDbScale
 70
     0
300
1:10
140
1.0
141
10.0
290
     0
  0
SCALE
  5
4E
102
{ACAD_REACTORS
330
47
102
}
330
47
100
AcDbScale
 70
     0
300
1:16
140
1.0
141
16.0
290
     0
  0
SCALE
  5
4F
102
{ACAD_REACTORS
330
47
102
}
330
47
100
AcDbScale
 70
     0
300
1:20
140
1.0
141
20.0
290
     0
  0
SCALE
  5
50
102
{ACAD_REACTORS
330
47
102
}
330
47
100
AcDbScale
 70
     0
300
1:30
140
1.0
141
30.0
290
     0
  0
SCALE
  5
51
102
{ACAD_REACTORS
330
47
102
}
330
47
100
AcDbScale
 70
     0
300
1:40
140
1.0
141
40.0
290
     0
  0
SCALE
  5
52
102
{ACAD_REACTORS
330
47
102
}
330
47
100
AcDbScale
 70
     0
300
1:50
140
1.0
141
50.0
290
     0
  0
SCALE
  5
53
102
{ACAD_REACTORS
330
47
102
}
330
47
100
AcDbScale
 70
     0
300
1:100
140
1.0
141
100.0
290
     0
  0
SCALE
  5
54
102
{ACAD_REACTORS
330
47
102
}
330
47
100
AcDbScale
 70
     0
300
2:1
140
2.0
141
1.0
290
     0
  0
SCALE
  5
55
102
{ACAD_REACTORS
330
47
102
}
330
47
100
AcDbScale
 70
     0
300
4:1
140
4.0
141
1.0
290
     0
  0
SCALE
  5
56
102
{ACAD_REACTORS
330
47
102
}
330
47
100
AcDbScale
 70
     0
300
8:1
140
8.0
141
1.0
290
     0
  0
SCALE
  5
57
102
{ACAD_REACTORS
330
47
102
}
330
47
100
AcDbScale
 70
     0
300
10:1
140
10.0
141
1.0
290
     0
  0
SCALE
  5
58
102
{ACAD_REACTORS
330
47
102
}
330
47
100
AcDbScale
 70
     0
300
100:1
140
100.0
141
1.0
290
     0
  0
ENDSEC
  0
EOF
