  0
SECTION
  2
HEADER
  9
$ACADVER
  1
AC1015
  9
$ACADMAINTVER
 70
     6
  9
$DWGCODEPAGE
  3
ANSI_1252
  9
$INSBASE
 10
0.0
 20
0.0
 30
0.0
  9
$EXTMIN
 10
-585.1081034718
 20
-425.8665539326
 30
0.0
  9
$EXTMAX
 10
253.3541047286
 20
259.7735296782
 30
0.0
  9
$LIMMIN
 10
0.0
 20
0.0
  9
$LIMMAX
 10
420.0
 20
297.0
  9
$ORTHOMODE
 70
     0
  9
$REGENMODE
 70
     1
  9
$FILLMODE
 70
     1
  9
$QTEXTMODE
 70
     0
  9
$MIRRTEXT
 70
     1
  9
$LTSCALE
 40
1.0
  9
$ATTMODE
 70
     1
  9
$TEXTSIZE
 40
3.5
  9
$TRACEWID
 40
1.0
  9
$TEXTSTYLE
  7
Standard
  9
$CLAYER
  8
0
  9
$CELTYPE
  6
ByLayer
  9
$CECOLOR
 62
   256
  9
$CELTSCALE
 40
1.0
  9
$DISPSILH
 70
     0
  9
$DIMSCALE
 40
1.0
  9
$DIMASZ
 40
3.556
  9
$DIMEXO
 40
0.0
  9
$DIMDLI
 40
3.75
  9
$DIMRND
 40
0.0
  9
$DIMDLE
 40
0.0
  9
$DIMEXE
 40
1.0
  9
$DIMTP
 40
0.0
  9
$DIMTM
 40
0.0
  9
$DIMTXT
 40
3.5
  9
$DIMCEN
 40
2.5
  9
$DIMTSZ
 40
0.0
  9
$DIMTOL
 70
     0
  9
$DIMLIM
 70
     0
  9
$DIMTIH
 70
     1
  9
$DIMTOH
 70
     1
  9
$DIMSE1
 70
     0
  9
$DIMSE2
 70
     0
  9
$DIMTAD
 70
     1
  9
$DIMZIN
 70
     0
  9
$DIMBLK
  1

  9
$DIMASO
 70
     1
  9
$DIMSHO
 70
     1
  9
$DIMPOST
  1

  9
$DIMAPOST
  1

  9
$DIMALT
 70
     0
  9
$DIMALTD
 70
     3
  9
$DIMALTF
 40
0.0393700787
  9
$DIMLFAC
 40
1.0
  9
$DIMTOFL
 70
     1
  9
$DIMTVP
 40
0.0
  9
$DIMTIX
 70
     0
  9
$DIMSOXD
 70
     0
  9
$DIMSAH
 70
     0
  9
$DIMBLK1
  1

  9
$DIMBLK2
  1

  9
$DIMSTYLE
  2
ISO-25
  9
$DIMCLRD
 70
     0
  9
$DIMCLRE
 70
     0
  9
$DIMCLRT
 70
     0
  9
$DIMTFAC
 40
1.0
  9
$DIMGAP
 40
1.524
  9
$DIMJUST
 70
     0
  9
$DIMSD1
 70
     0
  9
$DIMSD2
 70
     0
  9
$DIMTOLJ
 70
     0
  9
$DIMTZIN
 70
     0
  9
$DIMALTZ
 70
     0
  9
$DIMALTTZ
 70
     0
  9
$DIMUPT
 70
     0
  9
$DIMDEC
 70
     2
  9
$DIMTDEC
 70
     2
  9
$DIMALTU
 70
     2
  9
$DIMALTTD
 70
     3
  9
$DIMTXSTY
  7
Standard
  9
$DIMAUNIT
 70
     0
  9
$DIMADEC
 70
     0
  9
$DIMALTRND
 40
0.0
  9
$DIMAZIN
 70
     0
  9
$DIMDSEP
 70
    44
  9
$DIMATFIT
 70
     3
  9
$DIMFRAC
 70
     0
  9
$DIMLDRBLK
  1

  9
$DIMLUNIT
 70
     2
  9
$DIMLWD
 70
    -2
  9
$DIMLWE
 70
    -2
  9
$DIMTMOVE
 70
     0
  9
$LUNITS
 70
     2
  9
$LUPREC
 70
     4
  9
$SKETCHINC
 40
1.0
  9
$FILLETRAD
 40
0.0
  9
$AUNITS
 70
     0
  9
$AUPREC
 70
     2
  9
$MENU
  1
.
  9
$ELEVATION
 40
0.0
  9
$PELEVATION
 40
0.0
  9
$THICKNESS
 40
0.0
  9
$LIMCHECK
 70
     0
  9
$CHAMFERA
 40
0.0
  9
$CHAMFERB
 40
0.0
  9
$CHAMFERC
 40
0.0
  9
$CHAMFERD
 40
0.0
  9
$SKPOLY
 70
     0
  9
$TDCREATE
 40
2459838.58821544
  9
$TDUCREATE
 40
2459838.504882107
  9
$TDUPDATE
 40
2459838.588278322
  9
$TDUUPDATE
 40
2459838.504944989
  9
$TDINDWG
 40
0.0000000116
  9
$TDUSRTIMER
 40
0.0000000116
  9
$USRTIMER
 70
     1
  9
$ANGBASE
 50
0.0
  9
$ANGDIR
 70
     0
  9
$PDMODE
 70
     0
  9
$PDSIZE
 40
-1.0
  9
$PLINEWID
 40
0.0
  9
$SPLFRAME
 70
     0
  9
$SPLINETYPE
 70
     6
  9
$SPLINESEGS
 70
     8
  9
$HANDSEED
  5
7D6
  9
$SURFTAB1
 70
     6
  9
$SURFTAB2
 70
     6
  9
$SURFTYPE
 70
     6
  9
$SURFU
 70
     6
  9
$SURFV
 70
     6
  9
$UCSBASE
  2

  9
$UCSNAME
  2

  9
$UCSORG
 10
0.0
 20
0.0
 30
0.0
  9
$UCSXDIR
 10
1.0
 20
0.0
 30
0.0
  9
$UCSYDIR
 10
0.0
 20
1.0
 30
0.0
  9
$UCSORTHOREF
  2

  9
$UCSORTHOVIEW
 70
     0
  9
$UCSORGTOP
 10
0.0
 20
0.0
 30
0.0
  9
$UCSORGBOTTOM
 10
0.0
 20
0.0
 30
0.0
  9
$UCSORGLEFT
 10
0.0
 20
0.0
 30
0.0
  9
$UCSORGRIGHT
 10
0.0
 20
0.0
 30
0.0
  9
$UCSORGFRONT
 10
0.0
 20
0.0
 30
0.0
  9
$UCSORGBACK
 10
0.0
 20
0.0
 30
0.0
  9
$PUCSBASE
  2

  9
$PUCSNAME
  2

  9
$PUCSORG
 10
0.0
 20
0.0
 30
0.0
  9
$PUCSXDIR
 10
1.0
 20
0.0
 30
0.0
  9
$PUCSYDIR
 10
0.0
 20
1.0
 30
0.0
  9
$PUCSORTHOREF
  2

  9
$PUCSORTHOVIEW
 70
     0
  9
$PUCSORGTOP
 10
0.0
 20
0.0
 30
0.0
  9
$PUCSORGBOTTOM
 10
0.0
 20
0.0
 30
0.0
  9
$PUCSORGLEFT
 10
0.0
 20
0.0
 30
0.0
  9
$PUCSORGRIGHT
 10
0.0
 20
0.0
 30
0.0
  9
$PUCSORGFRONT
 10
0.0
 20
0.0
 30
0.0
  9
$PUCSORGBACK
 10
0.0
 20
0.0
 30
0.0
  9
$USERI1
 70
     0
  9
$USERI2
 70
     0
  9
$USERI3
 70
     0
  9
$USERI4
 70
     0
  9
$USERI5
 70
     0
  9
$USERR1
 40
0.0
  9
$USERR2
 40
0.0
  9
$USERR3
 40
0.0
  9
$USERR4
 40
0.0
  9
$USERR5
 40
0.0
  9
$WORLDVIEW
 70
     1
  9
$SHADEDGE
 70
     3
  9
$SHADEDIF
 70
    70
  9
$TILEMODE
 70
     1
  9
$MAXACTVP
 70
    64
  9
$PINSBASE
 10
0.0
 20
0.0
 30
0.0
  9
$PLIMCHECK
 70
     0
  9
$PEXTMIN
 10
1.0000000000E+20
 20
1.0000000000E+20
 30
1.0000000000E+20
  9
$PEXTMAX
 10
-1.0000000000E+20
 20
-1.0000000000E+20
 30
-1.0000000000E+20
  9
$PLIMMIN
 10
0.0
 20
0.0
  9
$PLIMMAX
 10
420.0
 20
297.0
  9
$UNITMODE
 70
     0
  9
$VISRETAIN
 70
     1
  9
$PLINEGEN
 70
     0
  9
$PSLTSCALE
 70
     1
  9
$TREEDEPTH
 70
  3020
  9
$CMLSTYLE
  2
Standard
  9
$CMLJUST
 70
     0
  9
$CMLSCALE
 40
20.0
  9
$PROXYGRAPHICS
 70
     1
  9
$MEASUREMENT
 70
     1
  9
$CELWEIGHT
370
    -1
  9
$ENDCAPS
280
     0
  9
$JOINSTYLE
280
     0
  9
$LWDISPLAY
290
     1
  9
$INSUNITS
 70
     4
  9
$HYPERLINKBASE
  1

  9
$STYLESHEET
  1

  9
$XEDIT
290
     1
  9
$CEPSNTYPE
380
     0
  9
$PSTYLEMODE
290
     1
  9
$FINGERPRINTGUID
  2
{089a131a-97c5-4fe0-bc9f-f8088b9ac5cd}
  9
$VERSIONGUID
  2
{FAEB1C32-E019-11D5-929B-00C0DF256EC4}
  9
$EXTNAMES
290
     1
  9
$PSVPSCALE
 40
0.0
  9
$OLESTARTUP
290
     0
  0
ENDSEC
  0
SECTION
  2
CLASSES
  0
CLASS
  1
ACDBDICTIONARYWDFLT
  2
AcDbDictionaryWithDefault
  3
ObjectDBX Classes
 90
        0
280
     0
281
     0
  0
CLASS
  1
VISUALSTYLE
  2
AcDbVisualStyle
  3
ObjectDBX Classes
 90
     4095
280
     0
281
     0
  0
CLASS
  1
MATERIAL
  2
AcDbMaterial
  3
ObjectDBX Classes
 90
     1153
280
     0
281
     0
  0
CLASS
  1
SCALE
  2
AcDbScale
  3
ObjectDBX Classes
 90
     1153
280
     0
281
     0
  0
CLASS
  1
TABLESTYLE
  2
AcDbTableStyle
  3
ObjectDBX Classes
 90
     4095
280
     0
281
     0
  0
CLASS
  1
MLEADERSTYLE
  2
AcDbMLeaderStyle
  3
ACDB_MLEADERSTYLE_CLASS
 90
     4095
280
     0
281
     0
  0
CLASS
  1
SUN
  2
AcDbSun
  3
SCENEOE
 90
     1153
280
     0
281
     0
  0
CLASS
  1
ACDBPLACEHOLDER
  2
AcDbPlaceHolder
  3
ObjectDBX Classes
 90
        0
280
     0
281
     0
  0
CLASS
  1
LAYOUT
  2
AcDbLayout
  3
ObjectDBX Classes
 90
        0
280
     0
281
     0
  0
ENDSEC
  0
SECTION
  2
TABLES
  0
TABLE
  2
VPORT
  5
8
330
0
100
AcDbSymbolTable
 70
     1
  0
VPORT
  5
29
330
8
100
AcDbSymbolTableRecord
100
AcDbViewportTableRecord
  2
*Active
 70
     0
 10
0.0
 20
0.0
 11
1.0
 21
1.0
 12
-165.8769993716
 22
-83.0465121272
 13
0.0
 23
0.0
 14
10.0
 24
10.0
 15
10.0
 25
10.0
 16
0.0
 26
0.0
 36
1.0
 17
0.0
 27
0.0
 37
0.0
 40
699.352885283
 41
1.2228897176
 42
50.0
 43
0.0
 44
0.0
 50
0.0
 51
0.0
 71
     0
 72
   100
 73
     1
 74
     3
 75
     0
 76
     0
 77
     0
 78
     0
281
     0
 65
     1
110
0.0
120
0.0
130
0.0
111
1.0
121
0.0
131
0.0
112
0.0
122
1.0
132
0.0
 79
     0
146
0.0
  0
ENDTAB
  0
TABLE
  2
LTYPE
  5
5
330
0
100
AcDbSymbolTable
 70
     6
  0
LTYPE
  5
14
330
5
100
AcDbSymbolTableRecord
100
AcDbLinetypeTableRecord
  2
ByBlock
 70
     0
  3

 72
    65
 73
     0
 40
0.0
  0
LTYPE
  5
15
330
5
100
AcDbSymbolTableRecord
100
AcDbLinetypeTableRecord
  2
ByLayer
 70
     0
  3

 72
    65
 73
     0
 40
0.0
  0
LTYPE
  5
16
330
5
100
AcDbSymbolTableRecord
100
AcDbLinetypeTableRecord
  2
Continuous
 70
     0
  3
Solid line
 72
    65
 73
     0
 40
0.0
  0
LTYPE
  5
5E
330
5
100
AcDbSymbolTableRecord
100
AcDbLinetypeTableRecord
  2
HIDDEN
 70
     0
  3
Hidden __ __ __ __ __ __ __ __ __ __ __ __ __ __
 72
    65
 73
     2
 40
1.905
 49
1.27
 74
     0
 49
-0.635
 74
     0
  0
LTYPE
  5
5F
330
5
100
AcDbSymbolTableRecord
100
AcDbLinetypeTableRecord
  2
PHANTOM
 70
     0
  3
Phantom ______  __  __  ______  __  __  ______
 72
    65
 73
     6
 40
12.7
 49
6.35
 74
     0
 49
-1.27
 74
     0
 49
1.27
 74
     0
 49
-1.27
 74
     0
 49
1.27
 74
     0
 49
-1.27
 74
     0
  0
LTYPE
  5
60
330
5
100
AcDbSymbolTableRecord
100
AcDbLinetypeTableRecord
  2
CENTER
 70
     0
  3
Center ____ _ ____ _ ____ _ ____ _ ____ _ ____
 72
    65
 73
     4
 40
10.16
 49
6.35
 74
     0
 49
-1.27
 74
     0
 49
1.27
 74
     0
 49
-1.27
 74
     0
  0
LTYPE
  5
61
330
5
100
AcDbSymbolTableRecord
100
AcDbLinetypeTableRecord
  2
CENTERX2
 70
     0
  3
Center (2x) ________  __  ________  __  _____
 72
    65
 73
     4
 40
20.32
 49
12.7
 74
     0
 49
-2.54
 74
     0
 49
2.54
 74
     0
 49
-2.54
 74
     0
  0
LTYPE
  5
62
330
5
100
AcDbSymbolTableRecord
100
AcDbLinetypeTableRecord
  2
DOT2
 70
     0
  3
Dot (.5x) ........................................
 72
    65
 73
     2
 40
0.635
 49
0.0
 74
     0
 49
-0.635
 74
     0
  0
ENDTAB
  0
TABLE
  2
LAYER
  5
2
330
0
100
AcDbSymbolTable
 70
     1
  0
LAYER
  5
10
330
2
100
AcDbSymbolTableRecord
100
AcDbLayerTableRecord
  2
0
 70
     0
 62
     7
  6
Continuous
370
    -3
390
F
  0
ENDTAB
  0
TABLE
  2
STYLE
  5
3
330
0
100
AcDbSymbolTable
 70
     1
  0
STYLE
  5
11
330
3
100
AcDbSymbolTableRecord
100
AcDbTextStyleTableRecord
  2
Standard
 70
     0
 40
0.0
 41
1.0
 50
0.0
 71
     0
 42
3.5
  3
txt
  4

  0
ENDTAB
  0
TABLE
  2
VIEW
  5
6
330
0
100
AcDbSymbolTable
 70
     0
  0
ENDTAB
  0
TABLE
  2
UCS
  5
7
330
0
100
AcDbSymbolTable
 70
     0
  0
ENDTAB
  0
TABLE
  2
APPID
  5
9
330
0
100
AcDbSymbolTable
 70
     1
  0
APPID
  5
12
330
9
100
AcDbSymbolTableRecord
100
AcDbRegAppTableRecord
  2
ACAD
 70
     0
  0
ENDTAB
  0
TABLE
  2
DIMSTYLE
  5
A
330
0
100
AcDbSymbolTable
 70
     1
100
AcDbDimStyleTable
  0
DIMSTYLE
105
27
330
A
100
AcDbSymbolTableRecord
100
AcDbDimStyleTableRecord
  2
ISO-25
 70
     0
 41
2.5
 42
0.625
 43
3.75
 44
1.25
 73
     0
 74
     0
 77
     1
 78
     8
140
2.5
141
2.5
143
0.0393700787
147
0.625
171
     3
172
     1
178
     0
271
     2
272
     2
274
     3
278
    44
283
     0
284
     8
340
11
  0
ENDTAB
  0
TABLE
  2
BLOCK_RECORD
  5
1
330
0
100
AcDbSymbolTable
 70
     1
  0
BLOCK_RECORD
  5
1F
330
1
100
AcDbSymbolTableRecord
100
AcDbBlockTableRecord
  2
*Model_Space
340
22
  0
BLOCK_RECORD
  5
1B
330
1
100
AcDbSymbolTableRecord
100
AcDbBlockTableRecord
  2
*Paper_Space
340
1E
  0
BLOCK_RECORD
  5
23
330
1
100
AcDbSymbolTableRecord
100
AcDbBlockTableRecord
  2
*Paper_Space0
340
26
  0
ENDTAB
  0
ENDSEC
  0
SECTION
  2
BLOCKS
  0
BLOCK
  5
20
330
1F
100
AcDbEntity
  8
0
100
AcDbBlockBegin
  2
*Model_Space
 70
     0
 10
0.0
 20
0.0
 30
0.0
  3
*Model_Space
  1

  0
ENDBLK
  5
21
330
1F
100
AcDbEntity
  8
0
100
AcDbBlockEnd
  0
BLOCK
  5
1C
330
1B
100
AcDbEntity
 67
     1
  8
0
100
AcDbBlockBegin
  2
*Paper_Space
 70
     0
 10
0.0
 20
0.0
 30
0.0
  3
*Paper_Space
  1

  0
ENDBLK
  5
1D
330
1B
100
AcDbEntity
 67
     1
  8
0
100
AcDbBlockEnd
  0
BLOCK
  5
24
330
23
100
AcDbEntity
  8
0
100
AcDbBlockBegin
  2
*Paper_Space0
 70
     0
 10
0.0
 20
0.0
 30
0.0
  3
*Paper_Space0
  1

  0
ENDBLK
  5
25
330
23
100
AcDbEntity
  8
0
100
AcDbBlockEnd
  0
ENDSEC
  0
SECTION
  2
ENTITIES
  0
LWPOLYLINE
  5
E5
330
1F
100
AcDbEntity
  8
0
  6
Continuous
 62
     7
370
    25
100
AcDbPolyline
 90
      102
 70
   128
 43
0.0
 10
-51.7011979628
 20
76.1740060492
 10
-49.0339531755
 20
77.6342915597
 10
-46.1881216613
 20
78.7872640174
 10
-43.1747133894
 20
79.6284627958
 10
-40.005386651
 20
80.1546334603
 10
-36.6924029556
 20
80.3637403589
 10
-33.2485795935
 20
80.2549744975
 10
-29.6872400482
 20
79.8287566701
 10
-26.0221624506
 20
79.0867358307
 10
-22.267526274
 20
78.0317827138
 10
-18.4378574763
 20
76.667978728
 10
-14.547972302
 20
75.0006001661
 10
-10.6129199614
 20
73.0360977917
 10
-6.6479244073
 20
70.7820718829
 10
-2.6683254374
 20
68.2472428281
 10
1.3104806531
 20
65.4414173884
 10
5.2731006363
 20
62.3754507575
 10
9.2042039054
 20
59.0612045645
 10
13.0885817854
 20
55.5115009841
 10
16.911206373
 20
51.74007313
 10
20.6572886762
 20
47.7615119237
 10
24.3123358304
 20
43.5912096458
 10
27.8622071681
 20
39.2453003856
 10
31.2931689268
 20
34.7405976216
 10
34.591947382
 20
30.0945291739
 10
37.7457802006
 20
25.3250697787
 10
40.7424658162
 20
20.4506715477
 10
43.5704106343
 20
15.4901925809
 10
46.2186738857
 20
10.4628240076
 10
48.6770099545
 20
5.3880157403
 10
50.9359080159
 20
0.2854012263
 10
52.9866288321
 20
-4.8252785102
 10
54.8212385628
 20
-9.924251242
 10
56.4326394592
 20
-14.9917900344
 10
57.8145973244
 20
-20.008289564
 10
58.9617656318
 20
-24.9543419688
 10
59.8697062102
 20
-29.8108119329
 10
60.5349064137
 20
-34.5589107175
 10
60.954792712
 20
-39.1802688507
 10
61.1277406467
 20
-43.6570071957
 10
61.0530811157
 20
-47.9718061216
 10
60.7311029623
 20
-52.1079725094
 10
60.1630518574
 20
-56.0495043351
 10
59.3511254804
 20
-59.7811525776
 10
58.2984650167
 20
-63.2884802148
 10
57.0091430051
 20
-66.5579180775
 10
55.488147582
 20
-69.5768173458
 10
53.7413631832
 20
-72.3334984847
 10
51.7755477783
 20
-74.8172964307
 10
49.5983067252
 20
-77.0186018518
 10
47.2180633464
 20
-78.9288983251
 10
44.6440263412
 20
-80.5407952846
 10
41.8861541589
 20
-81.8480566142
 10
38.955116471
 20
-82.8456247736
 10
35.8622528929
 20
-83.5296403656
 10
32.6195291131
 20
-83.8974570666
 10
29.2394905999
 20
-83.9476518652
 10
25.7352140656
 20
-83.6800305677
 10
22.1202568753
 20
-83.0956285487
 10
18.4086045963
 20
-82.1967067461
 10
14.6146168901
 20
-80.9867429139
 10
10.7529719581
 20
-79.4704181669
 10
6.8386097543
 20
-77.653598871
 10
2.8866741857
 20
-75.5433139473
 10
-1.0875454767
 20
-73.147727678
 10
-5.0686737492
 20
-70.4761081211
 10
-9.0413084198
 20
-67.5387912536
 10
-12.9900801367
 20
-64.3471409838
 10
-16.8997118693
 20
-60.9135051867
 10
-20.755078012
 20
-57.2511679321
 10
-24.5412629021
 20
-53.3742980913
 10
-28.2436185257
 20
-49.2978945206
 10
-31.8478211883
 20
-45.0377280336
 10
-35.3399269299
 20
-40.6102803867
 10
-38.7064254718
 20
-36.0326805147
 10
-41.9342924852
 20
-31.3226382624
 10
-45.0110399795
 20
-26.4983758681
 10
-47.9247646166
 20
-21.578557466
 10
-50.6641937617
 20
-16.5822168775
 10
-53.2187290958
 20
-11.5286839739
 10
-55.5784876179
 20
-6.4375098922
 10
-57.7343398806
 20
-1.3283913958
 10
-59.6779453104
 20
3.7789053282
 10
-61.4017844755
 20
8.8646211411
 10
-62.899188177
 20
13.9090803964
 10
-64.1643632509
 20
18.8927670611
 10
-65.1924149806
 20
23.7964002198
 10
-65.9793660337
 20
28.6010086683
 10
-66.5221718494
 20
33.2880043099
 10
-66.8187324175
 20
37.8392540691
 10
-66.8679004028
 20
42.2371500447
 10
-66.6694855838
 20
46.4646776315
 10
-66.224255589
 20
50.5054813466
 10
-65.5339329268
 20
54.3439281053
 10
-64.6011883213
 20
57.9651677029
 10
-63.4296303803
 20
61.3551902669
 10
-62.0237916339
 20
64.5008804584
 10
-60.389110999
 20
67.3900682133
 10
-58.5319127375
 20
70.0115758254
 10
-56.4593819886
 20
72.355261191
 10
-54.1795369712
 20
74.4120570468
 10
-51.7011979628
 20
76.1740060492
  0
LWPOLYLINE
  5
E6
330
1F
100
AcDbEntity
  8
0
  6
Continuous
 62
     7
370
    25
100
AcDbPolyline
 90
       29
 70
   128
 43
0.0
 10
-73.6942216815
 20
35.2806695991
 10
-73.0867085762
 20
35.8681789299
 10
-72.6959527842
 20
36.7237209447
 10
-72.5415484326
 20
37.8043951945
 10
-72.6312380003
 20
39.0560121599
 10
-72.9605240779
 20
40.41581054
 10
-73.5128948864
 20
41.8156043659
 10
-74.2606522471
 20
43.1852021302
 10
-75.1663004835
 20
44.4559264821
 10
-76.1844266113
 20
45.5640579964
 10
-77.2639775352
 20
46.454030332
 10
-78.3508200641
 20
47.0812165595
 10
-79.3904553753
 20
47.4141669429
 10
-80.3307518131
 20
47.4361859594
 10
-81.1245589879
 20
47.1461694837
 10
-81.7320720932
 20
46.558660153
 10
-82.1228278852
 20
45.7031181381
 10
-82.2772322368
 20
44.6224438883
 10
-82.1875426691
 20
43.3708269229
 10
-81.8582565915
 20
42.0110285428
 10
-81.3058857829
 20
40.6112347169
 10
-80.5581284223
 20
39.2416369526
 10
-79.6524801859
 20
37.9709126007
 10
-78.6343540581
 20
36.8627810864
 10
-77.5548031341
 20
35.9728087509
 10
-76.4679606053
 20
35.3456225233
 10
-75.4283252941
 20
35.01267214
 10
-74.4880288562
 20
34.9906531234
 10
-73.6942216815
 20
35.2806695991
  0
LWPOLYLINE
  5
E7
330
1F
100
AcDbEntity
  8
0
  6
Continuous
 62
     7
370
    25
100
AcDbPolyline
 90
       23
 70
   128
 43
0.0
 10
79.9940420961
 20
-119.4960358541
 10
80.4675781231
 20
-118.9844286628
 10
80.7092633757
 20
-118.2052884826
 10
80.6995179521
 20
-117.2217366172
 10
80.4391313686
 20
-116.1134545893
 10
79.9491985976
 20
-114.9702288177
 10
79.2694110784
 20
-113.8846766552
 10
78.454841153
 20
-112.9447430822
 10
77.5714804323
 20
-112.2265759266
 10
76.6908935484
 20
-111.7883568204
 10
75.8844204135
 20
-111.6655876692
 10
75.2173966848
 20
-111.8682144997
 10
74.7438606578
 20
-112.379821691
 10
74.5021754052
 20
-113.1589618712
 10
74.5119208288
 20
-114.1425137366
 10
74.7723074123
 20
-115.2507957645
 10
75.2622401833
 20
-116.3940215361
 10
75.9420277025
 20
-117.4795736986
 10
76.7565976279
 20
-118.4195072716
 10
77.6399583486
 20
-119.1376744272
 10
78.5205452325
 20
-119.5758935334
 10
79.3270183674
 20
-119.6986626846
 10
79.9940420961
 20
-119.4960358541
  0
LWPOLYLINE
  5
E8
330
1F
100
AcDbEntity
  8
0
  6
Continuous
 62
     7
370
    25
100
AcDbPolyline
 90
       29
 70
   128
 43
0.0
 10
-5.3090471686
 20
78.1043953863
 10
-4.7015340633
 20
78.6919047171
 10
-4.3107782713
 20
79.5474467319
 10
-4.1563739197
 20
80.6281209817
 10
-4.2460634874
 20
81.8797379471
 10
-4.575349565
 20
83.2395363272
 10
-5.1277203735
 20
84.6393301531
 10
-5.8754777342
 20
86.0089279174
 10
-6.7811259706
 20
87.2796522693
 10
-7.7992520984
 20
88.3877837836
 10
-8.8788030223
 20
89.2777561192
 10
-9.9656455512
 20
89.9049423468
 10
-11.0052808624
 20
90.2378927301
 10
-11.9455773002
 20
90.2599117466
 10
-12.739384475
 20
89.9698952709
 10
-13.3468975803
 20
89.3823859402
 10
-13.7376533723
 20
88.5268439253
 10
-13.8920577239
 20
87.4461696755
 10
-13.8023681562
 20
86.1945527101
 10
-13.4730820786
 20
84.83475433
 10
-12.92071127
 20
83.4349605041
 10
-12.1729539094
 20
82.0653627398
 10
-11.267305673
 20
80.7946383879
 10
-10.2491795452
 20
79.6865068736
 10
-9.1696286212
 20
78.7965345381
 10
-8.0827860924
 20
78.1693483105
 10
-7.0431507812
 20
77.8363979272
 10
-6.1028543433
 20
77.8143789106
 10
-5.3090471686
 20
78.1043953863
  0
LWPOLYLINE
  5
E9
330
1F
100
AcDbEntity
  8
0
  6
Continuous
 62
     7
370
    25
100
AcDbPolyline
 90
       29
 70
   128
 43
0.0
 10
75.3780248037
 20
-50.7447272981
 10
75.985537909
 20
-50.1572179673
 10
76.376293701
 20
-49.3016759525
 10
76.5306980526
 20
-48.2210017027
 10
76.4410084849
 20
-46.9693847373
 10
76.1117224073
 20
-45.6095863572
 10
75.5593515987
 20
-44.2097925313
 10
74.8115942381
 20
-42.840194767
 10
73.9059460017
 20
-41.5694704151
 10
72.8878198739
 20
-40.4613389008
 10
71.8082689499
 20
-39.5713665652
 10
70.7214264211
 20
-38.9441803376
 10
69.6817911099
 20
-38.6112299543
 10
68.741494672
 20
-38.5892109378
 10
67.9476874973
 20
-38.8792274135
 10
67.340174392
 20
-39.4667367442
 10
66.9494186
 20
-40.3222787591
 10
66.7950142484
 20
-41.4029530089
 10
66.8847038161
 20
-42.6545699743
 10
67.2139898937
 20
-44.0143683544
 10
67.7663607022
 20
-45.4141621803
 10
68.5141180629
 20
-46.7837599446
 10
69.4197662993
 20
-48.0544842965
 10
70.4378924271
 20
-49.1626158108
 10
71.517443351
 20
-50.0525881463
 10
72.6042858799
 20
-50.6797743739
 10
73.6439211911
 20
-51.0127247572
 10
74.5842176289
 20
-51.0347437738
 10
75.3780248037
 20
-50.7447272981
  0
LWPOLYLINE
  5
EA
330
1F
100
AcDbEntity
  8
0
  6
Continuous
 62
     7
370
    25
100
AcDbPolyline
 90
       29
 70
   128
 43
0.0
 10
6.9928502908
 20
-93.5684530853
 10
7.6003633961
 20
-92.9809437545
 10
7.9911191881
 20
-92.1254017397
 10
8.1455235397
 20
-91.0447274899
 10
8.055833972
 20
-89.7931105245
 10
7.7265478944
 20
-88.4333121444
 10
7.1741770858
 20
-87.0335183185
 10
6.4264197252
 20
-85.6639205542
 10
5.5207714888
 20
-84.3931962023
 10
4.502645361
 20
-83.285064688
 10
3.423094437
 20
-82.3950923524
 10
2.3362519082
 20
-81.7679061249
 10
1.296616597
 20
-81.4349557415
 10
0.3563201591
 20
-81.412936725
 10
-0.4374870156
 20
-81.7029532007
 10
-1.0450001209
 20
-82.2904625314
 10
-1.4357559129
 20
-83.1460045463
 10
-1.5901602645
 20
-84.2266787961
 10
-1.5004706968
 20
-85.4782957615
 10
-1.1711846192
 20
-86.8380941416
 10
-0.6188138107
 20
-88.2378879675
 10
0.12894355
 20
-89.6074857318
 10
1.0345917864
 20
-90.8782100837
 10
2.0527179142
 20
-91.986341598
 10
3.1322688381
 20
-92.8763139335
 10
4.219111367
 20
-93.5035001611
 10
5.2587466782
 20
-93.8364505445
 10
6.199043116
 20
-93.858469561
 10
6.9928502908
 20
-93.5684530853
  0
LWPOLYLINE
  5
EB
330
1F
100
AcDbEntity
  8
0
  6
Continuous
 62
     7
370
    25
100
AcDbPolyline
 90
       23
 70
   128
 43
0.0
 10
29.1563502659
 20
-127.1360470297
 10
29.6298862929
 20
-126.6244398383
 10
29.8715715455
 20
-125.8452996581
 10
29.861826122
 20
-124.8617477927
 10
29.6014395384
 20
-123.7534657649
 10
29.1115067674
 20
-122.6102399932
 10
28.4317192482
 20
-121.5246878308
 10
27.6171493228
 20
-120.5847542578
 10
26.7337886021
 20
-119.8665871022
 10
25.8532017182
 20
-119.4283679959
 10
25.0467285834
 20
-119.3055988448
 10
24.3797048546
 20
-119.5082256752
 10
23.9061688276
 20
-120.0198328666
 10
23.664483575
 20
-120.7989730468
 10
23.6742289986
 20
-121.7825249122
 10
23.9346155821
 20
-122.8908069401
 10
24.4245483531
 20
-124.0340327117
 10
25.1043358723
 20
-125.1195848741
 10
25.9189057977
 20
-126.0595184472
 10
26.8022665184
 20
-126.7776856027
 10
27.6828534023
 20
-127.215904709
 10
28.4893265372
 20
-127.3386738601
 10
29.1563502659
 20
-127.1360470297
  0
LWPOLYLINE
  5
EC
330
1F
100
AcDbEntity
  8
0
  6
Continuous
 62
     7
370
    25
100
AcDbPolyline
 90
       23
 70
   128
 43
0.0
 10
-80.963930869
 20
108.2696566853
 10
-80.490394842
 20
108.7812638766
 10
-80.2487095894
 20
109.5604040568
 10
-80.258455013
 20
110.5439559222
 10
-80.5188415965
 20
111.6522379501
 10
-81.0087743675
 20
112.7954637217
 10
-81.6885618867
 20
113.8810158842
 10
-82.5031318121
 20
114.8209494572
 10
-83.3864925328
 20
115.5391166128
 10
-84.2670794167
 20
115.977335719
 10
-85.0735525516
 20
116.1001048702
 10
-85.7405762803
 20
115.8974780397
 10
-86.2141123073
 20
115.3858708484
 10
-86.4557975599
 20
114.6067306682
 10
-86.4460521363
 20
113.6231788028
 10
-86.1856655528
 20
112.5148967749
 10
-85.6957327818
 20
111.3716710033
 10
-85.0159452626
 20
110.2861188408
 10
-84.2013753372
 20
109.3461852678
 10
-83.3180146165
 20
108.6280181122
 10
-82.4374277326
 20
108.189799006
 10
-81.6309545977
 20
108.0670298548
 10
-80.963930869
 20
108.2696566853
  0
LWPOLYLINE
  5
ED
330
1F
100
AcDbEntity
  8
0
  6
Continuous
 62
     7
370
    25
100
AcDbPolyline
 90
       23
 70
   128
 43
0.0
 10
-30.1262390388
 20
115.9096678609
 10
-29.6527030118
 20
116.4212750522
 10
-29.4110177592
 20
117.2004152324
 10
-29.4207631828
 20
118.1839670978
 10
-29.6811497663
 20
119.2922491257
 10
-30.1710825373
 20
120.4354748973
 10
-30.8508700565
 20
121.5210270598
 10
-31.6654399819
 20
122.4609606328
 10
-32.5488007026
 20
123.1791277884
 10
-33.4293875865
 20
123.6173468946
 10
-34.2358607214
 20
123.7401160458
 10
-34.9028844501
 20
123.5374892153
 10
-35.3764204771
 20
123.025882024
 10
-35.6181057297
 20
122.2467418438
 10
-35.6083603062
 20
121.2631899784
 10
-35.3479737226
 20
120.1549079505
 10
-34.8580409516
 20
119.0116821788
 10
-34.1782534324
 20
117.9261300164
 10
-33.363683507
 20
116.9861964434
 10
-32.4803227863
 20
116.2680292878
 10
-31.5997359024
 20
115.8298101815
 10
-30.7932627676
 20
115.7070410304
 10
-30.1262390388
 20
115.9096678609
  0
LWPOLYLINE
  5
12D
330
1F
100
AcDbEntity
  8
0
  6
Continuous
 62
     7
370
    25
100
AcDbPolyline
 90
       51
 70
   128
 43
0.0
 10
47.3618660828
 20
-78.8259256826
 10
44.759421251
 20
-80.048777707
 10
41.8283835631
 20
-81.0463458664
 10
38.735519985
 20
-81.7303614584
 10
35.4927962052
 20
-82.0981781594
 10
32.112757692
 20
-82.1483729581
 10
28.6084811577
 20
-81.8807516605
 10
24.9935239674
 20
-81.2963496415
 10
21.2818716884
 20
-80.3974278389
 10
17.4878839822
 20
-79.1874640067
 10
13.6262390502
 20
-77.6711392597
 10
9.7118768464
 20
-75.8543199639
 10
5.7599412778
 20
-73.7440350401
 10
1.7857216154
 20
-71.3484487708
 10
-2.1954066571
 20
-68.6768292139
 10
-6.1680413277
 20
-65.7395123464
 10
-10.1168130446
 20
-62.5478620766
 10
-14.0264447772
 20
-59.1142262795
 10
-17.8818109199
 20
-55.4518890249
 10
-21.66799581
 20
-51.5750191841
 10
-25.3703514336
 20
-47.4986156134
 10
-28.9745540962
 20
-43.2384491264
 10
-32.4666598378
 20
-38.8110014795
 10
-35.8331583797
 20
-34.2334016075
 10
-39.0610253931
 20
-29.5233593552
 10
-42.1377728874
 20
-24.6990969609
 10
-45.0514975245
 20
-19.7792785588
 10
-47.7909266696
 20
-14.7829379703
 10
-50.3454620037
 20
-9.7294050667
 10
-52.7052205258
 20
-4.638230985
 10
-54.8610727885
 20
0.4708875114
 10
-56.8046782183
 20
5.5781842354
 10
-58.5285173834
 20
10.6639000483
 10
-60.0259210849
 20
15.7083593036
 10
-61.2910961588
 20
20.6920459683
 10
-62.3191478885
 20
25.5956791269
 10
-63.1060989416
 20
30.4002875755
 10
-63.6489047573
 20
35.0872832171
 10
-63.9454653254
 20
39.6385329763
 10
-63.9946333107
 20
44.0364289519
 10
-63.7962184917
 20
48.2639565387
 10
-63.3509884969
 20
52.3047602538
 10
-62.6606658347
 20
56.1432070125
 10
-61.7279212292
 20
59.7644466101
 10
-60.5563632882
 20
63.154469174
 10
-59.1505245418
 20
66.3001593656
 10
-57.5158439069
 20
69.1893471205
 10
-55.6586456454
 20
71.8108547326
 10
-53.5861148965
 20
74.1545400982
 10
-51.3062698791
 20
76.211335954
 10
-50.2351331749
 20
77.0266467754
  0
LWPOLYLINE
  5
132
330
1F
100
AcDbEntity
  8
0
  6
Continuous
 62
     7
370
    25
100
AcDbPolyline
 90
       11
 70
   128
 43
0.0
 10
-4.2816465489
 20
79.6575385828
 10
-5.2095190003
 20
79.9686272177
 10
-6.2963615291
 20
80.5958134453
 10
-7.3759124531
 20
81.4857857808
 10
-8.3940385809
 20
82.5939172951
 10
-9.2996868173
 20
83.864641647
 10
-10.0474441779
 20
85.2342394113
 10
-10.5998149865
 20
86.6340332372
 10
-10.9291010641
 20
87.9938316173
 10
-11.0187906318
 20
89.2454485827
 10
-10.8935180025
 20
90.2160309816
  0
LWPOLYLINE
  5
133
330
1F
100
AcDbEntity
  8
0
  6
Continuous
 62
     7
370
    25
100
AcDbPolyline
 90
       11
 70
   128
 43
0.0
 10
76.4054254233
 20
-49.1915841016
 10
75.477552972
 20
-48.8804954667
 10
74.3907104431
 20
-48.2533092391
 10
73.3111595192
 20
-47.3633369036
 10
72.2930333914
 20
-46.2552053893
 10
71.387385155
 20
-44.9844810374
 10
70.6396277943
 20
-43.6148832731
 10
70.0872569858
 20
-42.2150894472
 10
69.7579709082
 20
-40.8552910671
 10
69.6682813405
 20
-39.6036741017
 10
69.7935539697
 20
-38.6330917028
  0
LWPOLYLINE
  5
13C
330
1F
100
AcDbEntity
  8
0
  6
Continuous
 62
     7
370
    25
100
AcDbPolyline
 90
       11
 70
   128
 43
0.0
 10
-72.6668210618
 20
36.8338127956
 10
-73.5946935132
 20
37.1449014305
 10
-74.681536042
 20
37.7720876581
 10
-75.761086966
 20
38.6620599936
 10
-76.7792130938
 20
39.7701915079
 10
-77.6848613302
 20
41.0409158598
 10
-78.4326186908
 20
42.4105136241
 10
-78.9849894994
 20
43.81030745
 10
-79.314275577
 20
45.1701058301
 10
-79.4039651447
 20
46.4217227955
 10
-79.2786925154
 20
47.3923051944
  0
LWPOLYLINE
  5
13D
330
1F
100
AcDbEntity
  8
0
  6
Continuous
 62
     7
370
    25
100
AcDbPolyline
 90
       11
 70
   128
 43
0.0
 10
8.0202509104
 20
-92.0153098888
 10
7.0923784591
 20
-91.7042212539
 10
6.0055359302
 20
-91.0770350264
 10
4.9259850063
 20
-90.1870626908
 10
3.9078588785
 20
-89.0789311765
 10
3.0022106421
 20
-87.8082068246
 10
2.2544532814
 20
-86.4386090603
 10
1.7020824729
 20
-85.0388152344
 10
1.3727963953
 20
-83.6790168543
 10
1.2831068276
 20
-82.4273998889
 10
1.4083794568
 20
-81.45681749
  0
LWPOLYLINE
  5
14F
330
1F
100
AcDbEntity
  8
0
  6
Continuous
 62
     7
370
    25
100
AcDbPolyline
 90
       11
 70
   128
 43
0.0
 10
59.2800292323
 20
132.1032091329
 10
58.930015362
 20
131.8302500901
 10
58.4158704528
 20
131.0878347807
 10
58.1980004902
 20
130.1612126603
 10
58.302683807
 20
129.1621480319
 10
58.7172940503
 20
128.2111428344
 10
59.3918231058
 20
127.4229023299
 10
60.2449128143
 20
126.8924999566
 10
61.1736679669
 20
126.6839100684
 10
62.066066985
 20
126.8222916845
 10
62.4644595065
 20
127.0179948966
  0
LWPOLYLINE
  5
150
330
1F
100
AcDbEntity
  8
0
  6
Continuous
 62
     7
370
    25
100
AcDbPolyline
 90
       11
 70
   128
 43
0.0
 10
127.5201226697
 20
174.8360831787
 10
127.1701087994
 20
174.5631241358
 10
126.6559638902
 20
173.8207088265
 10
126.4380939276
 20
172.894086706
 10
126.5427772444
 20
171.8950220776
 10
126.9573874877
 20
170.9440168801
 10
127.6319165432
 20
170.1557763757
 10
128.4850062517
 20
169.6253740023
 10
129.4137614042
 20
169.4167841142
 10
130.3061604224
 20
169.5551657302
 10
130.7045529439
 20
169.7508689424
  0
LWPOLYLINE
  5
1D9
330
1F
100
AcDbEntity
  8
0
  6
Continuous
 62
     7
370
    25
100
AcDbPolyline
 90
       19
 70
   128
 43
0.0
 10
213.5317368754
 20
42.2749008036
 10
212.85720782
 20
43.063141308
 10
212.0041181114
 20
43.5935436814
 10
211.0753629589
 20
43.8021335695
 10
210.1829639408
 20
43.6637519535
 10
209.434557549
 20
43.1950896985
 10
208.9204126398
 20
42.4526743891
 10
208.7025426772
 20
41.5260522687
 10
208.807225994
 20
40.5269876403
 10
209.2218362373
 20
39.5759824428
 10
209.8963652928
 20
38.7877419384
 10
210.7494550013
 20
38.257339565
 10
211.6782101538
 20
38.0487496768
 10
212.570609172
 20
38.1871312929
 10
213.3190155637
 20
38.6557935479
 10
213.8331604729
 20
39.3982088572
 10
214.0510304356
 20
40.3248309777
 10
213.9463471187
 20
41.3238956061
 10
213.5317368754
 20
42.2749008036
  0
LWPOLYLINE
  5
1DA
330
1F
100
AcDbEntity
  8
0
  6
Continuous
 62
     7
370
    25
100
AcDbPolyline
 90
       11
 70
   128
 43
0.0
 10
141.5444779819
 20
0.7351746956
 10
141.1944641116
 20
0.4622156527
 10
140.6803192024
 20
-0.2801996566
 10
140.4624492398
 20
-1.2068217771
 10
140.5671325566
 20
-2.2058864054
 10
140.9817427999
 20
-3.1568916029
 10
141.6562718554
 20
-3.9451321074
 10
142.5093615639
 20
-4.4755344807
 10
143.4381167164
 20
-4.6841243689
 10
144.3305157346
 20
-4.5457427529
 10
144.7289082561
 20
-4.3500395407
  0
LWPOLYLINE
  5
25D
330
1F
100
AcDbEntity
  8
0
  6
Continuous
 62
     7
370
    25
100
AcDbPolyline
 90
      122
 70
   128
 43
0.0
 10
-425.6691989609
 20
-419.9457062633
 10
-422.7270424874
 20
-417.896537298
 10
-419.9788185362
 20
-415.5558676952
 10
-417.4319358335
 20
-412.9300074864
 10
-415.0932603245
 20
-410.0260355263
 10
-412.969096665
 20
-406.85178041
 10
-411.0651712248
 20
-403.4157993681
 10
-409.3866166501
 20
-399.7273551979
 10
-407.9379580273
 20
-395.796391293
 10
-406.7231006841
 20
-391.6335048369
 10
-405.7453196609
 20
-387.2499182355
 10
-405.0072508825
 20
-382.6574488634
 10
-404.510884052
 20
-377.868477206
 10
-404.2575572864
 20
-372.8959134842
 10
-404.2479535101
 20
-367.7531628507
 10
-404.482098613
 20
-362.454089252
 10
-404.9593613813
 20
-357.0129780536
 10
-405.6784551991
 20
-351.4444975294
 10
-406.6374415165
 20
-345.7636593183
 10
-407.833735076
 20
-339.9857779558
 10
-409.2641108815
 20
-334.1264295885
 10
-410.924712893
 20
-328.2014099837
 10
-412.8110644208
 20
-322.2266919468
 10
-414.9180801948
 20
-316.2183822612
 10
-417.2400800729
 20
-310.1926782677
 10
-419.7708043541
 20
-304.1658241987
 10
-422.5034306531
 20
-298.1540673875
 10
-425.4305922925
 20
-292.1736144675
 10
-428.5443981621
 20
-286.2405876823
 10
-431.8364539917
 20
-280.3709814234
 10
-435.2978849808
 20
-274.5806191114
 10
-438.9193597235
 20
-268.8851105394
 10
-442.6911153641
 20
-263.2998097915
 10
-446.6029839163
 20
-257.8397738512
 10
-450.6444196741
 20
-252.5197220099
 10
-454.8045276411
 20
-247.3539961869
 10
-459.0720929019
 20
-242.3565222657
 10
-463.4356108548
 20
-237.5407725525
 10
-467.8833182271
 20
-232.919729457
 10
-472.4032247859
 20
-228.5058504945
 10
-476.9831456624
 20
-224.3110347023
 10
-481.6107341994
 20
-220.3465905621
 10
-486.2735152366
 20
-216.6232055144
 10
-490.9589187405
 20
-213.1509171471
 10
-495.6543136917
 20
-209.9390861356
 10
-500.3470421356
 20
-206.9963710086
 10
-505.0244533059
 20
-204.3307048057
 10
-509.673937729
 20
-201.9492736918
 10
-514.282961217
 20
-199.858497584
 10
-518.8390986575
 20
-198.0640128452
 10
-523.3300675093
 20
-196.570657089
 10
-527.7437609145
 20
-195.3824561384
 10
-532.0682803359
 20
-194.5026131731
 10
-536.2919676338
 20
-193.9335000942
 10
-540.403436494
 20
-193.67665113
 10
-544.3916031233
 20
-193.7327586998
 10
-548.2457161296
 20
-194.1016715476
 10
-551.9553855056
 20
-194.7823951495
 10
-555.5106106385
 20
-195.7730943951
 10
-558.9018072699
 20
-197.0710985343
 10
-562.1198333333
 20
-198.6729083776
 10
-565.1560135993
 20
-200.5742057286
 10
-568.0021630628
 20
-202.769865026
 10
-570.6506090079
 20
-205.2539671604
 10
-573.0942116927
 20
-208.0198154317
 10
-575.3263835963
 20
-211.059953602
 10
-577.3411071779
 20
-214.3661859961
 10
-579.1329510989
 20
-217.9295995961
 10
-580.697084865
 20
-221.740588069
 10
-582.029291848
 20
-225.7888776636
 10
-583.1259806534
 20
-230.0635549069
 10
-583.9841948021
 20
-234.5530960248
 10
-584.6016207005
 20
-239.2453980081
 10
-584.9765938775
 20
-244.1278112404
 10
-585.1081034718
 20
-249.1871735986
 10
-584.9957949566
 20
-254.4098459365
 10
-584.639971096
 20
-259.7817488527
 10
-584.0415911281
 20
-265.2884006468
 10
-583.2022681796
 20
-270.914956359
 10
-582.1242649167
 20
-276.6462477898
 10
-580.8104874455
 20
-282.466824391
 10
-579.2644774781
 20
-288.360994917
 10
-577.4904027837
 20
-294.3128697262
 10
-575.4930459543
 20
-300.3064036163
 10
-573.2777915106
 20
-306.3254390796
 10
-570.850611387
 20
-312.3537498608
 10
-568.218048832
 20
-318.3750846996
 10
-565.3872007687
 20
-324.373211142
 10
-562.3656986632
 20
-330.3319592995
 10
-559.1616879509
 20
-336.2352654405
 10
-555.7838060781
 20
-342.0672152954
 10
-552.2411592173
 20
-347.8120869585
 10
-548.543297718
 20
-353.4543932714
 10
-544.700190361
 20
-358.9789235739
 10
-540.7221974844
 20
-364.370784709
 10
-536.6200430537
 20
-369.6154411723
 10
-532.4047857518
 20
-374.6987542973
 10
-528.0877891673
 20
-379.6070203705
 10
-523.6806911598
 20
-384.3270075743
 10
-519.1953724862
 20
-388.8459916577
 10
-514.6439247728
 20
-393.1517902386
 10
-510.0386179178
 20
-397.2327956452
 10
-505.3918670145
 20
-401.0780062085
 10
-500.7161988815
 20
-404.6770559206
 10
-496.0242182937
 20
-408.0202423799
 10
-491.3285740011
 20
-411.0985529466
 10
-486.6419246306
 20
-413.9036890398
 10
-481.9769045603
 20
-416.4280885084
 10
-477.3460898595
 20
-418.6649460178
 10
-472.7619643859
 20
-420.6082313957
 10
-468.2368861314
 20
-422.2527058882
 10
-463.7830539069
 20
-423.5939362828
 10
-459.4124744567
 20
-424.6283068595
 10
-455.1369300902
 20
-425.3530291381
 10
-450.9679469191
 20
-425.7661493956
 10
-446.9167637851
 20
-425.8665539326
 10
-442.9943019616
 20
-425.6539720763
 10
-439.2111357122
 20
-425.1289769099
 10
-435.5774637842
 20
-424.2929837274
 10
-432.1030819148
 20
-423.1482462187
 10
-428.7973564232
 20
-421.6978503938
 10
-425.6691989609
 20
-419.9457062633
  0
LWPOLYLINE
  5
25E
330
1F
100
AcDbEntity
  8
0
  6
Continuous
 62
     7
370
    25
100
AcDbPolyline
 90
       62
 70
   128
 43
0.0
 10
-422.7959318688
 20
-418.1464273561
 10
-419.8537753953
 20
-416.0972583908
 10
-417.1055514441
 20
-413.756588788
 10
-414.5586687414
 20
-411.1307285792
 10
-412.2199932324
 20
-408.2267566191
 10
-410.0958295729
 20
-405.0525015028
 10
-408.1919041327
 20
-401.6165204609
 10
-406.513349558
 20
-397.9280762908
 10
-405.0646909352
 20
-393.9971123858
 10
-403.849833592
 20
-389.8342259297
 10
-402.8720525688
 20
-385.4506393283
 10
-402.1339837904
 20
-380.8581699562
 10
-401.6376169599
 20
-376.0691982988
 10
-401.3842901943
 20
-371.096634577
 10
-401.374686418
 20
-365.9538839436
 10
-401.6088315209
 20
-360.6548103448
 10
-402.0860942892
 20
-355.2136991464
 10
-402.805188107
 20
-349.6452186222
 10
-403.7641744244
 20
-343.9643804111
 10
-404.9604679839
 20
-338.1864990486
 10
-406.3908437894
 20
-332.3271506813
 10
-408.0514458009
 20
-326.4021310765
 10
-409.9377973287
 20
-320.4274130396
 10
-412.0448131027
 20
-314.419103354
 10
-414.3668129808
 20
-308.3933993605
 10
-416.897537262
 20
-302.3665452916
 10
-419.630163561
 20
-296.3547884803
 10
-422.5573252004
 20
-290.3743355603
 10
-425.67113107
 20
-284.4413087751
 10
-428.9631868996
 20
-278.5717025162
 10
-432.4246178887
 20
-272.7813402042
 10
-436.0460926314
 20
-267.0858316322
 10
-439.817848272
 20
-261.5005308843
 10
-443.7297168242
 20
-256.040494944
 10
-447.771152582
 20
-250.7204431027
 10
-451.931260549
 20
-245.5547172797
 10
-456.1988258098
 20
-240.5572433585
 10
-460.5623437627
 20
-235.7414936453
 10
-465.010051135
 20
-231.1204505498
 10
-469.5299576938
 20
-226.7065715873
 10
-474.1098785703
 20
-222.5117557951
 10
-478.7374671073
 20
-218.5473116549
 10
-483.4002481445
 20
-214.8239266073
 10
-488.0856516484
 20
-211.3516382399
 10
-492.7810465996
 20
-208.1398072284
 10
-497.4737750435
 20
-205.1970921014
 10
-502.1511862138
 20
-202.5314258985
 10
-506.8006706369
 20
-200.1499947846
 10
-511.4096941249
 20
-198.0592186768
 10
-515.9658315654
 20
-196.264733938
 10
-520.4568004172
 20
-194.7713781818
 10
-524.8704938224
 20
-193.5831772312
 10
-529.1950132438
 20
-192.7033342659
 10
-533.4187005417
 20
-192.134221187
 10
-537.5301694019
 20
-191.8773722228
 10
-541.5183360312
 20
-191.9334797926
 10
-545.3724490375
 20
-192.3023926404
 10
-549.0821184135
 20
-192.9831162423
 10
-552.6373435464
 20
-193.9738154879
 10
-556.0285401778
 20
-195.2718196272
 10
-559.2465662412
 20
-196.8736294704
 10
-560.7879104165
 20
-197.7871437838
  0
SPLINE
  5
25F
330
1F
100
AcDbEntity
  8
0
  6
Continuous
 62
     7
370
    25
100
AcDbSpline
210
0.0
220
0.0
230
1.0
 70
     8
 71
     3
 72
    11
 73
     7
 74
     0
 42
0.00000001
 43
0.00000001
 40
3.082764234025387
 40
3.082764234025387
 40
3.082764234025387
 40
3.082764234025387
 40
3.194266661459939
 40
3.305769088894492
 40
3.417271516329045
 40
3.528773943763597
 40
3.528773943763597
 40
3.528773943763597
 40
3.528773943763597
 10
-569.0729701868911
 20
-267.3541691896072
 30
0.0
 10
-569.1003121531733
 20
-267.2528882966424
 30
0.0
 10
-569.1462498709428
 20
-267.0523782757655
 30
0.0
 10
-569.1872765311189
 20
-266.7640065226312
 30
0.0
 10
-569.1999666804741
 20
-266.4913009204932
 30
0.0
 10
-569.1893471618858
 20
-266.3223529097406
 30
0.0
 10
-569.1793199729232
 20
-266.2417604562319
 30
0.0
  0
SPLINE
  5
261
330
1F
100
AcDbEntity
  8
0
  6
Continuous
 62
     7
370
    25
100
AcDbSpline
210
0.0
220
0.0
230
1.0
 70
     8
 71
     3
 72
    11
 73
     7
 74
     0
 42
0.00000001
 43
0.00000001
 40
-2.82287951698225
 40
-2.82287951698225
 40
-2.82287951698225
 40
-2.82287951698225
 40
-2.713046871400835
 40
-2.603214225819421
 40
-2.493381580238007
 40
-2.383548934656592
 40
-2.383548934656592
 40
-2.383548934656592
 40
-2.383548934656592
 10
-560.7832381094129
 20
-303.4953555395176
 30
0.0
 10
-560.8411397347223
 20
-303.3973982999891
 30
0.0
 10
-560.9512830503936
 20
-303.1979353405048
 30
0.0
 10
-561.0950812956704
 20
-302.8954908073267
 30
0.0
 10
-561.2161284196067
 20
-302.5923721980701
 30
0.0
 10
-561.2803366983385
 20
-302.3928102804823
 30
0.0
 10
-561.3081538392579
 20
-302.294068119535
 30
0.0
  0
SPLINE
  5
265
330
1F
100
AcDbEntity
  8
0
  6
Continuous
 62
     7
370
    25
100
AcDbSpline
210
0.0
220
0.0
230
1.0
 70
     8
 71
     3
 72
    11
 73
     7
 74
     0
 42
0.00000001
 43
0.00000001
 40
2.383548934652929
 40
2.383548934652929
 40
2.383548934652929
 40
2.383548934652929
 40
2.493381636362505
 40
2.603214338072081
 40
2.713047039781657
 40
2.822879741491233
 40
2.822879741491233
 40
2.822879741491233
 40
2.822879741491233
 10
-517.0416394357733
 20
-372.983230322558
 30
0.0
 10
-517.1183259250209
 20
-372.915090768572
 30
0.0
 10
-517.2698242962675
 20
-372.7701909956868
 30
0.0
 10
-517.4896686455374
 20
-372.5289403785289
 30
0.0
 10
-517.6989726584775
 20
-372.2675162551602
 30
0.0
 10
-517.8303252097211
 20
-372.0813346704504
 30
0.0
 10
-517.8931696471898
 20
-371.9864726187275
 30
0.0
  0
SPLINE
  5
267
330
1F
100
AcDbEntity
  8
0
  6
Continuous
 62
     7
370
    25
100
AcDbSpline
210
0.0
220
0.0
230
1.0
 70
     8
 71
     3
 72
    11
 73
     7
 74
     0
 42
0.00000001
 43
0.00000001
 40
-0.3871812901768044
 40
-0.3871812901768044
 40
-0.3871812901768044
 40
-0.3871812901768044
 40
-0.2756788627413536
 40
-0.1641764353059028
 40
-0.052674007870452
 40
0.0588284195649988
 40
0.0588284195649988
 40
0.0588284195649988
 40
0.0588284195649988
 10
-488.0443767190158
 20
-395.8060884430902
 30
0.0
 10
-488.1212590769286
 20
-395.7799199291291
 30
0.0
 10
-488.2778882110675
 20
-395.7157052979957
 30
0.0
 10
-488.5176839850564
 20
-395.5852163248732
 30
0.0
 10
-488.7592009753649
 20
-395.4223943415762
 30
0.0
 10
-488.9195297523809
 20
-395.2935175568271
 30
0.0
 10
-488.9987076198941
 20
-395.2246970097776
 30
0.0
  0
SPLINE
  5
269
330
1F
100
AcDbEntity
  8
0
  6
Continuous
 62
     7
370
    25
100
AcDbSpline
210
0.0
220
0.0
230
1.0
 70
     8
 71
     3
 72
    11
 73
     7
 74
     0
 42
0.00000001
 43
0.00000001
 40
0.0800969166471492
 40
0.0800969166471492
 40
0.0800969166471492
 40
0.0800969166471492
 40
0.1841125563614217
 40
0.2881281960756941
 40
0.3921438357899666
 40
0.496159475504239
 40
0.496159475504239
 40
0.496159475504239
 40
0.496159475504239
 10
-460.090004411094
 20
-405.4674194666819
 30
0.0
 10
-460.1477899464072
 20
-405.4838093886016
 30
0.0
 10
-460.2688347745781
 20
-405.506354068962
 30
0.0
 10
-460.4639436778829
 20
-405.5087438876441
 30
0.0
 10
-460.670688733678
 20
-405.4796865697567
 30
0.0
 10
-460.8147538716578
 20
-405.4395032390424
 30
0.0
 10
-460.8879049521586
 20
-405.4143318625448
 30
0.0
  0
SPLINE
  5
26D
330
1F
100
AcDbEntity
  8
0
  6
Continuous
 62
     7
370
    25
100
AcDbSpline
210
0.0
220
0.0
230
1.0
 70
     8
 71
     3
 72
    11
 73
     7
 74
     0
 42
0.00000001
 43
0.00000001
 40
0.9328643436410502
 40
0.9328643436410502
 40
0.9328643436410502
 40
0.9328643436410502
 40
1.027419050672191
 40
1.121973757703332
 40
1.216528464734473
 40
1.311083171765614
 40
1.311083171765614
 40
1.311083171765614
 40
1.311083171765614
 10
-423.4551289870989
 20
-381.8603761717554
 30
0.0
 10
-423.4614764485199
 20
-381.9331319329615
 30
0.0
 10
-423.4806548325428
 20
-382.0738243279748
 30
0.0
 10
-423.5285815621108
 20
-382.2677828710345
 30
0.0
 10
-423.5953127577498
 20
-382.4431485896735
 30
0.0
 10
-423.651942935388
 20
-382.5465293260322
 30
0.0
 10
-423.6832018204972
 20
-382.5946425594744
 30
0.0
  0
SPLINE
  5
26F
330
1F
100
AcDbEntity
  8
0
  6
Continuous
 62
     7
370
    25
100
AcDbSpline
210
0.0
220
0.0
230
1.0
 70
     8
 71
     3
 72
    11
 73
     7
 74
     0
 42
0.00000001
 43
0.00000001
 40
-1.369732046723901
 40
-1.369732046723901
 40
-1.369732046723901
 40
-1.369732046723901
 40
-1.275600312851198
 40
-1.181468578978496
 40
-1.087336845105794
 40
-0.9932051112330913
 40
-0.9932051112330913
 40
-0.9932051112330913
 40
-0.9932051112330913
 10
-420.2785692077028
 20
-352.2344997637891
 30
0.0
 10
-420.2621800408627
 20
-352.3200771490851
 30
0.0
 10
-420.2357259783566
 20
-352.4887010370061
 30
0.0
 10
-420.2152547302161
 20
-352.7322274149282
 30
0.0
 10
-420.2141452934903
 20
-352.9641069128286
 30
0.0
 10
-420.2263108943401
 20
-353.1097343103085
 30
0.0
 10
-420.2355761105537
 20
-353.1798889338411
 30
0.0
  0
SPLINE
  5
271
330
1F
100
AcDbEntity
  8
0
  6
Continuous
 62
     7
370
    25
100
AcDbSpline
210
0.0
220
0.0
230
1.0
 70
     8
 71
     3
 72
    11
 73
     7
 74
     0
 42
0.00000001
 43
0.00000001
 40
2.429609535130355
 40
2.429609535130355
 40
2.429609535130355
 40
2.429609535130355
 40
2.533669142783247
 40
2.637728750436139
 40
2.741788358089031
 40
2.845847965741923
 40
2.845847965741923
 40
2.845847965741923
 40
2.845847965741923
 10
-428.4226339653756
 20
-316.0756948351041
 30
0.0
 10
-428.3780708398402
 20
-316.1725814348732
 30
0.0
 10
-428.2955709817971
 20
-316.3672459891321
 30
0.0
 10
-428.1928125091043
 20
-316.6591199733237
 30
0.0
 10
-428.1121789495871
 20
-316.9473598108896
 30
0.0
 10
-428.0736223963556
 20
-317.1354034741798
 30
0.0
 10
-428.0582909481167
 20
-317.2275292719833
 30
0.0
  0
SPLINE
  5
275
330
1F
100
AcDbEntity
  8
0
  6
Continuous
 62
     7
370
    25
100
AcDbSpline
210
0.0
220
0.0
230
1.0
 70
     8
 71
     3
 72
    11
 73
     7
 74
     0
 42
0.00000001
 43
0.00000001
 40
-2.845847965394714
 40
-2.845847965394714
 40
-2.845847965394714
 40
-2.845847965394714
 40
-2.741788357829154
 40
-2.637728750263592
 40
-2.533669142698031
 40
-2.42960953513247
 40
-2.42960953513247
 40
-2.42960953513247
 40
-2.42960953513247
 10
-472.2950105921729
 20
-246.5859459644166
 30
0.0
 10
-472.2188248144494
 20
-246.6399639538657
 30
0.0
 10
-472.0664884006438
 20
-246.7567571217571
 30
0.0
 10
-471.8423837878765
 20
-246.9551534353771
 30
0.0
 10
-471.6246702327056
 20
-247.1750409840929
 30
0.0
 10
-471.4855645251413
 20
-247.3342581857521
 30
0.0
 10
-471.4178592730341
 20
-247.4166528711938
 30
0.0
  0
SPLINE
  5
277
330
1F
100
AcDbEntity
  8
0
  6
Continuous
 62
     7
370
    25
100
AcDbSpline
210
0.0
220
0.0
230
1.0
 70
     8
 71
     3
 72
    11
 73
     7
 74
     0
 42
0.00000001
 43
0.00000001
 40
-2.148387542356613
 40
-2.148387542356613
 40
-2.148387542356613
 40
-2.148387542356613
 40
-2.054255808484236
 40
-1.960124074611859
 40
-1.865992340739481
 40
-1.771860606867104
 40
-1.771860606867104
 40
-1.771860606867104
 40
-1.771860606867104
 10
-501.2235120745362
 20
-223.8503167742998
 30
0.0
 10
-501.1563527031442
 20
-223.8726132822929
 30
0.0
 10
-501.0200286414086
 20
-223.9252544347554
 30
0.0
 10
-500.8119051139099
 20
-224.0274988952296
 30
0.0
 10
-500.6017576100088
 20
-224.1522474236695
 30
0.0
 10
-500.4616076387365
 20
-224.2496733881394
 30
0.0
 10
-500.3917749066233
 20
-224.3017836864435
 30
0.0
  0
SPLINE
  5
279
330
1F
100
AcDbEntity
  8
0
  6
Continuous
 62
     7
370
    25
100
AcDbSpline
210
0.0
220
0.0
230
1.0
 70
     8
 71
     3
 72
    11
 73
     7
 74
     0
 42
0.00000001
 43
0.00000001
 40
1.830509481823486
 40
1.830509481823486
 40
1.830509481823486
 40
1.830509481823486
 40
1.925064235909733
 40
2.01961898999598
 40
2.114173744082227
 40
2.208728498168474
 40
2.208728498168474
 40
2.208728498168474
 40
2.208728498168474
 10
-529.1915343329712
 20
-214.108468744908
 30
0.0
 10
-529.1346010715794
 20
-214.1013548500382
 30
0.0
 10
-529.0168690012392
 20
-214.0955475732445
 30
0.0
 10
-528.8299659218462
 20
-214.1120840893668
 30
0.0
 10
-528.6345466545868
 20
-214.1536561211699
 30
0.0
 10
-528.4996002330165
 20
-214.1978335276001
 30
0.0
 10
-528.4313747312582
 20
-214.2238907198387
 30
0.0
  0
SPLINE
  5
27D
330
1F
100
AcDbEntity
  8
0
  6
Continuous
 62
     7
370
    25
100
AcDbSpline
210
0.0
220
0.0
230
1.0
 70
     8
 71
     3
 72
    11
 73
     7
 74
     0
 42
0.00000001
 43
0.00000001
 40
-0.4961594755044651
 40
-0.4961594755044651
 40
-0.4961594755044651
 40
-0.4961594755044651
 40
-0.3921438357904054
 40
-0.2881281960763457
 40
-0.184112556362286
 40
-0.0800969166482263
 40
-0.0800969166482263
 40
-0.0800969166482263
 40
-0.0800969166482263
 10
-565.965848267032
 20
-237.6154456387906
 30
0.0
 10
-565.956553214754
 20
-237.5386453733202
 30
0.0
 10
-565.9298000523829
 20
-237.3914933011245
 30
0.0
 10
-565.86566933513
 20
-237.1928098923484
 30
0.0
 10
-565.7783282676406
 20
-237.0183257001939
 30
0.0
 10
-565.7051939511646
 20
-236.9192727608483
 30
0.0
 10
-565.66521782757
 20
-236.8744430031609
 30
0.0
  0
LWPOLYLINE
  5
27F
330
1F
100
AcDbEntity
  8
0
  6
Continuous
 62
     7
370
    25
100
AcDbPolyline
 90
       20
 70
   128
 43
0.0
 10
-567.4651764136
 20
-304.839303456
 10
-567.0780885348
 20
-304.3859355412
 10
-566.9227429714
 20
-303.6786130475
 10
-567.0159738256
 20
-302.7939853423
 10
-567.3476780878
 20
-301.8279155638
 10
-567.8819104543
 20
-300.8850923626
 10
-568.5607785585
 20
-300.0676852621
 10
-569.3107165078
 20
-299.464273005
 10
-570.0504568889
 20
-299.1402446721
 10
-570.6998373532
 20
-299.1307137612
 10
-571.1884874511
 20
-299.4367130944
 10
-571.4634543625
 20
-300.0250828959
 10
-571.4949411559
 20
-300.8320641681
 10
-571.2795357487
 20
-301.7702079686
 10
-570.8405806591
 20
-302.7378518599
 10
-570.2256434822
 20
-303.6301366117
 10
-569.5013622028
 20
-304.350369326
 10
-568.7462239359
 20
-304.8205016126
 10
-568.0420596299
 20
-304.9895873435
 10
-567.4651764136
 20
-304.839303456
  0
LWPOLYLINE
  5
280
330
1F
100
AcDbEntity
  8
0
  6
Continuous
 62
     7
370
    25
100
AcDbPolyline
 90
       20
 70
   128
 43
0.0
 10
-572.7422159252
 20
-231.1982730831
 10
-572.3551280464
 20
-230.7449051683
 10
-572.199782483
 20
-230.0375826746
 10
-572.2930133372
 20
-229.1529549693
 10
-572.6247175994
 20
-228.1868851908
 10
-573.1589499658
 20
-227.2440619897
 10
-573.8378180701
 20
-226.4266548892
 10
-574.5877560194
 20
-225.823242632
 10
-575.3274964005
 20
-225.4992142992
 10
-575.9768768647
 20
-225.4896833883
 10
-576.4655269627
 20
-225.7956827215
 10
-576.7404938741
 20
-226.3840525229
 10
-576.7719806675
 20
-227.1910337952
 10
-576.5565752603
 20
-228.1291775957
 10
-576.1176201707
 20
-229.0968214869
 10
-575.5026829938
 20
-229.9891062388
 10
-574.7784017144
 20
-230.7093389531
 10
-574.0232634475
 20
-231.1794712397
 10
-573.3190991415
 20
-231.3485569706
 10
-572.7422159252
 20
-231.1982730831
  0
LWPOLYLINE
  5
281
330
1F
100
AcDbEntity
  8
0
  6
Continuous
 62
     7
370
    25
100
AcDbPolyline
 90
       20
 70
   128
 43
0.0
 10
-531.2568236891
 20
-205.2195565857
 10
-530.8697358103
 20
-204.7661886709
 10
-530.7143902469
 20
-204.0588661772
 10
-530.8076211011
 20
-203.174238472
 10
-531.1393253633
 20
-202.2081686935
 10
-531.6735577297
 20
-201.2653454923
 10
-532.352425834
 20
-200.4479383918
 10
-533.1023637833
 20
-199.8445261347
 10
-533.8421041644
 20
-199.5204978018
 10
-534.4914846286
 20
-199.5109668909
 10
-534.9801347266
 20
-199.8169662241
 10
-535.255101638
 20
-200.4053360256
 10
-535.2865884314
 20
-201.2123172978
 10
-535.0711830242
 20
-202.1504610983
 10
-534.6322279346
 20
-203.1181049896
 10
-534.0172907577
 20
-204.0103897414
 10
-533.2930094783
 20
-204.7306224557
 10
-532.5378712114
 20
-205.2007547423
 10
-531.8337069054
 20
-205.3698404732
 10
-531.2568236891
 20
-205.2195565857
  0
LWPOLYLINE
  5
282
330
1F
100
AcDbEntity
  8
0
  6
Continuous
 62
     7
370
    25
100
AcDbPolyline
 90
       20
 70
   128
 43
0.0
 10
-467.3105798369
 20
-242.121133755
 10
-466.923491958
 20
-241.6677658402
 10
-466.7681463946
 20
-240.9604433465
 10
-466.8613772489
 20
-240.0758156413
 10
-467.1930815111
 20
-239.1097458628
 10
-467.7273138775
 20
-238.1669226617
 10
-468.4061819818
 20
-237.3495155611
 10
-469.1561199311
 20
-236.746103304
 10
-469.8958603121
 20
-236.4220749711
 10
-470.5452407764
 20
-236.4125440602
 10
-471.0338908744
 20
-236.7185433934
 10
-471.3088577857
 20
-237.3069131949
 10
-471.3403445792
 20
-238.1138944671
 10
-471.1249391719
 20
-239.0520382676
 10
-470.6859840824
 20
-240.0196821589
 10
-470.0710469054
 20
-240.9119669107
 10
-469.346765626
 20
-241.632199625
 10
-468.5916273591
 20
-242.1023319116
 10
-467.8874630531
 20
-242.2714176425
 10
-467.3105798369
 20
-242.121133755
  0
LWPOLYLINE
  5
283
330
1F
100
AcDbEntity
  8
0
  6
Continuous
 62
     7
370
    25
100
AcDbPolyline
 90
       20
 70
   128
 43
0.0
 10
-418.3623267543
 20
-320.2865611581
 10
-417.9752388755
 20
-319.8331932434
 10
-417.8198933121
 20
-319.1258707497
 10
-417.9131241663
 20
-318.2412430444
 10
-418.2448284285
 20
-317.2751732659
 10
-418.7790607949
 20
-316.3323500648
 10
-419.4579288992
 20
-315.5149429643
 10
-420.2078668485
 20
-314.9115307071
 10
-420.9476072296
 20
-314.5875023743
 10
-421.5969876938
 20
-314.5779714634
 10
-422.0856377918
 20
-314.8839707966
 10
-422.3606047032
 20
-315.472340598
 10
-422.3920914966
 20
-316.2793218702
 10
-422.1766860894
 20
-317.2174656708
 10
-421.7377309998
 20
-318.185109562
 10
-421.1227938229
 20
-319.0773943139
 10
-420.3985125434
 20
-319.7976270282
 10
-419.6433742766
 20
-320.2677593148
 10
-418.9392099706
 20
-320.4368450457
 10
-418.3623267543
 20
-320.2865611581
  0
LWPOLYLINE
  5
284
330
1F
100
AcDbEntity
  8
0
  6
Continuous
 62
     7
370
    25
100
AcDbPolyline
 90
       20
 70
   128
 43
0.0
 10
-413.0852872427
 20
-393.9275915311
 10
-412.6981993639
 20
-393.4742236163
 10
-412.5428538005
 20
-392.7669011226
 10
-412.6360846547
 20
-391.8822734174
 10
-412.9677889169
 20
-390.9162036389
 10
-413.5020212833
 20
-389.9733804377
 10
-414.1808893876
 20
-389.1559733372
 10
-414.9308273369
 20
-388.5525610801
 10
-415.670567718
 20
-388.2285327472
 10
-416.3199481822
 20
-388.2190018363
 10
-416.8085982802
 20
-388.5250011695
 10
-417.0835651916
 20
-389.113370971
 10
-417.115051985
 20
-389.9203522432
 10
-416.8996465778
 20
-390.8584960437
 10
-416.4606914882
 20
-391.826139935
 10
-415.8457543113
 20
-392.7184246868
 10
-415.1214730319
 20
-393.4386574011
 10
-414.366334765
 20
-393.9087896877
 10
-413.662170459
 20
-394.0778754186
 10
-413.0852872427
 20
-393.9275915311
  0
LWPOLYLINE
  5
285
330
1F
100
AcDbEntity
  8
0
  6
Continuous
 62
     7
370
    25
100
AcDbPolyline
 90
       20
 70
   128
 43
0.0
 10
-454.5706794788
 20
-419.9063080284
 10
-454.1835916
 20
-419.4529401137
 10
-454.0282460366
 20
-418.74561762
 10
-454.1214768908
 20
-417.8609899147
 10
-454.453181153
 20
-416.8949201362
 10
-454.9874135195
 20
-415.9520969351
 10
-455.6662816237
 20
-415.1346898346
 10
-456.416219573
 20
-414.5312775774
 10
-457.1559599541
 20
-414.2072492446
 10
-457.8053404183
 20
-414.1977183337
 10
-458.2939905163
 20
-414.5037176669
 10
-458.5689574277
 20
-415.0920874683
 10
-458.6004442211
 20
-415.8990687405
 10
-458.3850388139
 20
-416.8372125411
 10
-457.9460837243
 20
-417.8048564323
 10
-457.3311465474
 20
-418.6971411842
 10
-456.606865268
 20
-419.4173738985
 10
-455.8517270011
 20
-419.8875061851
 10
-455.1475626951
 20
-420.056591916
 10
-454.5706794788
 20
-419.9063080284
  0
LWPOLYLINE
  5
286
330
1F
100
AcDbEntity
  8
0
  6
Continuous
 62
     7
370
    25
100
AcDbPolyline
 90
       20
 70
   128
 43
0.0
 10
-518.5169233311
 20
-383.0047308591
 10
-518.1298354523
 20
-382.5513629444
 10
-517.9744898889
 20
-381.8440404507
 10
-518.0677207431
 20
-380.9594127454
 10
-518.3994250053
 20
-379.9933429669
 10
-518.9336573717
 20
-379.0505197658
 10
-519.612525476
 20
-378.2331126653
 10
-520.3624634253
 20
-377.6297004081
 10
-521.1022038063
 20
-377.3056720753
 10
-521.7515842706
 20
-377.2961411644
 10
-522.2402343686
 20
-377.6021404976
 10
-522.51520128
 20
-378.190510299
 10
-522.5466880734
 20
-378.9974915712
 10
-522.3312826662
 20
-379.9356353718
 10
-521.8923275766
 20
-380.903279263
 10
-521.2773903996
 20
-381.7955640149
 10
-520.5531091202
 20
-382.5157967292
 10
-519.7979708533
 20
-382.9859290158
 10
-519.0938065473
 20
-383.1550147466
 10
-518.5169233311
 20
-383.0047308591
  0
SPLINE
  5
290
330
1F
100
AcDbEntity
  8
0
  6
Continuous
 62
     7
370
    25
100
AcDbSpline
210
0.0
220
0.0
230
1.0
 70
     8
 71
     3
 72
    11
 73
     7
 74
     0
 42
0.00000001
 43
0.00000001
 40
-0.4961594755044651
 40
-0.4961594755044651
 40
-0.4961594755044651
 40
-0.4961594755044651
 40
-0.3921438357904054
 40
-0.2881281960763457
 40
-0.184112556362286
 40
-0.0800969166482263
 40
-0.0800969166482263
 40
-0.0800969166482263
 40
-0.0800969166482263
 10
-563.0925811749316
 20
-235.8161667316016
 30
0.0
 10
-563.0832861226536
 20
-235.7393664661311
 30
0.0
 10
-563.0565329602827
 20
-235.5922143939354
 30
0.0
 10
-562.9924022430297
 20
-235.3935309851593
 30
0.0
 10
-562.9050611755403
 20
-235.2190467930049
 30
0.0
 10
-562.8319268590643
 20
-235.1199938536593
 30
0.0
 10
-562.7919507354699
 20
-235.0751640959718
 30
0.0
  0
SPLINE
  5
292
330
1F
100
AcDbEntity
  8
0
  6
Continuous
 62
     7
370
    25
100
AcDbSpline
210
0.0
220
0.0
230
1.0
 70
     8
 71
     3
 72
    11
 73
     7
 74
     0
 42
0.00000001
 43
0.00000001
 40
0.0800969166471492
 40
0.0800969166471492
 40
0.0800969166471492
 40
0.0800969166471492
 40
0.1841125563614217
 40
0.2881281960756941
 40
0.3921438357899666
 40
0.496159475504239
 40
0.496159475504239
 40
0.496159475504239
 40
0.496159475504239
 10
-457.2167373189936
 20
-403.6681405594928
 30
0.0
 10
-457.2745228543068
 20
-403.6845304814126
 30
0.0
 10
-457.3955676824779
 20
-403.7070751617729
 30
0.0
 10
-457.5906765857825
 20
-403.709464980455
 30
0.0
 10
-457.7974216415778
 20
-403.6804076625677
 30
0.0
 10
-457.9414867795575
 20
-403.6402243318533
 30
0.0
 10
-458.0146378600584
 20
-403.6150529553558
 30
0.0
  0
SPLINE
  5
29A
330
1F
100
AcDbEntity
  8
0
  6
Continuous
 62
     7
370
    25
100
AcDbSpline
210
0.0
220
0.0
230
1.0
 70
     8
 71
     3
 72
    11
 73
     7
 74
     0
 42
0.00000001
 43
0.00000001
 40
-0.3871812901768044
 40
-0.3871812901768044
 40
-0.3871812901768044
 40
-0.3871812901768044
 40
-0.2756788627413536
 40
-0.1641764353059028
 40
-0.052674007870452
 40
0.0588284195649988
 40
0.0588284195649988
 40
0.0588284195649988
 40
0.0588284195649988
 10
-485.1711096269156
 20
-394.0068095359011
 30
0.0
 10
-485.2479919848283
 20
-393.98064102194
 30
0.0
 10
-485.4046211189672
 20
-393.9164263908066
 30
0.0
 10
-485.6444168929561
 20
-393.7859374176842
 30
0.0
 10
-485.8859338832647
 20
-393.6231154343871
 30
0.0
 10
-486.0462626602806
 20
-393.4942386496381
 30
0.0
 10
-486.1254405277938
 20
-393.4254181025886
 30
0.0
  0
SPLINE
  5
29C
330
1F
100
AcDbEntity
  8
0
  6
Continuous
 62
     7
370
    25
100
AcDbSpline
210
0.0
220
0.0
230
1.0
 70
     8
 71
     3
 72
    11
 73
     7
 74
     0
 42
0.00000001
 43
0.00000001
 40
3.082764234025387
 40
3.082764234025387
 40
3.082764234025387
 40
3.082764234025387
 40
3.194266661459939
 40
3.305769088894492
 40
3.417271516329045
 40
3.528773943763597
 40
3.528773943763597
 40
3.528773943763597
 40
3.528773943763597
 10
-566.1997030947907
 20
-265.5548902824181
 30
0.0
 10
-566.227045061073
 20
-265.4536093894534
 30
0.0
 10
-566.2729827788427
 20
-265.2530993685765
 30
0.0
 10
-566.3140094390187
 20
-264.9647276154422
 30
0.0
 10
-566.3266995883738
 20
-264.6920220133042
 30
0.0
 10
-566.3160800697856
 20
-264.5230740025517
 30
0.0
 10
-566.3060528808229
 20
-264.4424815490428
 30
0.0
  0
SPLINE
  5
2A2
330
1F
100
AcDbEntity
  8
0
  6
Continuous
 62
     7
370
    25
100
AcDbSpline
210
0.0
220
0.0
230
1.0
 70
     8
 71
     3
 72
    11
 73
     7
 74
     0
 42
0.00000001
 43
0.00000001
 40
2.383548934652929
 40
2.383548934652929
 40
2.383548934652929
 40
2.383548934652929
 40
2.493381636362505
 40
2.603214338072081
 40
2.713047039781657
 40
2.822879741491233
 40
2.822879741491233
 40
2.822879741491233
 40
2.822879741491233
 10
-514.168372343673
 20
-371.183951415369
 30
0.0
 10
-514.2450588329207
 20
-371.115811861383
 30
0.0
 10
-514.3965572041674
 20
-370.9709120884978
 30
0.0
 10
-514.6164015534372
 20
-370.7296614713399
 30
0.0
 10
-514.8257055663773
 20
-370.4682373479711
 30
0.0
 10
-514.9570581176208
 20
-370.2820557632613
 30
0.0
 10
-515.0199025550895
 20
-370.1871937115384
 30
0.0
  0
SPLINE
  5
2A4
330
1F
100
AcDbEntity
  8
0
  6
Continuous
 62
     7
370
    25
100
AcDbSpline
210
0.0
220
0.0
230
1.0
 70
     8
 71
     3
 72
    11
 73
     7
 74
     0
 42
0.00000001
 43
0.00000001
 40
-2.82287951698225
 40
-2.82287951698225
 40
-2.82287951698225
 40
-2.82287951698225
 40
-2.713046871400835
 40
-2.603214225819421
 40
-2.493381580238007
 40
-2.383548934656592
 40
-2.383548934656592
 40
-2.383548934656592
 40
-2.383548934656592
 10
-557.9099710173126
 20
-301.6960766323286
 30
0.0
 10
-557.9678726426222
 20
-301.5981193928001
 30
0.0
 10
-558.0780159582935
 20
-301.3986564333159
 30
0.0
 10
-558.2218142035701
 20
-301.0962119001377
 30
0.0
 10
-558.3428613275063
 20
-300.7930932908812
 30
0.0
 10
-558.4070696062382
 20
-300.5935313732934
 30
0.0
 10
-558.4348867471576
 20
-300.494789212346
 30
0.0
  0
LWPOLYLINE
  5
2B8
330
1F
100
AcDbEntity
  8
0
  6
Continuous
 62
     7
370
    25
100
AcDbPolyline
 90
        3
 70
   128
 43
0.0
 10
-411.6955897705
 20
-78.5202626674
 10
-411.761065994
 20
-78.5635460231
 10
-411.8138678421
 20
-78.610308018
  0
LWPOLYLINE
  5
2B9
330
1F
100
AcDbEntity
  8
0
  6
Continuous
 62
     7
370
    25
100
AcDbPolyline
 90
        3
 70
   128
 43
0.0
 10
-250.5326839807
 20
-336.1601055021
 10
-250.467559987
 20
-336.133020732
 10
-250.4000314569
 20
-336.0930147031
  0
SPLINE
  5
2D0
330
1F
100
AcDbEntity
  8
0
  6
Continuous
 62
     7
370
    25
100
AcDbSpline
210
0.0
220
0.0
230
1.0
 70
     8
 71
     3
 72
    12
 73
     8
 74
     0
 42
0.00000001
 43
0.00000001
 40
0.0
 40
0.0
 40
0.0
 40
0.0
 40
0.0122816899895241
 40
0.0855829852148657
 40
0.3779500837635598
 40
0.9629004678618437
 40
1.0
 40
1.0
 40
1.0
 40
1.0
 10
-436.092775030446
 20
-396.9757865997399
 30
0.0
 10
-436.0897988790298
 20
-396.9795379807443
 30
0.0
 10
-436.0690600456238
 20
-397.0056788770967
 30
0.0
 10
-435.9874492445175
 20
-397.1318931207035
 30
0.0
 10
-435.7816169876514
 20
-397.4453097266485
 30
0.0
 10
-435.5815842779016
 20
-397.7480173676843
 30
0.0
 10
-435.4369059396909
 20
-397.9451209217911
 30
0.0
 10
-435.4282772130919
 20
-397.9568763283095
 30
0.0
  0
SPLINE
  5
2D1
330
1F
100
AcDbEntity
  8
0
  6
Continuous
 62
     7
370
    25
100
AcDbSpline
210
0.0
220
0.0
230
1.0
 70
     8
 71
     3
 72
     8
 73
     4
 74
     0
 42
0.00000001
 43
0.00000001
 40
0.0000000000000018
 40
0.0000000000000018
 40
0.0000000000000018
 40
0.0000000000000018
 40
0.0000117679887668
 40
0.0000117679887668
 40
0.0000117679887668
 40
0.0000117679887668
 10
-436.0927750304449
 20
-396.9757865997392
 30
0.0
 10
-436.0955068356511
 20
-396.9774947370366
 30
0.0
 10
-436.0980197084044
 20
-396.9790653180826
 30
0.0
 10
-436.0998774611915
 20
-396.9802253847195
 30
0.0
  0
SPLINE
  5
2DF
330
1F
100
AcDbEntity
  8
0
  6
Continuous
 62
     7
370
    25
100
AcDbSpline
210
0.0
220
0.0
230
1.0
 70
     8
 71
     3
 72
    18
 73
    14
 74
     0
 42
0.00000001
 43
0.00000001
 40
0.0
 40
0.0
 40
0.0
 40
0.0
 40
0.2118512331112388
 40
0.612025387383087
 40
0.7484379023823232
 40
0.8380705589417158
 40
0.8971932067398679
 40
0.9363148142910811
 40
0.9622806619262793
 40
0.9795747320655045
 40
0.9911457029380235
 40
0.9989383413163095
 40
1.0
 40
1.0
 40
1.0
 40
1.0
 10
-548.1394474873637
 20
-217.9669617993711
 30
0.0
 10
-548.0995359366673
 20
-218.0402532049197
 30
0.0
 10
-547.9842338828757
 20
-218.2519876386259
 30
0.0
 10
-547.834843871914
 20
-218.5075542413301
 30
0.0
 10
-547.7079430006811
 20
-218.7202304774736
 30
0.0
 10
-547.6497326346367
 20
-218.8168626401291
 30
0.0
 10
-547.6114640514166
 20
-218.8805696949425
 30
0.0
 10
-547.5864142338038
 20
-218.9228220337501
 30
0.0
 10
-547.5701177568271
 20
-218.9510021702589
 30
0.0
 10
-547.559595339989
 20
-218.9699020398731
 30
0.0
 10
-547.5528847757521
 20
-218.9826518838006
 30
0.0
 10
-547.549385101844
 20
-218.9898233104612
 30
0.0
 10
-547.5479826711327
 20
-218.9929460225982
 30
0.0
 10
-547.5478145151816
 20
-218.9933204458227
 30
0.0
  0
SPLINE
  5
2E0
330
1F
100
AcDbEntity
  8
0
  6
Continuous
 62
     7
370
    25
100
AcDbSpline
210
0.0
220
0.0
230
1.0
 70
     8
 71
     3
 72
     8
 73
     4
 74
     0
 42
0.00000001
 43
0.00000001
 40
0.0000000000000002
 40
0.0000000000000002
 40
0.0000000000000002
 40
0.0000000000000002
 40
0.0000117679887523
 40
0.0000117679887523
 40
0.0000117679887523
 40
0.0000117679887523
 10
-547.5549089807947
 20
-218.9977719503104
 30
0.0
 10
-547.5530541818947
 20
-218.996607166619
 30
0.0
 10
-547.5505440206841
 20
-218.9950322555223
 30
0.0
 10
-547.5478145151893
 20
-218.9933204458274
 30
0.0
  0
SPLINE
  5
2E6
330
1F
100
AcDbEntity
  8
0
  6
Continuous
 62
     7
370
    25
100
AcDbSpline
210
0.0
220
0.0
230
1.0
 70
     8
 71
     3
 72
     8
 73
     4
 74
     0
 42
0.00000001
 43
0.00000001
 40
0.0
 40
0.0
 40
0.0
 40
0.0
 40
1.0
 40
1.0
 40
1.0
 40
1.0
 10
-561.3893686917604
 20
-237.1697186434718
 30
0.0
 10
-561.3659686735663
 20
-237.1032596408082
 30
0.0
 10
-561.3404885405533
 20
-237.0356832038594
 30
0.0
 10
-561.3202178345331
 20
-236.9716220351042
 30
0.0
  0
SPLINE
  5
2E8
330
1F
100
AcDbEntity
  8
0
  6
Continuous
 62
     7
370
    25
100
AcDbSpline
210
0.0
220
0.0
230
1.0
 70
     8
 71
     3
 72
     8
 73
     4
 74
     0
 42
0.00000001
 43
0.00000001
 40
0.0
 40
0.0
 40
0.0
 40
0.0
 40
1.0
 40
1.0
 40
1.0
 40
1.0
 10
-458.2802577477451
 20
-401.5160544217588
 30
0.0
 10
-458.346740572851
 20
-401.506319493369
 30
0.0
 10
-458.4186604824943
 20
-401.4997362870157
 30
0.0
 10
-458.4886668562585
 20
-401.491769636598
 30
0.0
  0
SPLINE
  5
2F8
330
1F
100
AcDbEntity
  8
0
  6
Continuous
 62
     7
370
    25
100
AcDbSpline
210
0.0
220
0.0
230
1.0
 70
     8
 71
     3
 72
     8
 73
     4
 74
     0
 42
0.00000001
 43
0.00000001
 40
0.0000000000000002
 40
0.0000000000000002
 40
0.0000000000000002
 40
0.0000000000000002
 40
0.000054064077569
 40
0.000054064077569
 40
0.000054064077569
 40
0.000054064077569
 10
-485.6447298620935
 20
-391.8882935547688
 30
0.0
 10
-485.6568527457462
 20
-391.8808846407349
 30
0.0
 10
-485.6690621241467
 20
-391.8735231397579
 30
0.0
 10
-485.681328810251
 20
-391.8661928172693
 30
0.0
  0
SPLINE
  5
2FB
330
1F
100
AcDbEntity
  8
0
  6
Continuous
 62
     7
370
    25
100
AcDbSpline
210
0.0
220
0.0
230
1.0
 70
     8
 71
     3
 72
     8
 73
     4
 74
     0
 42
0.00000001
 43
0.00000001
 40
0.0000000000000217
 40
0.0000000000000217
 40
0.0000000000000217
 40
0.0000000000000217
 40
0.0000540640775931
 40
0.0000540640775931
 40
0.0000540640775931
 40
0.0000540640775931
 10
-564.6030484369998
 20
-265.8361599249492
 30
0.0
 10
-564.6042870376662
 20
-265.8219236654604
 30
0.0
 10
-564.6055787101963
 20
-265.8077253486686
 30
0.0
 10
-564.606950803892
 20
-265.7935841438335
 30
0.0
  0
LWPOLYLINE
  5
30C
330
1F
100
AcDbEntity
  8
0
  6
Continuous
 62
     7
370
    25
100
AcDbPolyline
 90
        9
 70
   128
 43
0.0
 10
-293.0049847922
 20
-366.3668544707
 10
-291.8315430257
 20
-367.9338830097
 10
-290.4271508607
 20
-369.2678283223
 10
-288.8457783006
 20
-370.3174276382
 10
-287.1481966059
 20
-371.0423454445
 10
-285.3996428892
 20
-371.4147235563
 10
-283.6673130891
 20
-371.4202516916
 10
-282.0177796685
 20
-371.0587174073
 10
-280.5144332716
 20
-370.3440142632
  0
LWPOLYLINE
  5
30F
330
1F
100
AcDbEntity
  8
0
  6
Continuous
 62
     7
370
    25
100
AcDbPolyline
 90
        9
 70
   128
 43
0.0
 10
-455.6580983514
 20
-90.6572312676
 10
-456.9574849656
 20
-91.6976376305
 10
-458.0029770984
 20
-93.0237649792
 10
-458.7543970732
 20
-94.5846509833
 10
-459.182868242
 20
-96.320311669
 10
-459.2719246979
 20
-98.1640465696
 10
-459.0181440514
 20
-100.0450019868
 10
-458.4312789503
 20
-101.8908938588
 10
-457.5338822913
 20
-103.6307855961
  0
LWPOLYLINE
  5
316
330
1F
100
AcDbEntity
  8
0
  6
Continuous
 62
     7
370
    25
100
AcDbPolyline
 90
        9
 70
   128
 43
0.0
 10
-282.3137121788
 20
-371.4707471711
 10
-283.8170585757
 20
-372.1854503152
 10
-285.4665919963
 20
-372.5469845995
 10
-287.1989217963
 20
-372.5414564642
 10
-288.9474755131
 20
-372.1690783524
 10
-290.6450572078
 20
-371.4441605461
 10
-292.2264297679
 20
-370.3945612302
 10
-293.6308219329
 20
-369.0606159176
 10
-294.8042636993
 20
-367.4935873786
  0
LWPOLYLINE
  5
318
330
1F
100
AcDbEntity
  8
0
  6
Continuous
 62
     7
370
    25
100
AcDbPolyline
 90
        9
 70
   128
 43
0.0
 10
-459.3331611985
 20
-104.757518504
 10
-460.2305578575
 20
-103.0176267667
 10
-460.8174229586
 20
-101.1717348947
 10
-461.0712036051
 20
-99.2907794775
 10
-460.9821471492
 20
-97.4470445769
 10
-460.5536759804
 20
-95.7113838912
 10
-459.8022560056
 20
-94.1504978871
 10
-458.7567638728
 20
-92.8243705384
 10
-457.4573772586
 20
-91.7839641755
  0
SPLINE
  5
319
330
1F
100
AcDbEntity
  8
0
  6
Continuous
 62
     7
370
    25
100
AcDbSpline
210
0.0
220
0.0
230
1.0
 70
     8
 71
     3
 72
    18
 73
    14
 74
     0
 42
0.00000001
 43
0.00000001
 40
0.0
 40
0.0
 40
0.0
 40
0.0
 40
0.1488311411206771
 40
0.5809257840819602
 40
0.7247603340470277
 40
0.8205579500120628
 40
0.8844892723079713
 40
0.927255089060032
 40
0.9559557885157074
 40
0.9753097639209882
 40
0.988455334486971
 40
0.9974820148593496
 40
1.0
 40
1.0
 40
1.0
 40
1.0
 10
-435.384591084165
 20
-397.8997360799419
 30
0.0
 10
-435.4159725901188
 20
-397.8514108674367
 30
0.0
 10
-435.5384625865976
 20
-397.6627852763527
 30
0.0
 10
-435.6965370061576
 20
-397.4313826726592
 30
0.0
 10
-435.844238385356
 20
-397.2181105180384
 30
0.0
 10
-435.9112120266257
 20
-397.1219210811427
 30
0.0
 10
-435.9557118803532
 20
-397.0576017449179
 30
0.0
 10
-435.9851520980517
 20
-397.0143212329883
 30
0.0
 10
-436.0045223554714
 20
-396.9849899048328
 30
0.0
 10
-436.0171952721753
 20
-396.9649499813252
 30
0.0
 10
-436.0253952381059
 20
-396.9511238251358
 30
0.0
 10
-436.0299707277061
 20
-396.9427571002495
 30
0.0
 10
-436.0319109161815
 20
-396.9387955101661
 30
0.0
 10
-436.0323340870171
 20
-396.9379314552525
 30
0.0
  0
LWPOLYLINE
  5
31A
330
1F
100
AcDbEntity
  8
0
  6
Continuous
 62
     7
370
    25
100
AcDbPolyline
 90
        3
 70
   128
 43
0.0
 10
-436.032334087
 20
-396.9379314553
 10
-433.3854515762
 20
-395.0663952546
 10
-432.9488593675
 20
-394.7138663619
  0
SPLINE
  5
31D
330
1F
100
AcDbEntity
  8
0
  6
Continuous
 62
     7
370
    25
100
AcDbSpline
210
0.0
220
0.0
230
1.0
 70
     8
 71
     3
 72
    12
 73
     8
 74
     0
 42
0.00000001
 43
0.00000001
 40
0.0
 40
0.0
 40
0.0
 40
0.0
 40
0.005616251645608
 40
0.0680654380090541
 40
0.3158835462818335
 40
0.8113371732752016
 40
1.0
 40
1.0
 40
1.0
 40
1.0
 10
-547.4873679902327
 20
-218.9554742144812
 30
0.0
 10
-547.4886756003536
 20
-218.9537647368204
 30
0.0
 10
-547.5045230126927
 20
-218.9330469426234
 30
0.0
 10
-547.5662934874149
 20
-218.826221217096
 30
0.0
 10
-547.7176074572512
 20
-218.5561277790646
 30
0.0
 10
-547.8956565847798
 20
-218.2421629485772
 30
0.0
 10
-548.0323248426303
 20
-218.0153674486772
 30
0.0
 10
-548.0700146536404
 20
-217.9528227169039
 30
0.0
  0
LWPOLYLINE
  5
31F
330
1F
100
AcDbEntity
  8
0
  6
Continuous
 62
     7
370
    25
100
AcDbPolyline
 90
        3
 70
   128
 43
0.0
 10
-544.1401627497
 20
-217.1525601153
 10
-544.6479424887
 20
-217.3914097666
 10
-547.4873679902
 20
-218.9554742145
  0
LWPOLYLINE
  5
37A
330
1F
100
AcDbEntity
  8
0
  6
Continuous
 62
     7
370
    25
100
AcDbPolyline
 90
       22
 70
   128
 43
0.0
 10
-102.083600917
 20
-193.714180659
 10
-102.837003646
 20
-192.794855433
 10
-103.7787656266
 20
-192.1170901147
 10
-104.8252071739
 20
-191.7411071268
 10
-105.8833473641
 20
-191.7003142079
 10
-106.8591657979
 20
-191.9983359878
 10
-107.6659567251
 20
-192.6086919235
 10
-108.2320332311
 20
-193.4771492116
 10
-108.5070969344
 20
-194.5265416109
 10
-108.4667072178
 20
-195.6636260015
 10
-108.1144528848
 20
-196.7873674454
 10
-107.4816332787
 20
-197.7979165838
 10
-106.6244771987
 20
-198.6054816909
 10
-105.619146724
 20
-199.1383070632
 10
-104.5549698791
 20
-199.349048828
 10
-103.5265034468
 20
-199.2189816546
 10
-102.6251311829
 20
-198.7596625823
 10
-101.9309439686
 20
-198.0119041263
 10
-101.5056233844
 20
-197.0421479069
 10
-101.3869610307
 20
-195.9365610198
 10
-101.5855005782
 20
-194.7933797119
 10
-102.083600917
 20
-193.714180659
  0
LWPOLYLINE
  5
37B
330
1F
100
AcDbEntity
  8
0
  6
Continuous
 62
     7
370
    25
100
AcDbPolyline
 90
       22
 70
   128
 43
0.0
 10
-218.8460443035
 20
-7.2563253286
 10
-219.5994470325
 20
-6.3370001026
 10
-220.5412090131
 20
-5.6592347843
 10
-221.5876505604
 20
-5.2832517964
 10
-222.6457907506
 20
-5.2424588775
 10
-223.6216091844
 20
-5.5404806574
 10
-224.4284001116
 20
-6.1508365931
 10
-224.9944766177
 20
-7.0192938812
 10
-225.2695403209
 20
-8.0686862805
 10
-225.2291506043
 20
-9.2057706711
 10
-224.8768962713
 20
-10.329512115
 10
-224.2440766652
 20
-11.3400612534
 10
-223.3869205852
 20
-12.1476263605
 10
-222.3815901105
 20
-12.6804517328
 10
-221.3174132656
 20
-12.8911934976
 10
-220.2889468333
 20
-12.7611263242
 10
-219.3875745694
 20
-12.3018072519
 10
-218.6933873551
 20
-11.5540487959
 10
-218.2680667709
 20
-10.5842925765
 10
-218.1494044172
 20
-9.4787056894
 10
-218.3479439647
 20
-8.3355243815
 10
-218.8460443035
 20
-7.2563253286
  0
LWPOLYLINE
  5
380
330
1F
100
AcDbEntity
  8
0
  6
Continuous
 62
     7
370
    25
100
AcDbPolyline
 90
        3
 70
   128
 43
0.0
 10
-432.819831025
 20
-394.5451008586
 10
-433.9327062906
 20
-395.4623037009
 10
-436.0299475088
 20
-396.9364251475
  0
LWPOLYLINE
  5
381
330
1F
100
AcDbEntity
  8
0
  6
Continuous
 62
     7
370
    25
100
AcDbPolyline
 90
        3
 70
   128
 43
0.0
 10
-423.4171077661
 20
-381.5216747478
 10
-423.6720231264
 20
-382.0501169162
 10
-424.4805285083
 20
-383.6375238146
  0
SPLINE
  5
382
330
1F
100
AcDbEntity
  8
0
  6
Continuous
 62
     7
370
    25
100
AcDbSpline
210
0.0
220
0.0
230
1.0
 70
     8
 71
     3
 72
    11
 73
     7
 74
     0
 42
0.00000001
 43
0.00000001
 40
0.000000000000003
 40
0.000000000000003
 40
0.000000000000003
 40
0.000000000000003
 40
0.000008230269115
 40
0.000008230269115
 40
0.000008230269115
 40
0.0000145214143258
 40
0.0000145214143258
 40
0.0000145214143258
 40
0.0000145214143258
 10
-436.0299475087667
 20
-396.9364251474721
 30
0.0
 10
-436.0310430829634
 20
-396.9371138176369
 30
0.0
 10
-436.0318370602386
 20
-396.9376135038446
 30
0.0
 10
-436.0322031402605
 20
-396.9378449262495
 30
0.0
 10
-436.0324845872238
 20
-396.9380228467292
 30
0.0
 10
-436.0325215954483
 20
-396.9380475450604
 30
0.0
 10
-436.0323340870171
 20
-396.9379314552525
 30
0.0
  0
LWPOLYLINE
  5
383
330
1F
100
AcDbEntity
  8
0
  6
Continuous
 62
     7
370
    25
100
AcDbPolyline
 90
        3
 70
   128
 43
0.0
 10
-530.477890845
 20
-214.370418313
 10
-528.6967762481
 20
-214.3361700707
 10
-528.1100642267
 20
-214.3375737331
  0
LWPOLYLINE
  5
384
330
1F
100
AcDbEntity
  8
0
  6
Continuous
 62
     7
370
    25
100
AcDbPolyline
 90
        3
 70
   128
 43
0.0
 10
-547.4849707962
 20
-218.953984859
 10
-545.2430671135
 20
-217.71087479
 10
-543.9319965357
 20
-217.1101698064
  0
SPLINE
  5
385
330
1F
100
AcDbEntity
  8
0
  6
Continuous
 62
     7
370
    25
100
AcDbSpline
210
0.0
220
0.0
230
1.0
 70
     8
 71
     3
 72
    11
 73
     7
 74
     0
 42
0.00000001
 43
0.00000001
 40
0.000000000000022
 40
0.000000000000022
 40
0.000000000000022
 40
0.000000000000022
 40
0.0000081020813733
 40
0.0000081020813733
 40
0.0000081020813733
 40
0.0000145172893869
 40
0.0000145172893869
 40
0.0000145172893869
 40
0.0000145172893869
 10
-547.487367990227
 20
-218.955474214479
 30
0.0
 10
-547.4876065523855
 20
-218.9556253090075
 30
0.0
 10
-547.487468768658
 20
-218.9555410592263
 30
0.0
 10
-547.4869347390292
 20
-218.9552088982805
 30
0.0
 10
-547.4865092546438
 20
-218.9549442513618
 30
0.0
 10
-547.4858319312308
 20
-218.9545220689652
 30
0.0
 10
-547.4849707962
 20
-218.9539848590357
 30
0.0
  0
LWPOLYLINE
  5
3DD
330
1F
100
AcDbEntity
  8
0
  6
Continuous
 62
     7
370
    25
100
AcDbPolyline
 90
       17
 70
   128
 43
0.0
 10
-103.8040228706
 20
-158.2149021904
 10
-104.4484813535
 20
-157.4896587275
 10
-105.2682199172
 20
-157.0460294469
 10
-106.1384407964
 20
-156.9515528851
 10
-106.9266607508
 20
-157.2206122422
 10
-107.5128804375
 20
-157.8122456701
 10
-107.8078532234
 20
-158.6363823426
 10
-107.7666721758
 20
-159.567554922
 10
-107.3956067358
 20
-160.4640008244
 10
-106.7511482529
 20
-161.1892442872
 10
-105.9314096892
 20
-161.6328735678
 10
-105.06118881
 20
-161.7273501296
 10
-104.2729688556
 20
-161.4582907725
 10
-103.6867491689
 20
-160.8666573446
 10
-103.391776383
 20
-160.0425206721
 10
-103.4329574306
 20
-159.1113480927
 10
-103.8040228706
 20
-158.2149021904
  0
LWPOLYLINE
  5
3F0
330
1F
100
AcDbEntity
  8
0
  6
Continuous
 62
     7
370
    25
100
AcDbPolyline
 90
       17
 70
   128
 43
0.0
 10
-263.9886632552
 20
-258.5247012662
 10
-264.3597286952
 20
-257.6282553638
 10
-264.4009097429
 20
-256.6970827844
 10
-264.105936957
 20
-255.8729461119
 10
-263.5197172702
 20
-255.281312684
 10
-262.7314973159
 20
-255.0122533269
 10
-261.8612764367
 20
-255.1067298887
 10
-261.041537873
 20
-255.5503591693
 10
-260.3970793901
 20
-256.2756026322
 10
-260.0260139501
 20
-257.1720485345
 10
-259.9848329024
 20
-258.1032211139
 10
-260.2798056883
 20
-258.9273577864
 10
-260.8660253751
 20
-259.5189912143
 10
-261.6542453295
 20
-259.7880505714
 10
-262.5244662087
 20
-259.6935740096
 10
-263.3442047724
 20
-259.249944729
 10
-263.9886632552
 20
-258.5247012662
  0
LWPOLYLINE
  5
40B
330
1F
100
AcDbEntity
  8
0
  6
Continuous
 62
     7
370
    25
100
AcDbPolyline
 90
       24
 70
   128
 43
0.0
 10
58.6861397661
 20
-62.112492083
 10
55.6031433779
 20
-59.3100028388
 10
50.3131377317
 20
-54.2842235272
 10
45.0895900465
 20
-49.0441155275
 10
39.9430162089
 20
-43.600228065
 10
34.8837771443
 20
-37.9635206078
 10
29.9220579582
 20
-32.1453408031
 10
25.0678474321
 20
-26.1574016329
 10
20.3309179145
 20
-20.0117578334
 10
15.7208056472
 20
-13.7207816271
 10
11.2467915674
 20
-7.2971378151
 10
6.9178826236
 20
-0.753758281
 10
2.7427936432
 20
5.8961840434
 10
-1.2700702122
 20
12.6393016972
 10
-5.1126303677
 20
19.4620196419
 10
-8.7771510986
 20
26.3506025901
 10
-12.2562551035
 20
33.2911826571
 10
-15.5429383566
 20
40.2697872788
 10
-18.6305842074
 20
47.2723673417
 10
-21.5129767018
 20
54.2848254655
 10
-24.184313095
 20
61.2930443834
 10
-26.6392155343
 20
68.2829153634
 10
-28.8727418851
 20
75.2403666105
 10
-30.2545111289
 20
79.916764385
  0
LWPOLYLINE
  5
416
330
1F
100
AcDbEntity
  8
0
  6
Continuous
 62
     7
370
    25
100
AcDbPolyline
 90
       17
 70
   128
 43
0.0
 10
-38.6405725953
 20
55.445410501
 10
-38.3112263366
 20
55.8761862967
 10
-38.2340203279
 20
56.5639544533
 10
-38.4207084841
 20
57.4040085036
 10
-38.8428692258
 20
58.2684578335
 10
-39.436232407
 20
59.0256978688
 10
-40.1104638621
 20
59.5604456785
 10
-40.7629179641
 20
59.7912907562
 10
-41.2942644904
 20
59.6830890312
 10
-41.6236107491
 20
59.2523132355
 10
-41.7008167578
 20
58.5645450788
 10
-41.5141286015
 20
57.7244910286
 10
-41.0919678598
 20
56.8600416986
 10
-40.4986046787
 20
56.1028016633
 10
-39.8243732235
 20
55.5680538536
 10
-39.1719191216
 20
55.337208776
 10
-38.6405725953
 20
55.445410501
  0
LWPOLYLINE
  5
417
330
1F
100
AcDbEntity
  8
0
  6
Continuous
 62
     7
370
    25
100
AcDbPolyline
 90
       17
 70
   128
 43
0.0
 10
35.6628004689
 20
-63.2095883457
 10
35.9921467276
 20
-62.7788125499
 10
36.0693527363
 20
-62.0910443933
 10
35.88266458
 20
-61.250990343
 10
35.4605038383
 20
-60.3865410131
 10
34.8671406571
 20
-59.6293009778
 10
34.192909202
 20
-59.0945531681
 10
33.5404551
 20
-58.8637080905
 10
33.0091085737
 20
-58.9719098154
 10
32.6797623151
 20
-59.4026856112
 10
32.6025563064
 20
-60.0904537678
 10
32.7892444626
 20
-60.9305078181
 10
33.2114052043
 20
-61.794957148
 10
33.8047683855
 20
-62.5521971833
 10
34.4789998406
 20
-63.086944993
 10
35.1314539426
 20
-63.3177900706
 10
35.6628004689
 20
-63.2095883457
  0
LWPOLYLINE
  5
444
330
1F
100
AcDbEntity
  8
0
  6
Continuous
 62
     7
370
    25
100
AcDbPolyline
 90
       10
 70
   128
 43
0.0
 10
240.1839699657
 20
-48.5773372644
 10
239.0734784812
 20
-48.7868532651
 10
238.0912540133
 20
-48.6010976246
 10
237.3079046263
 20
-48.0334235496
 10
236.7797420753
 20
-47.124638787
 10
236.5447337869
 20
-45.9400721234
 10
236.6197735371
 20
-44.5648771687
 10
236.9994670281
 20
-43.0979110138
 10
237.6565196613
 20
-41.6446278025
 10
238.5436986341
 20
-40.3094980685
  0
LWPOLYLINE
  5
448
330
1F
100
AcDbEntity
  8
0
  6
Continuous
 62
     7
370
    25
100
AcDbPolyline
 90
        9
 70
   128
 43
0.0
 10
246.7069821075
 20
-40.5229760051
 10
247.1312114668
 20
-39.6914394325
 10
247.4220751013
 20
-38.8339559648
 10
247.5636561249
 20
-37.997449538
 10
247.5482068212
 20
-37.2276961646
 10
247.3765726199
 20
-36.5668189403
 10
247.0581458331
 20
-36.0509829479
 10
246.6103516809
 20
-35.7084162011
 10
246.0576947339
 20
-35.5578649273
  0
LWPOLYLINE
  5
44C
330
1F
100
AcDbEntity
  8
0
  6
Continuous
 62
     7
370
    25
100
AcDbPolyline
 90
       10
 70
   128
 43
0.0
 10
240.6607433715
 20
-55.2307050809
 10
239.6168978093
 20
-56.3702642212
 10
238.7445185927
 20
-57.717397897
 10
238.1063174641
 20
-59.1752662269
 10
237.7481720692
 20
-60.6390690722
 10
237.6958280026
 20
-62.0035796862
 10
237.9530480634
 20
-63.1707090311
 10
238.5013417627
 20
-64.0565569942
 10
239.3012945288
 20
-64.5974436204
 10
240.2954010581
 20
-64.7544868021
  0
LWPOLYLINE
  5
450
330
1F
100
AcDbEntity
  8
0
  6
Continuous
 62
     7
370
    25
100
AcDbPolyline
 90
        9
 70
   128
 43
0.0
 10
247.7282321795
 20
-54.7745099202
 10
248.2300790553
 20
-55.0261249669
 10
248.6135743756
 20
-55.4613156911
 10
248.8577321848
 20
-56.0562672178
 10
248.9491914727
 20
-56.7784221059
 10
248.8829473267
 20
-57.5882619846
 10
248.662624815
 20
-58.4414701105
 10
248.3002806127
 20
-59.2913565065
 10
247.8157432257
 20
-60.09141297
  0
LWPOLYLINE
  5
45D
330
1F
100
AcDbEntity
  8
0
  6
Continuous
 62
     7
370
    25
100
AcDbPolyline
 90
        3
 70
   128
 43
0.0
 10
238.7972513938
 20
-47.7771010142
 10
237.6867599092
 20
-47.9866170149
 10
237.2407818807
 20
-47.9544923936
  0
LWPOLYLINE
  5
46E
330
1F
100
AcDbEntity
  8
0
  6
Continuous
 62
     7
370
    25
100
AcDbPolyline
 90
       19
 70
   128
 43
0.0
 10
61.5709817552
 20
131.9341647437
 10
61.6795194636
 20
132.8988874215
 10
62.0975996142
 20
133.7157772692
 10
62.7747955705
 20
134.2863053152
 10
63.629427506
 20
134.5416574569
 10
64.5584141961
 20
134.4510344577
 10
65.4497061357
 20
134.0253667885
 10
66.1958003627
 20
133.3159962525
 10
66.7067069023
 20
132.4084834056
 10
66.9208028855
 20
131.4122876904
 10
66.8122651771
 20
130.4475650127
 10
66.3941850265
 20
129.630675165
 10
65.7169890702
 20
129.060147119
 10
64.8623571348
 20
128.8047949772
 10
63.9333704447
 20
128.8954179765
 10
63.0420785051
 20
129.3210856457
 10
62.295984278
 20
130.0304561817
 10
61.7850777385
 20
130.9379690286
 10
61.5709817552
 20
131.9341647437
  0
LWPOLYLINE
  5
46F
330
1F
100
AcDbEntity
  8
0
  6
Continuous
 62
     7
370
    25
100
AcDbPolyline
 90
       17
 70
   128
 43
0.0
 10
62.2417100462
 20
132.0315166028
 10
62.4606013554
 20
131.100774747
 10
62.9855275183
 20
130.2786252971
 10
63.7365732849
 20
129.6902330541
 10
64.5993987456
 20
129.4251754033
 10
65.4426465455
 20
129.5238049691
 10
66.1379398511
 20
129.9711062943
 10
66.5794265595
 20
130.6989818069
 10
66.6998943214
 20
131.5966190584
 10
66.4810030121
 20
132.5273609142
 10
65.9560768492
 20
133.3495103641
 10
65.2050310826
 20
133.937902607
 10
64.3422056219
 20
134.2029602579
 10
63.498957822
 20
134.104330692
 10
62.8036645165
 20
133.6570293668
 10
62.3621778081
 20
132.9291538542
 10
62.2417100462
 20
132.0315166028
  0
LWPOLYLINE
  5
470
330
1F
100
AcDbEntity
  8
0
  6
Continuous
 62
     7
370
    25
100
AcDbPolyline
 90
       19
 70
   128
 43
0.0
 10
129.8110751926
 20
174.6670387895
 10
129.919612901
 20
175.6317614673
 10
130.3376930516
 20
176.4486513149
 10
131.0148890079
 20
177.0191793609
 10
131.8695209433
 20
177.2745315027
 10
132.7985076335
 20
177.1839085034
 10
133.689799573
 20
176.7582408342
 10
134.4358938001
 20
176.0488702983
 10
134.9468003396
 20
175.1413574513
 10
135.1608963229
 20
174.1451617362
 10
135.0523586145
 20
173.1804390584
 10
134.6342784639
 20
172.3635492107
 10
133.9570825076
 20
171.7930211648
 10
133.1024505721
 20
171.537669023
 10
132.173463882
 20
171.6282920222
 10
131.2821719425
 20
172.0539596914
 10
130.5360777154
 20
172.7633302274
 10
130.0251711759
 20
173.6708430744
 10
129.8110751926
 20
174.6670387895
  0
LWPOLYLINE
  5
471
330
1F
100
AcDbEntity
  8
0
  6
Continuous
 62
     7
370
    25
100
AcDbPolyline
 90
       17
 70
   128
 43
0.0
 10
130.4818034835
 20
174.7643906485
 10
130.7006947928
 20
173.8336487927
 10
131.2256209557
 20
173.0114993428
 10
131.9766667223
 20
172.4231070999
 10
132.839492183
 20
172.158049449
 10
133.6827399829
 20
172.2566790148
 10
134.3780332885
 20
172.70398034
 10
134.8195199968
 20
173.4318558527
 10
134.9399877587
 20
174.3294931041
 10
134.7210964495
 20
175.2602349599
 10
134.1961702866
 20
176.0823844098
 10
133.44512452
 20
176.6707766528
 10
132.5822990593
 20
176.9358343036
 10
131.7390512594
 20
176.8372047378
 10
131.0437579538
 20
176.3899034126
 10
130.6022712455
 20
175.6620279
 10
130.4818034835
 20
174.7643906485
  0
LWPOLYLINE
  5
472
330
1F
100
AcDbEntity
  8
0
  6
Continuous
 62
     7
370
    25
100
AcDbPolyline
 90
       19
 70
   128
 43
0.0
 10
143.8354305048
 20
0.5661303064
 10
143.9439682132
 20
1.5308529842
 10
144.3620483638
 20
2.3477428319
 10
145.0392443201
 20
2.9182708778
 10
145.8938762556
 20
3.1736230196
 10
146.8228629457
 20
3.0830000203
 10
147.7141548852
 20
2.6573323512
 10
148.4602491123
 20
1.9479618152
 10
148.9711556518
 20
1.0404489682
 10
149.1852516351
 20
0.0442532531
 10
149.0767139267
 20
-0.9204694247
 10
148.6586337761
 20
-1.7373592724
 10
147.9814378198
 20
-2.3078873183
 10
147.1268058844
 20
-2.5632394601
 10
146.1978191942
 20
-2.4726164608
 10
145.3065272547
 20
-2.0469487916
 10
144.5604330276
 20
-1.3375782557
 10
144.0495264881
 20
-0.4300654087
 10
143.8354305048
 20
0.5661303064
  0
LWPOLYLINE
  5
473
330
1F
100
AcDbEntity
  8
0
  6
Continuous
 62
     7
370
    25
100
AcDbPolyline
 90
       17
 70
   128
 43
0.0
 10
144.5061587957
 20
0.6634821655
 10
144.725050105
 20
-0.2672596904
 10
145.2499762679
 20
-1.0894091402
 10
146.0010220345
 20
-1.6778013832
 10
146.8638474952
 20
-1.9428590341
 10
147.7070952951
 20
-1.8442294682
 10
148.4023886007
 20
-1.396928143
 10
148.843875309
 20
-0.6690526304
 10
148.964343071
 20
0.228584621
 10
148.7454517617
 20
1.1593264769
 10
148.2205255988
 20
1.9814759267
 10
147.4694798322
 20
2.5698681697
 10
146.6066543715
 20
2.8349258206
 10
145.7634065716
 20
2.7362962547
 10
145.068113266
 20
2.2889949295
 10
144.6266265577
 20
1.5611194169
 10
144.5061587957
 20
0.6634821655
  0
LWPOLYLINE
  5
474
330
1F
100
AcDbEntity
  8
0
  6
Continuous
 62
     7
370
    25
100
AcDbPolyline
 90
       45
 70
   128
 43
0.0
 10
-519.9105371771
 20
-242.9826546214
 10
-517.569594905
 20
-241.7271606971
 10
-515.0512650595
 20
-240.78038382
 10
-512.3683804723
 20
-240.147148548
 10
-509.5346125081
 20
-239.8306817031
 10
-506.5644013991
 20
-239.8325959276
 10
-503.4728826601
 20
-240.1528814672
 10
-500.275809962
 20
-240.7899062201
 10
-496.9894748546
 20
-241.7404240542
 10
-493.6306237481
 20
-242.9995913485
 10
-490.2163725779
 20
-244.5609916751
 10
-486.7641195853
 20
-246.4166684958
 10
-483.2914566603
 20
-248.557165707
 10
-479.8160796972
 20
-250.9715758255
 10
-476.3556984202
 20
-253.6475955707
 10
-472.9279461393
 20
-256.5715885594
 10
-469.5502898943
 20
-259.7286547936
 10
-466.2399414472
 20
-263.1027065875
 10
-463.0137695748
 20
-266.6765505465
 10
-459.8882141097
 20
-270.4319751809
 10
-456.8792021659
 20
-274.3498437077
 10
-454.0020669786
 20
-278.4101915669
 10
-451.2714697692
 20
-282.5923281565
 10
-448.7013250353
 20
-286.8749422671
 10
-446.3047296451
 20
-291.2362106788
 10
-444.0938960995
 20
-295.6539093676
 10
-442.0800902995
 20
-300.1055267535
 10
-440.2735741378
 20
-304.5683784148
 10
-438.6835532067
 20
-309.0197226822
 10
-437.3181298884
 20
-313.4368765259
 10
-436.1842620671
 20
-317.7973311423
 10
-435.2877276734
 20
-322.0788666542
 10
-434.6330952409
 20
-326.259665338
 10
-434.2237006266
 20
-330.318422802
 10
-434.0616300116
 20
-334.2344565484
 10
-434.1477092704
 20
-337.987811367
 10
-434.4814997631
 20
-341.559361022
 10
-435.0613005697
 20
-344.9309057149
 10
-435.8841571582
 20
-348.0852648268
 10
-436.9458764401
 20
-351.0063644668
 10
-438.2410481372
 20
-353.6793193807
 10
-439.7630723516
 20
-356.0905088028
 10
-441.5041931966
 20
-358.2276458647
 10
-443.4555383195
 20
-360.0798402057
 10
-445.607164113
 20
-361.637653468
  0
LWPOLYLINE
  5
477
330
1F
100
AcDbEntity
  8
0
  6
Continuous
 62
     7
370
    25
100
AcDbPolyline
 90
        9
 70
   128
 43
0.0
 10
-437.3297362186
 20
-394.8558716559
 10
-437.0753060221
 20
-395.2135752996
 10
-436.7895214043
 20
-395.5265188604
 10
-436.4862702802
 20
-395.7794946143
 10
-436.1802893626
 20
-395.9602090176
 10
-435.8864480205
 20
-396.0598801199
 10
-435.6190256915
 20
-396.0736643304
 10
-435.3910179614
 20
-396.0008917951
 10
-435.2135050346
 20
-395.8450989492
  0
LWPOLYLINE
  5
479
330
1F
100
AcDbEntity
  8
0
  6
Continuous
 62
     7
370
    25
100
AcDbPolyline
 90
        9
 70
   128
 43
0.0
 10
-546.1466845188
 20
-218.6959906255
 10
-546.3643500083
 20
-218.7876638752
 10
-546.5293748759
 20
-218.9610136948
 10
-546.6337396161
 20
-219.2076160215
 10
-546.6723725473
 20
-219.5154870328
 10
-546.6433962734
 20
-219.869665509
 10
-546.5482189179
 20
-220.2529398851
 10
-546.391465695
 20
-220.6466846592
 10
-546.1807541433
 20
-221.0317655126
  0
SPLINE
  5
47E
330
1F
100
AcDbEntity
  8
0
  6
Continuous
 62
     7
370
    25
100
AcDbSpline
210
0.0
220
0.0
230
1.0
 70
    24
 71
     3
 72
     9
 73
     5
 74
     0
 42
0.00000001
 43
0.00000001
 40
0.0
 40
0.0
 40
0.0
 40
0.0
 40
0.1036480433308249
 40
1.0
 40
1.0
 40
1.0
 40
1.0
 10
-43.10550002101785
 20
78.90199352599076
 30
0.0
 10
-43.06521078165746
 20
78.92722319529896
 30
0.0
 10
-42.67649877064719
 20
79.17063994005774
 30
0.0
 10
-42.15538727757714
 20
79.49696704008707
 30
0.0
 10
-41.68828797112098
 20
79.78947097471256
 30
0.0
  0
SPLINE
  5
480
330
1F
100
AcDbEntity
  8
0
  6
Continuous
 62
     7
370
    25
100
AcDbSpline
210
0.0
220
0.0
230
1.0
 70
    24
 71
     3
 72
    10
 73
     6
 74
     0
 42
0.00000001
 43
0.00000001
 40
0.0
 40
0.0
 40
0.0
 40
0.0
 40
0.5
 40
0.5
 40
1.0
 40
1.0
 40
1.0
 40
1.0
 10
-44.37654950162342
 20
78.10604506483484
 30
0.0
 10
-44.22770250602587
 20
78.19925507664108
 30
0.0
 10
-44.05441479931766
 20
78.30777019394868
 30
0.0
 10
-43.63737588335739
 20
78.56892563161311
 30
0.0
 10
-43.39309795037153
 20
78.72189579353142
 30
0.0
 10
-43.10550002101785
 20
78.90199352599076
 30
0.0
  0
LINE
  5
4B5
330
1F
100
AcDbEntity
  8
0
  6
Continuous
 62
     7
370
    25
100
AcDbLine
 10
-11.918913631
 20
-189.1670448294
 30
0.0
 11
-175.3863343721
 21
71.8739526332
 31
0.0
  0
LINE
  5
4B6
330
1F
100
AcDbEntity
  8
0
  6
Continuous
 62
     7
370
    25
100
AcDbLine
 10
-425.6691989609
 20
-419.9457062633
 30
0.0
 11
-422.7959318688
 21
-418.1464273561
 31
0.0
  0
LINE
  5
4B7
330
1F
100
AcDbEntity
  8
0
  6
Continuous
 62
     7
370
    25
100
AcDbLine
 10
-560.7879104165
 20
-197.7871437838
 30
0.0
 11
-563.6611775086
 21
-199.586422691
 31
0.0
  0
LINE
  5
4B8
330
1F
100
AcDbEntity
  8
0
  6
Continuous
 62
     7
370
    25
100
AcDbLine
 10
-411.8138678421
 20
-78.610308018
 30
0.0
 11
-525.1932047009
 21
-193.5075865411
 31
0.0
  0
LINE
  5
4B9
330
1F
100
AcDbEntity
  8
0
  6
Continuous
 62
     7
370
    25
100
AcDbLine
 10
-403.4040307521
 20
-387.9926240096
 30
0.0
 11
-250.5326839807
 21
-336.1601055021
 31
0.0
  0
LINE
  5
4BA
330
1F
100
AcDbEntity
  8
0
  6
Continuous
 62
     7
370
    25
100
AcDbLine
 10
62.4644595065
 20
127.0179948966
 30
0.0
 11
65.8381074575
 21
129.1306190989
 31
0.0
  0
LINE
  5
4BB
330
1F
100
AcDbEntity
  8
0
  6
Continuous
 62
     7
370
    25
100
AcDbLine
 10
62.6536771833
 20
134.2158333352
 30
0.0
 11
59.2800292323
 21
132.1032091329
 31
0.0
  0
LINE
  5
4BC
330
1F
100
AcDbEntity
  8
0
  6
Continuous
 62
     7
370
    25
100
AcDbLine
 10
130.7045529439
 20
169.7508689424
 30
0.0
 11
134.0782008948
 21
171.8634931447
 31
0.0
  0
LINE
  5
4BD
330
1F
100
AcDbEntity
  8
0
  6
Continuous
 62
     7
370
    25
100
AcDbLine
 10
130.8937706207
 20
176.948707381
 30
0.0
 11
127.5201226697
 21
174.8360831787
 31
0.0
  0
LINE
  5
4BE
330
1F
100
AcDbEntity
  8
0
  6
Continuous
 62
     7
370
    25
100
AcDbLine
 10
144.7289082561
 20
-4.3500395407
 30
0.0
 11
148.102556207
 21
-2.2374153384
 31
0.0
  0
LINE
  5
4BF
330
1F
100
AcDbEntity
  8
0
  6
Continuous
 62
     7
370
    25
100
AcDbLine
 10
144.9181259329
 20
2.8477988979
 30
0.0
 11
141.5444779819
 21
0.7351746956
 31
0.0
  0
LINE
  5
4C0
330
1F
100
AcDbEntity
  8
0
  6
Continuous
 62
     7
370
    25
100
AcDbLine
 10
-546.2539846955
 20
-218.7178408939
 30
0.0
 11
-546.3425914478
 21
-218.7733276465
 31
0.0
  0
LINE
  5
4C1
330
1F
100
AcDbEntity
  8
0
  6
Continuous
 62
     7
370
    25
100
AcDbLine
 10
-435.368620007
 20
-395.987576614
 30
0.0
 11
-435.2800132547
 21
-395.9320898614
 31
0.0
  0
LINE
  5
4C2
330
1F
100
AcDbEntity
  8
0
  6
Continuous
 62
     7
370
    25
100
AcDbLine
 10
53.8434551144
 20
65.9183071406
 30
0.0
 11
50.4207412024
 21
68.8840363334
 31
0.0
  0
LINE
  5
4C3
330
1F
100
AcDbEntity
  8
0
  6
Continuous
 62
     7
370
    25
100
AcDbLine
 10
50.4207412024
 20
68.8840363334
 30
0.0
 11
47.8128326611
 21
54.862069982
 31
0.0
  0
LINE
  5
4C4
330
1F
100
AcDbEntity
  8
0
  6
Continuous
 62
     7
370
    25
100
AcDbLine
 10
47.8128326611
 20
54.862069982
 30
0.0
 11
51.2355465731
 21
51.8963407891
 31
0.0
  0
LINE
  5
4C5
330
1F
100
AcDbEntity
  8
0
  6
Continuous
 62
     7
370
    25
100
AcDbLine
 10
53.8434551144
 20
65.9183071406
 30
0.0
 11
51.2355465731
 21
51.8963407891
 31
0.0
  0
LINE
  5
4C6
330
1F
100
AcDbEntity
  8
0
  6
Continuous
 62
     7
370
    25
100
AcDbLine
 10
90.4667043301
 20
-72.2397637531
 30
0.0
 11
87.2038126012
 21
-68.7393551972
 31
0.0
  0
LINE
  5
4C7
330
1F
100
AcDbEntity
  8
0
  6
Continuous
 62
     7
370
    25
100
AcDbLine
 10
87.2038126012
 20
-68.7393551972
 30
0.0
 11
82.1392623099
 21
-80.3853237996
 31
0.0
  0
LINE
  5
4C8
330
1F
100
AcDbEntity
  8
0
  6
Continuous
 62
     7
370
    25
100
AcDbLine
 10
85.4021540388
 20
-83.8857323554
 30
0.0
 11
82.1392623099
 21
-80.3853237996
 31
0.0
  0
LINE
  5
4C9
330
1F
100
AcDbEntity
  8
0
  6
Continuous
 62
     7
370
    25
100
AcDbLine
 10
90.4667043301
 20
-72.2397637531
 30
0.0
 11
85.4021540388
 21
-83.8857323554
 31
0.0
  0
LINE
  5
4CA
330
1F
100
AcDbEntity
  8
0
  6
Continuous
 62
     7
370
    25
100
AcDbLine
 10
58.810899955
 20
92.6268144768
 30
0.0
 11
55.388186043
 21
95.5925436696
 31
0.0
  0
LINE
  5
4CB
330
1F
100
AcDbEntity
  8
0
  6
Continuous
 62
     7
370
    25
100
AcDbLine
 10
55.388186043
 20
95.5925436696
 30
0.0
 11
52.7802775017
 21
81.5705773181
 31
0.0
  0
LINE
  5
4CC
330
1F
100
AcDbEntity
  8
0
  6
Continuous
 62
     7
370
    25
100
AcDbLine
 10
52.7802775017
 20
81.5705773181
 30
0.0
 11
56.2029914137
 21
78.6048481253
 31
0.0
  0
LINE
  5
4CD
330
1F
100
AcDbEntity
  8
0
  6
Continuous
 62
     7
370
    25
100
AcDbLine
 10
58.810899955
 20
92.6268144768
 30
0.0
 11
56.2029914137
 21
78.6048481253
 31
0.0
  0
LINE
  5
4CE
330
1F
100
AcDbEntity
  8
0
  6
Continuous
 62
     7
370
    25
100
AcDbLine
 10
139.3232157292
 20
-55.5786787962
 30
0.0
 11
142.0966528731
 21
-57.1791512966
 31
0.0
  0
LINE
  5
4CF
330
1F
100
AcDbEntity
  8
0
  6
Continuous
 62
     7
370
    25
100
AcDbLine
 10
142.0966528731
 20
-57.1791512966
 30
0.0
 11
144.8133557322
 21
-95.0907108595
 31
0.0
  0
LINE
  5
4D0
330
1F
100
AcDbEntity
  8
0
  6
Continuous
 62
     7
370
    25
100
AcDbLine
 10
144.8133557322
 20
-95.0907108595
 30
0.0
 11
142.0399185883
 21
-93.4902383591
 31
0.0
  0
LINE
  5
4D1
330
1F
100
AcDbEntity
  8
0
  6
Continuous
 62
     7
370
    25
100
AcDbLine
 10
142.0399185883
 20
-93.4902383591
 30
0.0
 11
142.6120998654
 21
-101.4750220089
 31
0.0
  0
LINE
  5
4D2
330
1F
100
AcDbEntity
  8
0
  6
Continuous
 62
     7
370
    25
100
AcDbLine
 10
142.6120998654
 20
-101.4750220089
 30
0.0
 11
145.3855370094
 21
-103.0754945093
 31
0.0
  0
LINE
  5
4D3
330
1F
100
AcDbEntity
  8
0
  6
Continuous
 62
     7
370
    25
100
AcDbLine
 10
145.3855370094
 20
-103.0754945093
 30
0.0
 11
148.1022398684
 21
-140.9870540722
 31
0.0
  0
LINE
  5
4D4
330
1F
100
AcDbEntity
  8
0
  6
Continuous
 62
     7
370
    25
100
AcDbLine
 10
148.1022398684
 20
-140.9870540722
 30
0.0
 11
145.3288027245
 21
-139.3865815718
 31
0.0
  0
LINE
  5
4D5
330
1F
100
AcDbEntity
  8
0
  6
Continuous
 62
     7
370
    25
100
AcDbLine
 10
145.3288027245
 20
-139.3865815718
 30
0.0
 11
145.9009840017
 21
-147.3713652216
 31
0.0
  0
LINE
  5
4D6
330
1F
100
AcDbEntity
  8
0
  6
Continuous
 62
     7
370
    25
100
AcDbLine
 10
145.9009840017
 20
-147.3713652216
 30
0.0
 11
148.6744211456
 21
-148.9718377221
 31
0.0
  0
LINE
  5
4D7
330
1F
100
AcDbEntity
  8
0
  6
Continuous
 62
     7
370
    25
100
AcDbLine
 10
148.6744211456
 20
-148.9718377221
 30
0.0
 11
149.2331559319
 21
-156.7689757341
 31
0.0
  0
LINE
  5
4D8
330
1F
100
AcDbEntity
  8
0
  6
Continuous
 62
     7
370
    25
100
AcDbLine
 10
134.1749787662
 20
-169.6544325358
 30
0.0
 11
132.0520252501
 21
-166.2642897116
 31
0.0
  0
LINE
  5
4D9
330
1F
100
AcDbEntity
  8
0
  6
Continuous
 62
     7
370
    25
100
AcDbLine
 10
132.0520252501
 20
-166.2642897116
 30
0.0
 11
127.5538279821
 21
-169.0811219814
 31
0.0
  0
LINE
  5
4DA
330
1F
100
AcDbEntity
  8
0
  6
Continuous
 62
     7
370
    25
100
AcDbLine
 10
127.5538279821
 20
-169.0811219814
 30
0.0
 11
129.6767814982
 21
-172.4712648056
 31
0.0
  0
LINE
  5
4DB
330
1F
100
AcDbEntity
  8
0
  6
Continuous
 62
     7
370
    25
100
AcDbLine
 10
108.3194497121
 20
-185.8455162639
 30
0.0
 11
106.1964961959
 21
-182.4553734397
 31
0.0
  0
LINE
  5
4DC
330
1F
100
AcDbEntity
  8
0
  6
Continuous
 62
     7
370
    25
100
AcDbLine
 10
106.1964961959
 20
-182.4553734397
 30
0.0
 11
101.698298928
 21
-185.2722057095
 31
0.0
  0
LINE
  5
4DD
330
1F
100
AcDbEntity
  8
0
  6
Continuous
 62
     7
370
    25
100
AcDbLine
 10
101.698298928
 20
-185.2722057095
 30
0.0
 11
103.8212524441
 21
-188.6623485337
 31
0.0
  0
LINE
  5
4DE
330
1F
100
AcDbEntity
  8
0
  6
Continuous
 62
     7
370
    25
100
AcDbLine
 10
82.4639206579
 20
-202.036599992
 30
0.0
 11
80.3409671418
 21
-198.6464571678
 31
0.0
  0
LINE
  5
4DF
330
1F
100
AcDbEntity
  8
0
  6
Continuous
 62
     7
370
    25
100
AcDbLine
 10
80.3409671418
 20
-198.6464571678
 30
0.0
 11
75.8427698738
 21
-201.4632894375
 31
0.0
  0
LINE
  5
4E0
330
1F
100
AcDbEntity
  8
0
  6
Continuous
 62
     7
370
    25
100
AcDbLine
 10
75.8427698738
 20
-201.4632894375
 30
0.0
 11
77.96572339
 21
-204.8534322617
 31
0.0
  0
LINE
  5
4E1
330
1F
100
AcDbEntity
  8
0
  6
Continuous
 62
     7
370
    25
100
AcDbLine
 10
56.6083916038
 20
-218.22768372
 30
0.0
 11
54.4854380877
 21
-214.8375408958
 31
0.0
  0
LINE
  5
4E2
330
1F
100
AcDbEntity
  8
0
  6
Continuous
 62
     7
370
    25
100
AcDbLine
 10
54.4854380877
 20
-214.8375408958
 30
0.0
 11
49.9872408197
 21
-217.6543731656
 31
0.0
  0
LINE
  5
4E3
330
1F
100
AcDbEntity
  8
0
  6
Continuous
 62
     7
370
    25
100
AcDbLine
 10
49.9872408197
 20
-217.6543731656
 30
0.0
 11
52.1101943358
 21
-221.0445159898
 31
0.0
  0
LINE
  5
4E4
330
1F
100
AcDbEntity
  8
0
  6
Continuous
 62
     7
370
    25
100
AcDbLine
 10
47.388304311
 20
-223.4881744189
 30
0.0
 11
25.4752674108
 21
-224.3187357881
 31
0.0
  0
LINE
  5
4E5
330
1F
100
AcDbEntity
  8
0
  6
Continuous
 62
     7
370
    25
100
AcDbLine
 10
25.4752674108
 20
-224.3187357881
 30
0.0
 11
23.9695705829
 21
-220.7473597501
 31
0.0
  0
LINE
  5
4E6
330
1F
100
AcDbEntity
  8
0
  6
Continuous
 62
     7
370
    25
100
AcDbLine
 10
23.9695705829
 20
-220.7473597501
 30
0.0
 11
18.1187088515
 21
-220.9691227012
 31
0.0
  0
LINE
  5
4E7
330
1F
100
AcDbEntity
  8
0
  6
Continuous
 62
     7
370
    25
100
AcDbLine
 10
18.1187088515
 20
-220.9691227012
 30
0.0
 11
19.6244056795
 21
-224.5404987393
 31
0.0
  0
LINE
  5
4E8
330
1F
100
AcDbEntity
  8
0
  6
Continuous
 62
     7
370
    25
100
AcDbLine
 10
19.6244056795
 20
-224.5404987393
 30
0.0
 11
-8.1553442485
 21
-225.5934238652
 31
0.0
  0
LINE
  5
4E9
330
1F
100
AcDbEntity
  8
0
  6
Continuous
 62
     7
370
    25
100
AcDbLine
 10
-8.1553442485
 20
-225.5934238652
 30
0.0
 11
-9.6610410764
 21
-222.0220478271
 31
0.0
  0
LINE
  5
4EA
330
1F
100
AcDbEntity
  8
0
  6
Continuous
 62
     7
370
    25
100
AcDbLine
 10
-9.6610410764
 20
-222.0220478271
 30
0.0
 11
-15.5119028077
 21
-222.2438107782
 31
0.0
  0
LINE
  5
4EB
330
1F
100
AcDbEntity
  8
0
  6
Continuous
 62
     7
370
    25
100
AcDbLine
 10
-15.5119028077
 20
-222.2438107782
 30
0.0
 11
-14.0062059798
 21
-225.8151868163
 31
0.0
  0
LINE
  5
4EC
330
1F
100
AcDbEntity
  8
0
  6
Continuous
 62
     7
370
    25
100
AcDbLine
 10
-14.0062059798
 20
-225.8151868163
 30
0.0
 11
-41.7859559077
 21
-226.8681119422
 31
0.0
  0
LINE
  5
4ED
330
1F
100
AcDbEntity
  8
0
  6
Continuous
 62
     7
370
    25
100
AcDbLine
 10
-41.7859559077
 20
-226.8681119422
 30
0.0
 11
-43.2916527356
 21
-223.2967359041
 31
0.0
  0
LINE
  5
4EE
330
1F
100
AcDbEntity
  8
0
  6
Continuous
 62
     7
370
    25
100
AcDbLine
 10
-43.2916527356
 20
-223.2967359041
 30
0.0
 11
-49.1425144669
 21
-223.5184988553
 31
0.0
  0
LINE
  5
4EF
330
1F
100
AcDbEntity
  8
0
  6
Continuous
 62
     7
370
    25
100
AcDbLine
 10
-49.1425144669
 20
-223.5184988553
 30
0.0
 11
-47.636817639
 21
-227.0898748933
 31
0.0
  0
LINE
  5
4F0
330
1F
100
AcDbEntity
  8
0
  6
Continuous
 62
     7
370
    25
100
AcDbLine
 10
-47.636817639
 20
-227.0898748933
 30
0.0
 11
-73.2058454959
 21
-228.0590078749
 31
0.0
  0
LINE
  5
4F1
330
1F
100
AcDbEntity
  8
0
  6
Continuous
 62
     7
370
    25
100
AcDbLine
 10
-237.1350091423
 20
33.7193464752
 30
0.0
 11
-225.0988435741
 21
56.299096755
 31
0.0
  0
LINE
  5
4F2
330
1F
100
AcDbEntity
  8
0
  6
Continuous
 62
     7
370
    25
100
AcDbLine
 10
-222.5433305319
 20
53.3851298997
 30
0.0
 11
-225.0988435741
 21
56.299096755
 31
0.0
  0
LINE
  5
4F3
330
1F
100
AcDbEntity
  8
0
  6
Continuous
 62
     7
370
    25
100
AcDbLine
 10
-219.7891413266
 20
58.551966807
 30
0.0
 11
-222.5433305319
 21
53.3851298997
 31
0.0
  0
LINE
  5
4F4
330
1F
100
AcDbEntity
  8
0
  6
Continuous
 62
     7
370
    25
100
AcDbLine
 10
-222.3446543687
 20
61.4659336623
 30
0.0
 11
-219.7891413266
 21
58.551966807
 31
0.0
  0
LINE
  5
4F5
330
1F
100
AcDbEntity
  8
0
  6
Continuous
 62
     7
370
    25
100
AcDbLine
 10
-222.3446543687
 20
61.4659336623
 30
0.0
 11
-209.2678306644
 21
85.997950277
 31
0.0
  0
LINE
  5
4F6
330
1F
100
AcDbEntity
  8
0
  6
Continuous
 62
     7
370
    25
100
AcDbLine
 10
-206.7123176222
 20
83.0839834216
 30
0.0
 11
-209.2678306644
 21
85.997950277
 31
0.0
  0
LINE
  5
4F7
330
1F
100
AcDbEntity
  8
0
  6
Continuous
 62
     7
370
    25
100
AcDbLine
 10
-203.9581284168
 20
88.2508203289
 30
0.0
 11
-206.7123176222
 21
83.0839834216
 31
0.0
  0
LINE
  5
4F8
330
1F
100
AcDbEntity
  8
0
  6
Continuous
 62
     7
370
    25
100
AcDbLine
 10
-206.513641459
 20
91.1647871843
 30
0.0
 11
-203.9581284168
 21
88.2508203289
 31
0.0
  0
LINE
  5
4F9
330
1F
100
AcDbEntity
  8
0
  6
Continuous
 62
     7
370
    25
100
AcDbLine
 10
-206.513641459
 20
91.1647871843
 30
0.0
 11
-193.4368177547
 21
115.696803799
 31
0.0
  0
LINE
  5
4FA
330
1F
100
AcDbEntity
  8
0
  6
Continuous
 62
     7
370
    25
100
AcDbLine
 10
-190.8813047125
 20
112.7828369436
 30
0.0
 11
-193.4368177547
 21
115.696803799
 31
0.0
  0
LINE
  5
4FB
330
1F
100
AcDbEntity
  8
0
  6
Continuous
 62
     7
370
    25
100
AcDbLine
 10
-188.1271155071
 20
117.9496738509
 30
0.0
 11
-190.8813047125
 21
112.7828369436
 31
0.0
  0
LINE
  5
4FC
330
1F
100
AcDbEntity
  8
0
  6
Continuous
 62
     7
370
    25
100
AcDbLine
 10
-190.6826285493
 20
120.8636407063
 30
0.0
 11
-188.1271155071
 21
117.9496738509
 31
0.0
  0
LINE
  5
4FD
330
1F
100
AcDbEntity
  8
0
  6
Continuous
 62
     7
370
    25
100
AcDbLine
 10
-190.6826285493
 20
120.8636407063
 30
0.0
 11
-180.3674557665
 21
140.2148222939
 31
0.0
  0
LINE
  5
4FE
330
1F
100
AcDbEntity
  8
0
  6
Continuous
 62
     7
370
    25
100
AcDbLine
 10
-173.9843551308
 20
140.0056947864
 30
0.0
 11
-176.1073086469
 21
143.3958376105
 31
0.0
  0
LINE
  5
4FF
330
1F
100
AcDbEntity
  8
0
  6
Continuous
 62
     7
370
    25
100
AcDbLine
 10
-169.4861578628
 20
142.8225270561
 30
0.0
 11
-173.9843551308
 21
140.0056947864
 31
0.0
  0
LINE
  5
500
330
1F
100
AcDbEntity
  8
0
  6
Continuous
 62
     7
370
    25
100
AcDbLine
 10
-171.6091113789
 20
146.2126698803
 30
0.0
 11
-169.4861578628
 21
142.8225270561
 31
0.0
  0
LINE
  5
501
330
1F
100
AcDbEntity
  8
0
  6
Continuous
 62
     7
370
    25
100
AcDbLine
 10
-148.1288260766
 20
156.1967785144
 30
0.0
 11
-150.2517795928
 21
159.5869213386
 31
0.0
  0
LINE
  5
502
330
1F
100
AcDbEntity
  8
0
  6
Continuous
 62
     7
370
    25
100
AcDbLine
 10
-143.6306288087
 20
159.0136107842
 30
0.0
 11
-148.1288260766
 21
156.1967785144
 31
0.0
  0
LINE
  5
503
330
1F
100
AcDbEntity
  8
0
  6
Continuous
 62
     7
370
    25
100
AcDbLine
 10
-145.7535823248
 20
162.4037536084
 30
0.0
 11
-143.6306288087
 21
159.0136107842
 31
0.0
  0
LINE
  5
504
330
1F
100
AcDbEntity
  8
0
  6
Continuous
 62
     7
370
    25
100
AcDbLine
 10
-122.2732970225
 20
172.3878622425
 30
0.0
 11
-124.3962505386
 21
175.7780050667
 31
0.0
  0
LINE
  5
505
330
1F
100
AcDbEntity
  8
0
  6
Continuous
 62
     7
370
    25
100
AcDbLine
 10
-117.7750997545
 20
175.2046945122
 30
0.0
 11
-122.2732970225
 21
172.3878622425
 31
0.0
  0
LINE
  5
506
330
1F
100
AcDbEntity
  8
0
  6
Continuous
 62
     7
370
    25
100
AcDbLine
 10
-119.8980532707
 20
178.5948373364
 30
0.0
 11
-117.7750997545
 21
175.2046945122
 31
0.0
  0
LINE
  5
507
330
1F
100
AcDbEntity
  8
0
  6
Continuous
 62
     7
370
    25
100
AcDbLine
 10
-96.4177679684
 20
188.5789459705
 30
0.0
 11
-98.5407214845
 21
191.9690887947
 31
0.0
  0
LINE
  5
508
330
1F
100
AcDbEntity
  8
0
  6
Continuous
 62
     7
370
    25
100
AcDbLine
 10
-91.9195707004
 20
191.3957782403
 30
0.0
 11
-96.4177679684
 21
188.5789459705
 31
0.0
  0
LINE
  5
509
330
1F
100
AcDbEntity
  8
0
  6
Continuous
 62
     7
370
    25
100
AcDbLine
 10
-94.0425242165
 20
194.7859210645
 30
0.0
 11
-91.9195707004
 21
191.3957782403
 31
0.0
  0
LINE
  5
50A
330
1F
100
AcDbEntity
  8
0
  6
Continuous
 62
     7
370
    25
100
AcDbLine
 10
-75.8753536072
 20
202.7066286462
 30
0.0
 11
-69.1047029775
 21
198.7994767691
 31
0.0
  0
LINE
  5
50B
330
1F
100
AcDbEntity
  8
0
  6
Continuous
 62
     7
370
    25
100
AcDbLine
 10
-68.8758304666
 20
195.6055633091
 30
0.0
 11
-69.1047029775
 21
198.7994767691
 31
0.0
  0
LINE
  5
50C
330
1F
100
AcDbEntity
  8
0
  6
Continuous
 62
     7
370
    25
100
AcDbLine
 10
-61.9422376068
 20
191.6043820581
 30
0.0
 11
-68.8758304666
 21
195.6055633091
 31
0.0
  0
LINE
  5
50D
330
1F
100
AcDbEntity
  8
0
  6
Continuous
 62
     7
370
    25
100
AcDbLine
 10
-62.1711101177
 20
194.7982955181
 30
0.0
 11
-61.9422376068
 21
191.6043820581
 31
0.0
  0
LINE
  5
50E
330
1F
100
AcDbEntity
  8
0
  6
Continuous
 62
     7
370
    25
100
AcDbLine
 10
-62.1711101177
 20
194.7982955181
 30
0.0
 11
-29.2505789906
 21
175.8007837541
 31
0.0
  0
LINE
  5
50F
330
1F
100
AcDbEntity
  8
0
  6
Continuous
 62
     7
370
    25
100
AcDbLine
 10
-29.0217064797
 20
172.6068702942
 30
0.0
 11
-29.2505789906
 21
175.8007837541
 31
0.0
  0
LINE
  5
510
330
1F
100
AcDbEntity
  8
0
  6
Continuous
 62
     7
370
    25
100
AcDbLine
 10
-22.0881136199
 20
168.6056890431
 30
0.0
 11
-29.0217064797
 21
172.6068702942
 31
0.0
  0
LINE
  5
511
330
1F
100
AcDbEntity
  8
0
  6
Continuous
 62
     7
370
    25
100
AcDbLine
 10
-22.3169861308
 20
171.7996025031
 30
0.0
 11
-22.0881136199
 21
168.6056890431
 31
0.0
  0
LINE
  5
512
330
1F
100
AcDbEntity
  8
0
  6
Continuous
 62
     7
370
    25
100
AcDbLine
 10
-22.3169861308
 20
171.7996025031
 30
0.0
 11
10.6035449963
 21
152.8020907391
 31
0.0
  0
LINE
  5
513
330
1F
100
AcDbEntity
  8
0
  6
Continuous
 62
     7
370
    25
100
AcDbLine
 10
10.8324175072
 20
149.6081772792
 30
0.0
 11
10.6035449963
 21
152.8020907391
 31
0.0
  0
LINE
  5
514
330
1F
100
AcDbEntity
  8
0
  6
Continuous
 62
     7
370
    25
100
AcDbLine
 10
17.766010367
 20
145.6069960282
 30
0.0
 11
10.8324175072
 21
149.6081772792
 31
0.0
  0
LINE
  5
515
330
1F
100
AcDbEntity
  8
0
  6
Continuous
 62
     7
370
    25
100
AcDbLine
 10
17.5371378561
 20
148.8009094881
 30
0.0
 11
17.766010367
 21
145.6069960282
 31
0.0
  0
LINE
  5
516
330
1F
100
AcDbEntity
  8
0
  6
Continuous
 62
     7
370
    25
100
AcDbLine
 10
17.5371378561
 20
148.8009094881
 30
0.0
 11
40.9504332242
 21
135.2897558415
 31
0.0
  0
LINE
  5
517
330
1F
100
AcDbEntity
  8
0
  6
Continuous
 62
     7
370
    25
100
AcDbLine
 10
46.0208117693
 20
130.1218044614
 30
0.0
 11
49.129805213
 21
125.1570552413
 31
0.0
  0
LINE
  5
518
330
1F
100
AcDbEntity
  8
0
  6
Continuous
 62
     7
370
    25
100
AcDbLine
 10
47.3305263058
 20
124.0303223334
 30
0.0
 11
52.0030723051
 21
126.9563341485
 31
0.0
  0
LINE
  5
519
330
1F
100
AcDbEntity
  8
0
  6
Continuous
 62
     7
370
    25
100
AcDbLine
 10
52.6379100961
 20
115.554965273
 30
0.0
 11
47.3305263058
 21
124.0303223334
 31
0.0
  0
LINE
  5
51A
330
1F
100
AcDbEntity
  8
0
  6
Continuous
 62
     7
370
    25
100
AcDbLine
 10
52.6379100961
 20
115.554965273
 30
0.0
 11
57.3104560953
 21
118.4809770881
 31
0.0
  0
LINE
  5
51B
330
1F
100
AcDbEntity
  8
0
  6
Continuous
 62
     7
370
    25
100
AcDbLine
 10
54.4371890032
 20
116.6816981809
 30
0.0
 11
128.7405620674
 21
-1.9733006658
 31
0.0
  0
LINE
  5
51C
330
1F
100
AcDbEntity
  8
0
  6
Continuous
 62
     7
370
    25
100
AcDbLine
 10
126.9412831602
 20
-3.1000335737
 30
0.0
 11
131.6138291595
 21
-0.1740217586
 31
0.0
  0
LINE
  5
51D
330
1F
100
AcDbEntity
  8
0
  6
Continuous
 62
     7
370
    25
100
AcDbLine
 10
126.9412831602
 20
-3.1000335737
 30
0.0
 11
132.2486669505
 21
-11.5753906341
 31
0.0
  0
LINE
  5
51E
330
1F
100
AcDbEntity
  8
0
  6
Continuous
 62
     7
370
    25
100
AcDbLine
 10
132.2486669505
 20
-11.5753906341
 30
0.0
 11
136.9212129498
 21
-8.649378819
 31
0.0
  0
LINE
  5
51F
330
1F
100
AcDbEntity
  8
0
  6
Continuous
 62
     7
370
    25
100
AcDbLine
 10
134.0479458577
 20
-10.4486577262
 30
0.0
 11
137.1569393013
 21
-15.4134069463
 31
0.0
  0
LINE
  5
520
330
1F
100
AcDbEntity
  8
0
  6
Continuous
 62
     7
370
    25
100
AcDbLine
 10
139.5923348931
 20
-22.2314204671
 30
0.0
 11
141.5244715959
 21
-49.1943676468
 31
0.0
  0
LINE
  5
521
330
1F
100
AcDbEntity
  8
0
  6
Continuous
 62
     7
370
    25
100
AcDbLine
 10
141.5244715959
 20
-49.1943676468
 30
0.0
 11
138.751034452
 21
-47.5938951464
 31
0.0
  0
LINE
  5
522
330
1F
100
AcDbEntity
  8
0
  6
Continuous
 62
     7
370
    25
100
AcDbLine
 10
138.751034452
 20
-47.5938951464
 30
0.0
 11
139.3232157292
 21
-55.5786787962
 31
0.0
  0
LINE
  5
523
330
1F
100
AcDbEntity
  8
0
  6
Continuous
 62
     7
370
    25
100
AcDbLine
 10
114.5836104792
 20
-16.7827704087
 30
0.0
 11
111.3207187503
 21
-13.2823618529
 31
0.0
  0
LINE
  5
524
330
1F
100
AcDbEntity
  8
0
  6
Continuous
 62
     7
370
    25
100
AcDbLine
 10
111.3207187503
 20
-13.2823618529
 30
0.0
 11
106.256168459
 21
-24.9283304552
 31
0.0
  0
LINE
  5
525
330
1F
100
AcDbEntity
  8
0
  6
Continuous
 62
     7
370
    25
100
AcDbLine
 10
109.5190601879
 20
-28.428739011
 30
0.0
 11
106.256168459
 21
-24.9283304552
 31
0.0
  0
LINE
  5
526
330
1F
100
AcDbEntity
  8
0
  6
Continuous
 62
     7
370
    25
100
AcDbLine
 10
114.5836104792
 20
-16.7827704087
 30
0.0
 11
109.5190601879
 21
-28.428739011
 31
0.0
  0
LINE
  5
527
330
1F
100
AcDbEntity
  8
0
  6
Continuous
 62
     7
370
    25
100
AcDbLine
 10
102.5251574046
 20
-44.5112670809
 30
0.0
 11
99.2622656758
 21
-41.0108585251
 31
0.0
  0
LINE
  5
528
330
1F
100
AcDbEntity
  8
0
  6
Continuous
 62
     7
370
    25
100
AcDbLine
 10
99.2622656758
 20
-41.0108585251
 30
0.0
 11
94.1977153845
 21
-52.6568271274
 31
0.0
  0
LINE
  5
529
330
1F
100
AcDbEntity
  8
0
  6
Continuous
 62
     7
370
    25
100
AcDbLine
 10
97.4606071133
 20
-56.1572356832
 30
0.0
 11
94.1977153845
 21
-52.6568271274
 31
0.0
  0
LINE
  5
52A
330
1F
100
AcDbEntity
  8
0
  6
Continuous
 62
     7
370
    25
100
AcDbLine
 10
102.5251574046
 20
-44.5112670809
 30
0.0
 11
97.4606071133
 21
-56.1572356832
 31
0.0
  0
LINE
  5
52B
330
1F
100
AcDbEntity
  8
0
  6
Continuous
 62
     7
370
    25
100
AcDbLine
 10
57.0450869058
 20
118.9047449411
 30
0.0
 11
131.879198349
 21
-0.5977896116
 31
0.0
  0
LINE
  5
52C
330
1F
100
AcDbEntity
  8
0
  6
Continuous
 62
     7
370
    25
100
AcDbLine
 10
40.9504332242
 20
135.2897558415
 30
0.0
 11
43.8237003163
 21
137.0890347487
 31
0.0
  0
LINE
  5
52D
330
1F
100
AcDbEntity
  8
0
  6
Continuous
 62
     7
370
    25
100
AcDbLine
 10
48.8940788614
 20
131.9210833686
 30
0.0
 11
46.0208117693
 21
130.1218044614
 31
0.0
  0
LINE
  5
52E
330
1F
100
AcDbEntity
  8
0
  6
Continuous
 62
     7
370
    25
100
AcDbLine
 10
137.1569393013
 20
-15.4134069463
 30
0.0
 11
140.0302063934
 21
-13.6141280391
 31
0.0
  0
LINE
  5
52F
330
1F
100
AcDbEntity
  8
0
  6
Continuous
 62
     7
370
    25
100
AcDbLine
 10
142.4656019852
 20
-20.4321415599
 30
0.0
 11
139.5923348931
 21
-22.2314204671
 31
0.0
  0
LINE
  5
530
330
1F
100
AcDbEntity
  8
0
  6
Continuous
 62
     7
370
    25
100
AcDbLine
 10
141.3492406014
 20
-15.7204927434
 30
0.0
 11
136.6558437603
 21
-8.225610966
 31
0.0
  0
LINE
  5
531
330
1F
100
AcDbEntity
  8
0
  6
Continuous
 62
     7
370
    25
100
AcDbLine
 10
47.5750446534
 20
134.0274480728
 30
0.0
 11
52.2684414946
 21
126.5325662955
 31
0.0
  0
LINE
  5
532
330
1F
100
AcDbEntity
  8
0
  6
Continuous
 62
     7
370
    25
100
AcDbLine
 10
17.5371378561
 20
148.8009094881
 30
0.0
 11
20.4104049482
 21
150.6001883953
 31
0.0
  0
LINE
  5
533
330
1F
100
AcDbEntity
  8
0
  6
Continuous
 62
     7
370
    25
100
AcDbLine
 10
20.0637253052
 20
150.8002474579
 30
0.0
 11
45.5468932354
 21
136.0946286249
 31
0.0
  0
LINE
  5
534
330
1F
100
AcDbEntity
  8
0
  6
Continuous
 62
     7
370
    25
100
AcDbLine
 10
141.5244715959
 20
-49.1943676468
 30
0.0
 11
144.397738688
 21
-47.3950887396
 31
0.0
  0
LINE
  5
535
330
1F
100
AcDbEntity
  8
0
  6
Continuous
 62
     7
370
    25
100
AcDbLine
 10
144.4263477519
 20
-47.7943279221
 30
0.0
 11
142.3233988381
 21
-18.4476981517
 31
0.0
  0
LINE
  5
536
330
1F
100
AcDbEntity
  8
0
  6
Continuous
 62
     7
370
    25
100
AcDbLine
 10
55.2458079986
 20
117.7780120332
 30
0.0
 11
55.5111771882
 21
117.3542441802
 31
0.0
  0
LINE
  5
537
330
1F
100
AcDbEntity
  8
0
  6
Continuous
 62
     7
370
    25
100
AcDbLine
 10
50.2037933979
 20
125.8296012406
 30
0.0
 11
50.4691625874
 21
125.4058333876
 31
0.0
  0
LINE
  5
538
330
1F
100
AcDbEntity
  8
0
  6
Continuous
 62
     7
370
    25
100
AcDbLine
 10
130.0799194418
 20
-1.7245225195
 30
0.0
 11
129.8145502523
 21
-1.3007546665
 31
0.0
  0
LINE
  5
539
330
1F
100
AcDbEntity
  8
0
  6
Continuous
 62
     7
370
    25
100
AcDbLine
 10
135.1219340426
 20
-9.7761117269
 30
0.0
 11
134.8565648531
 21
-9.3523438739
 31
0.0
  0
LINE
  5
53A
330
1F
100
AcDbEntity
  8
0
  6
Continuous
 62
     7
370
    25
100
AcDbLine
 10
52.7802775017
 20
81.5705773181
 30
0.0
 11
53.9484140015
 21
82.3020802719
 31
0.0
  0
LINE
  5
53B
330
1F
100
AcDbEntity
  8
0
  6
Continuous
 62
     7
370
    25
100
AcDbLine
 10
139.3232157292
 20
-55.5786787962
 30
0.0
 11
140.3596030814
 21
-54.9296789495
 31
0.0
  0
LINE
  5
53C
330
1F
100
AcDbEntity
  8
0
  6
Continuous
 62
     7
370
    25
100
AcDbLine
 10
10.8324175072
 20
149.6081772792
 30
0.0
 11
11.8688048594
 21
150.2571771259
 31
0.0
  0
LINE
  5
53D
330
1F
100
AcDbEntity
  8
0
  6
Continuous
 62
     7
370
    25
100
AcDbLine
 10
142.0966528731
 20
-57.1791512966
 30
0.0
 11
144.9699199652
 21
-55.3798723894
 31
0.0
  0
LINE
  5
53E
330
1F
100
AcDbEntity
  8
0
  6
Continuous
 62
     7
370
    25
100
AcDbLine
 10
144.6232403222
 20
-55.1798133269
 30
0.0
 11
144.9699199652
 21
-55.3798723894
 31
0.0
  0
LINE
  5
53F
330
1F
100
AcDbEntity
  8
0
  6
Continuous
 62
     7
370
    25
100
AcDbLine
 10
144.8133557322
 20
-95.0907108595
 30
0.0
 11
147.6866228243
 21
-93.2914319523
 31
0.0
  0
LINE
  5
540
330
1F
100
AcDbEntity
  8
0
  6
Continuous
 62
     7
370
    25
100
AcDbLine
 10
147.7152318881
 20
-93.6906711348
 30
0.0
 11
144.9413109014
 21
-54.9806332069
 31
0.0
  0
LINE
  5
541
330
1F
100
AcDbEntity
  8
0
  6
Continuous
 62
     7
370
    25
100
AcDbLine
 10
10.6035449963
 20
152.8020907391
 30
0.0
 11
13.4768120884
 21
154.6013696463
 31
0.0
  0
LINE
  5
542
330
1F
100
AcDbEntity
  8
0
  6
Continuous
 62
     7
370
    25
100
AcDbLine
 10
13.5054211523
 20
154.2021304638
 30
0.0
 11
13.4768120884
 21
154.6013696463
 31
0.0
  0
LINE
  5
543
330
1F
100
AcDbEntity
  8
0
  6
Continuous
 62
     7
370
    25
100
AcDbLine
 10
-22.3169861308
 20
171.7996025031
 30
0.0
 11
-19.4437190387
 21
173.5988814103
 31
0.0
  0
LINE
  5
544
330
1F
100
AcDbEntity
  8
0
  6
Continuous
 62
     7
370
    25
100
AcDbLine
 10
-19.7903986817
 20
173.7989404728
 30
0.0
 11
13.8234917314
 21
154.4013105838
 31
0.0
  0
LINE
  5
545
330
1F
100
AcDbEntity
  8
0
  6
Continuous
 62
     7
370
    25
100
AcDbLine
 10
106.256168459
 20
-24.9283304552
 30
0.0
 11
107.6320776803
 21
-24.0667173992
 31
0.0
  0
LINE
  5
546
330
1F
100
AcDbEntity
  8
0
  6
Continuous
 62
     7
370
    25
100
AcDbLine
 10
47.8128326611
 20
54.862069982
 30
0.0
 11
48.9809691609
 21
55.5935729357
 31
0.0
  0
LINE
  5
547
330
1F
100
AcDbEntity
  8
0
  6
Continuous
 62
     7
370
    25
100
AcDbLine
 10
142.6120998654
 20
-101.4750220089
 30
0.0
 11
143.6484872176
 21
-100.8260221622
 31
0.0
  0
LINE
  5
548
330
1F
100
AcDbEntity
  8
0
  6
Continuous
 62
     7
370
    25
100
AcDbLine
 10
-29.0217064797
 20
172.6068702942
 30
0.0
 11
-27.9853191275
 21
173.2558701409
 31
0.0
  0
LINE
  5
549
330
1F
100
AcDbEntity
  8
0
  6
Continuous
 62
     7
370
    25
100
AcDbLine
 10
148.1022398684
 20
-140.9870540722
 30
0.0
 11
150.9755069605
 21
-139.187775165
 31
0.0
  0
LINE
  5
54A
330
1F
100
AcDbEntity
  8
0
  6
Continuous
 62
     7
370
    25
100
AcDbLine
 10
145.3855370094
 20
-103.0754945093
 30
0.0
 11
148.2588041015
 21
-101.2762156022
 31
0.0
  0
LINE
  5
54B
330
1F
100
AcDbEntity
  8
0
  6
Continuous
 62
     7
370
    25
100
AcDbLine
 10
151.0041160244
 20
-139.5870143475
 30
0.0
 11
148.2301950376
 21
-100.8769764197
 31
0.0
  0
LINE
  5
54C
330
1F
100
AcDbEntity
  8
0
  6
Continuous
 62
     7
370
    25
100
AcDbLine
 10
147.9121244585
 20
-101.0761565396
 30
0.0
 11
148.2588041015
 21
-101.2762156022
 31
0.0
  0
LINE
  5
54D
330
1F
100
AcDbEntity
  8
0
  6
Continuous
 62
     7
370
    25
100
AcDbLine
 10
-62.1711101177
 20
194.7982955181
 30
0.0
 11
-59.2978430256
 21
196.5975744252
 31
0.0
  0
LINE
  5
54E
330
1F
100
AcDbEntity
  8
0
  6
Continuous
 62
     7
370
    25
100
AcDbLine
 10
-29.2505789906
 20
175.8007837541
 30
0.0
 11
-26.3773118985
 21
177.6000626613
 31
0.0
  0
LINE
  5
54F
330
1F
100
AcDbEntity
  8
0
  6
Continuous
 62
     7
370
    25
100
AcDbLine
 10
-59.6445226686
 20
196.7976334878
 30
0.0
 11
-26.0306322555
 21
177.4000035988
 31
0.0
  0
LINE
  5
550
330
1F
100
AcDbEntity
  8
0
  6
Continuous
 62
     7
370
    25
100
AcDbLine
 10
-26.3487028346
 20
177.2008234788
 30
0.0
 11
-26.3773118985
 21
177.6000626613
 31
0.0
  0
LINE
  5
551
330
1F
100
AcDbEntity
  8
0
  6
Continuous
 62
     7
370
    25
100
AcDbLine
 10
94.1977153845
 20
-52.6568271274
 30
0.0
 11
95.5736246057
 21
-51.7952140713
 31
0.0
  0
LINE
  5
552
330
1F
100
AcDbEntity
  8
0
  6
Continuous
 62
     7
370
    25
100
AcDbLine
 10
145.9009840017
 20
-147.3713652216
 30
0.0
 11
146.9373713539
 21
-146.7223653749
 31
0.0
  0
LINE
  5
553
330
1F
100
AcDbEntity
  8
0
  6
Continuous
 62
     7
370
    25
100
AcDbLine
 10
-68.8758304666
 20
195.6055633091
 30
0.0
 11
-67.8394431145
 21
196.2545631559
 31
0.0
  0
LINE
  5
554
330
1F
100
AcDbEntity
  8
0
  6
Continuous
 62
     7
370
    25
100
AcDbLine
 10
149.2331559319
 20
-156.7689757341
 30
0.0
 11
152.106423024
 21
-154.9696968269
 31
0.0
  0
LINE
  5
555
330
1F
100
AcDbEntity
  8
0
  6
Continuous
 62
     7
370
    25
100
AcDbLine
 10
148.6744211456
 20
-148.9718377221
 30
0.0
 11
151.5476882377
 21
-147.1725588149
 31
0.0
  0
LINE
  5
556
330
1F
100
AcDbEntity
  8
0
  6
Continuous
 62
     7
370
    25
100
AcDbLine
 10
152.2486261711
 20
-156.9541402351
 30
0.0
 11
151.5190791738
 21
-146.7733196324
 31
0.0
  0
LINE
  5
557
330
1F
100
AcDbEntity
  8
0
  6
Continuous
 62
     7
370
    25
100
AcDbLine
 10
151.2010085947
 20
-146.9724997523
 30
0.0
 11
151.5476882377
 21
-147.1725588149
 31
0.0
  0
LINE
  5
558
330
1F
100
AcDbEntity
  8
0
  6
Continuous
 62
     7
370
    25
100
AcDbLine
 10
-73.0020865151
 20
204.5059075533
 30
0.0
 11
-75.8753536072
 21
202.7066286462
 31
0.0
  0
LINE
  5
559
330
1F
100
AcDbEntity
  8
0
  6
Continuous
 62
     7
370
    25
100
AcDbLine
 10
-69.1047029775
 20
198.7994767691
 30
0.0
 11
-66.2314358854
 21
200.5987556763
 31
0.0
  0
LINE
  5
55A
330
1F
100
AcDbEntity
  8
0
  6
Continuous
 62
     7
370
    25
100
AcDbLine
 10
-74.7252794342
 20
205.5003136772
 30
0.0
 11
-65.8847562424
 21
200.3986966137
 31
0.0
  0
LINE
  5
55B
330
1F
100
AcDbEntity
  8
0
  6
Continuous
 62
     7
370
    25
100
AcDbLine
 10
-66.2028268215
 20
200.1995164938
 30
0.0
 11
-66.2314358854
 21
200.5987556763
 31
0.0
  0
LINE
  5
55C
330
1F
100
AcDbEntity
  8
0
  6
Continuous
 62
     7
370
    25
100
AcDbLine
 10
82.1392623099
 20
-80.3853237996
 30
0.0
 11
83.5151715312
 21
-79.5237107435
 31
0.0
  0
LINE
  5
55D
330
1F
100
AcDbEntity
  8
0
  6
Continuous
 62
     7
370
    25
100
AcDbLine
 10
19.6244056795
 20
-224.5404987393
 30
0.0
 11
20.5778608475
 21
-223.9434321535
 31
0.0
  0
LINE
  5
55E
330
1F
100
AcDbEntity
  8
0
  6
Continuous
 62
     7
370
    25
100
AcDbLine
 10
-193.4368177547
 20
115.696803799
 30
0.0
 11
-192.4833625866
 21
116.2938703848
 31
0.0
  0
LINE
  5
55F
330
1F
100
AcDbEntity
  8
0
  6
Continuous
 62
     7
370
    25
100
AcDbLine
 10
-14.0062059798
 20
-225.8151868163
 30
0.0
 11
-13.0527508118
 21
-225.2181202305
 31
0.0
  0
LINE
  5
560
330
1F
100
AcDbEntity
  8
0
  6
Continuous
 62
     7
370
    25
100
AcDbLine
 10
-209.2678306644
 20
85.997950277
 30
0.0
 11
-208.3143754964
 21
86.5950168628
 31
0.0
  0
LINE
  5
561
330
1F
100
AcDbEntity
  8
0
  6
Continuous
 62
     7
370
    25
100
AcDbLine
 10
-225.0988435741
 20
56.299096755
 30
0.0
 11
-224.1453884061
 21
56.8961633408
 31
0.0
  0
LINE
  5
562
330
1F
100
AcDbEntity
  8
0
  6
Continuous
 62
     7
370
    25
100
AcDbLine
 10
-47.636817639
 20
-227.0898748933
 30
0.0
 11
-46.683362471
 21
-226.4928083075
 31
0.0
  0
LINE
  5
563
330
1F
100
AcDbEntity
  8
0
  6
Continuous
 62
     7
370
    25
100
AcDbLine
 10
130.8997903243
 20
186.2065363813
 30
0.0
 11
47.4339122613
 21
133.9390690506
 31
0.0
  0
LINE
  5
564
330
1F
100
AcDbEntity
  8
0
  6
Continuous
 62
     7
370
    25
100
AcDbLine
 10
61.3742425082
 20
111.9915197156
 30
0.0
 11
144.6989881791
 21
164.1706080241
 31
0.0
  0
LINE
  5
565
330
1F
100
AcDbEntity
  8
0
  6
Continuous
 62
     7
370
    25
100
AcDbLine
 10
50.1134911755
 20
125.1831071151
 30
0.0
 11
54.8901365868
 21
117.5552857607
 31
0.0
  0
LINE
  5
566
330
1F
100
AcDbEntity
  8
0
  6
Continuous
 62
     7
370
    25
100
AcDbLine
 10
53.0908576796
 20
116.4285528528
 30
0.0
 11
57.0450869058
 21
118.9047449411
 31
0.0
  0
LINE
  5
567
330
1F
100
AcDbEntity
  8
0
  6
Continuous
 62
     7
370
    25
100
AcDbLine
 10
52.2684414946
 20
126.5325662955
 30
0.0
 11
48.3142122683
 21
124.0563742072
 31
0.0
  0
LINE
  5
568
330
1F
100
AcDbEntity
  8
0
  6
Continuous
 62
     7
370
    25
100
AcDbLine
 10
48.3142122683
 20
124.0563742072
 30
0.0
 11
53.0908576796
 21
116.4285528528
 31
0.0
  0
LINE
  5
569
330
1F
100
AcDbEntity
  8
0
  6
Continuous
 62
     7
370
    25
100
AcDbLine
 10
17.9087749862
 20
149.4507882775
 30
0.0
 11
20.0637253052
 21
150.8002474579
 31
0.0
  0
LINE
  5
56A
330
1F
100
AcDbEntity
  8
0
  6
Continuous
 62
     7
370
    25
100
AcDbLine
 10
11.6685414124
 20
153.0518514034
 30
0.0
 11
17.9087749862
 21
149.4507882775
 31
0.0
  0
LINE
  5
56B
330
1F
100
AcDbEntity
  8
0
  6
Continuous
 62
     7
370
    25
100
AcDbLine
 10
13.8234917314
 20
154.4013105838
 30
0.0
 11
11.6685414124
 21
153.0518514034
 31
0.0
  0
LINE
  5
56C
330
1F
100
AcDbEntity
  8
0
  6
Continuous
 62
     7
370
    25
100
AcDbLine
 10
-21.9453490008
 20
172.4494812924
 30
0.0
 11
-19.7903986817
 21
173.7989404728
 31
0.0
  0
LINE
  5
56D
330
1F
100
AcDbEntity
  8
0
  6
Continuous
 62
     7
370
    25
100
AcDbLine
 10
-28.1855825746
 20
176.0505444184
 30
0.0
 11
-21.9453490008
 21
172.4494812924
 31
0.0
  0
LINE
  5
56E
330
1F
100
AcDbEntity
  8
0
  6
Continuous
 62
     7
370
    25
100
AcDbLine
 10
-26.0306322555
 20
177.4000035988
 30
0.0
 11
-28.1855825746
 21
176.0505444184
 31
0.0
  0
LINE
  5
56F
330
1F
100
AcDbEntity
  8
0
  6
Continuous
 62
     7
370
    25
100
AcDbLine
 10
-61.7994729877
 20
195.4481743074
 30
0.0
 11
-59.6445226686
 21
196.7976334878
 31
0.0
  0
LINE
  5
570
330
1F
100
AcDbEntity
  8
0
  6
Continuous
 62
     7
370
    25
100
AcDbLine
 10
-68.0397065615
 20
199.0492374333
 30
0.0
 11
-61.7994729877
 21
195.4481743074
 31
0.0
  0
LINE
  5
571
330
1F
100
AcDbEntity
  8
0
  6
Continuous
 62
     7
370
    25
100
AcDbLine
 10
-65.8847562424
 20
200.3986966137
 30
0.0
 11
-68.0397065615
 21
199.0492374333
 31
0.0
  0
LINE
  5
572
330
1F
100
AcDbEntity
  8
0
  6
Continuous
 62
     7
370
    25
100
AcDbLine
 10
8.5994662367
 20
257.6794019856
 30
0.0
 11
-74.7252794342
 21
205.5003136772
 31
0.0
  0
LINE
  5
573
330
1F
100
AcDbEntity
  8
0
  6
Continuous
 62
     7
370
    25
100
AcDbLine
 10
128.8716389063
 20
188.2737169334
 30
0.0
 11
8.5994662367
 21
257.6794019856
 31
0.0
  0
LINE
  5
574
330
1F
100
AcDbEntity
  8
0
  6
Continuous
 62
     7
370
    25
100
AcDbLine
 10
45.5468932354
 20
136.0946286249
 30
0.0
 11
128.8716389063
 21
188.2737169334
 31
0.0
  0
LINE
  5
575
330
1F
100
AcDbEntity
  8
0
  6
Continuous
 62
     7
370
    25
100
AcDbLine
 10
45.5468932354
 20
136.0946286249
 30
0.0
 11
45.5648456077
 21
135.8441034588
 31
0.0
  0
LINE
  5
576
330
1F
100
AcDbEntity
  8
0
  6
Continuous
 62
     7
370
    25
100
AcDbLine
 10
128.8716389063
 20
188.2737169334
 30
0.0
 11
129.1005114171
 21
185.0798034734
 31
0.0
  0
LINE
  5
577
330
1F
100
AcDbEntity
  8
0
  6
Continuous
 62
     7
370
    25
100
AcDbLine
 10
20.0637253052
 20
150.8002474579
 30
0.0
 11
20.0923343691
 21
150.4010082754
 31
0.0
  0
LINE
  5
578
330
1F
100
AcDbEntity
  8
0
  6
Continuous
 62
     7
370
    25
100
AcDbLine
 10
11.6685414124
 20
153.0518514034
 30
0.0
 11
11.8974139232
 21
149.8579379435
 31
0.0
  0
LINE
  5
579
330
1F
100
AcDbEntity
  8
0
  6
Continuous
 62
     7
370
    25
100
AcDbLine
 10
17.9087749862
 20
149.4507882775
 30
0.0
 11
17.93738405
 21
149.051549095
 31
0.0
  0
LINE
  5
57A
330
1F
100
AcDbEntity
  8
0
  6
Continuous
 62
     7
370
    25
100
AcDbLine
 10
11.8974139232
 20
149.8579379435
 30
0.0
 11
17.7014009005
 21
146.5086204476
 31
0.0
  0
LINE
  5
57B
330
1F
100
AcDbEntity
  8
0
  6
Continuous
 62
     7
370
    25
100
AcDbLine
 10
-19.7903986817
 20
173.7989404728
 30
0.0
 11
-19.7617896178
 21
173.3997012903
 31
0.0
  0
LINE
  5
57C
330
1F
100
AcDbEntity
  8
0
  6
Continuous
 62
     7
370
    25
100
AcDbLine
 10
-21.9453490008
 20
172.4494812924
 30
0.0
 11
-21.9167399369
 21
172.0502421099
 31
0.0
  0
LINE
  5
57D
330
1F
100
AcDbEntity
  8
0
  6
Continuous
 62
     7
370
    25
100
AcDbLine
 10
-28.1855825746
 20
176.0505444184
 30
0.0
 11
-27.9567100637
 21
172.8566309584
 31
0.0
  0
LINE
  5
57E
330
1F
100
AcDbEntity
  8
0
  6
Continuous
 62
     7
370
    25
100
AcDbLine
 10
-27.9567100637
 20
172.8566309584
 30
0.0
 11
-22.1527230864
 21
169.5073134625
 31
0.0
  0
LINE
  5
57F
330
1F
100
AcDbEntity
  8
0
  6
Continuous
 62
     7
370
    25
100
AcDbLine
 10
-59.6445226686
 20
196.7976334878
 30
0.0
 11
-59.6159136047
 21
196.3983943053
 31
0.0
  0
LINE
  5
580
330
1F
100
AcDbEntity
  8
0
  6
Continuous
 62
     7
370
    25
100
AcDbLine
 10
-68.0397065615
 20
199.0492374333
 30
0.0
 11
-67.8108340506
 21
195.8553239734
 31
0.0
  0
LINE
  5
581
330
1F
100
AcDbEntity
  8
0
  6
Continuous
 62
     7
370
    25
100
AcDbLine
 10
-61.7994729877
 20
195.4481743074
 30
0.0
 11
-61.7708639238
 21
195.0489351249
 31
0.0
  0
LINE
  5
582
330
1F
100
AcDbEntity
  8
0
  6
Continuous
 62
     7
370
    25
100
AcDbLine
 10
-67.8108340506
 20
195.8553239734
 30
0.0
 11
-62.0068470734
 21
192.5060064775
 31
0.0
  0
LINE
  5
583
330
1F
100
AcDbEntity
  8
0
  6
Continuous
 62
     7
370
    25
100
AcDbLine
 10
-74.7252794342
 20
205.5003136772
 30
0.0
 11
-74.7073270618
 21
205.2497885111
 31
0.0
  0
LINE
  5
584
330
1F
100
AcDbEntity
  8
0
  6
Continuous
 62
     7
370
    25
100
AcDbLine
 10
-76.6193604394
 20
205.6965430414
 30
0.0
 11
-76.4528395588
 21
205.4306259762
 31
0.0
  0
LINE
  5
585
330
1F
100
AcDbEntity
  8
0
  6
Continuous
 62
     7
370
    25
100
AcDbLine
 10
6.7053852315
 20
257.8756313499
 30
0.0
 11
7.3271839202
 21
256.8826815059
 31
0.0
  0
LINE
  5
586
330
1F
100
AcDbEntity
  8
0
  6
Continuous
 62
     7
370
    25
100
AcDbLine
 10
-179.2860569513
 20
141.405262216
 30
0.0
 11
9.3923308921
 21
259.5582332442
 31
0.0
  0
LINE
  5
587
330
1F
100
AcDbEntity
  8
0
  6
Continuous
 62
     7
370
    25
100
AcDbLine
 10
-97.5974948481
 20
192.559750135
 30
0.0
 11
-95.474541332
 21
189.1696073108
 31
0.0
  0
LINE
  5
588
330
1F
100
AcDbEntity
  8
0
  6
Continuous
 62
     7
370
    25
100
AcDbLine
 10
-123.4530239022
 20
176.368666407
 30
0.0
 11
-121.3300703861
 21
172.9785235828
 31
0.0
  0
LINE
  5
589
330
1F
100
AcDbEntity
  8
0
  6
Continuous
 62
     7
370
    25
100
AcDbLine
 10
-149.3085529563
 20
160.1775826789
 30
0.0
 11
-147.1855994402
 21
156.7874398547
 31
0.0
  0
LINE
  5
58A
330
1F
100
AcDbEntity
  8
0
  6
Continuous
 62
     7
370
    25
100
AcDbLine
 10
-175.1640820105
 20
143.9864989508
 30
0.0
 11
-173.0411284943
 21
140.5963561266
 31
0.0
  0
LINE
  5
58B
330
1F
100
AcDbEntity
  8
0
  6
Continuous
 62
     7
370
    25
100
AcDbLine
 10
-192.5807915214
 20
116.4049653711
 30
0.0
 11
-190.3229110202
 21
113.8303790415
 31
0.0
  0
LINE
  5
58C
330
1F
100
AcDbEntity
  8
0
  6
Continuous
 62
     7
370
    25
100
AcDbLine
 10
-192.5807915214
 20
116.4049653711
 30
0.0
 11
-190.3849960083
 21
120.5242601806
 31
0.0
  0
LINE
  5
58D
330
1F
100
AcDbEntity
  8
0
  6
Continuous
 62
     7
370
    25
100
AcDbLine
 10
-208.4118044311
 20
86.7061118491
 30
0.0
 11
-206.1539239299
 21
84.1315255195
 31
0.0
  0
LINE
  5
58E
330
1F
100
AcDbEntity
  8
0
  6
Continuous
 62
     7
370
    25
100
AcDbLine
 10
-208.4118044311
 20
86.7061118491
 30
0.0
 11
-206.216008918
 21
90.8254066586
 31
0.0
  0
LINE
  5
58F
330
1F
100
AcDbEntity
  8
0
  6
Continuous
 62
     7
370
    25
100
AcDbLine
 10
-224.2428173408
 20
57.0072583271
 30
0.0
 11
-221.9849368396
 21
54.4326719975
 31
0.0
  0
LINE
  5
590
330
1F
100
AcDbEntity
  8
0
  6
Continuous
 62
     7
370
    25
100
AcDbLine
 10
-224.2428173408
 20
57.0072583271
 30
0.0
 11
-222.0470218277
 21
61.1265531366
 31
0.0
  0
LINE
  5
591
330
1F
100
AcDbEntity
  8
0
  6
Continuous
 62
     7
370
    25
100
AcDbLine
 10
-376.8313437519
 20
-58.9932154996
 30
0.0
 11
-367.7563858699
 21
-53.3103535249
 31
0.0
  0
LINE
  5
592
330
1F
100
AcDbEntity
  8
0
  6
Continuous
 62
     7
370
    25
100
AcDbLine
 10
-372.5877101081
 20
-62.3626574545
 30
0.0
 11
-377.4216655028
 21
-54.6433178321
 31
0.0
  0
LINE
  5
593
330
1F
100
AcDbEntity
  8
0
  6
Continuous
 62
     7
370
    25
100
AcDbLine
 10
-368.1155442564
 20
-53.5352633883
 30
0.0
 11
-370.2384977725
 21
-50.1451205641
 31
0.0
  0
LINE
  5
594
330
1F
100
AcDbEntity
  8
0
  6
Continuous
 62
     7
370
    25
100
AcDbLine
 10
-414.1554217165
 20
-80.9832110102
 30
0.0
 11
-415.6563422805
 21
-78.586392125
 31
0.0
  0
LINE
  5
595
330
1F
100
AcDbEntity
  8
0
  6
Continuous
 62
     7
370
    25
100
AcDbLine
 10
-362.8934927378
 20
-47.9053611622
 30
0.0
 11
-363.9549694959
 21
-46.2102897501
 31
0.0
  0
LINE
  5
596
330
1F
100
AcDbEntity
  8
0
  6
Continuous
 62
     7
370
    25
100
AcDbLine
 10
-360.9323765261
 20
-49.0370661203
 30
0.0
 11
-363.0553300423
 21
-45.6469232961
 31
0.0
  0
LINE
  5
597
330
1F
100
AcDbEntity
  8
0
  6
Continuous
 62
     7
370
    25
100
AcDbLine
 10
-341.9098644697
 20
-37.1249105122
 30
0.0
 11
-344.0328179858
 21
-33.734767688
 31
0.0
  0
LINE
  5
598
330
1F
100
AcDbEntity
  8
0
  6
Continuous
 62
     7
370
    25
100
AcDbLine
 10
-361.2915349127
 20
-49.2619759837
 30
0.0
 11
-341.5507060831
 21
-36.9000006488
 31
0.0
  0
LINE
  5
599
330
1F
100
AcDbEntity
  8
0
  6
Continuous
 62
     7
370
    25
100
AcDbLine
 10
-336.6878129511
 20
-31.495008286
 30
0.0
 11
-337.7492897091
 21
-29.7999368739
 31
0.0
  0
LINE
  5
59A
330
1F
100
AcDbEntity
  8
0
  6
Continuous
 62
     7
370
    25
100
AcDbLine
 10
-315.7041846829
 20
-20.714557636
 30
0.0
 11
-317.827138199
 21
-17.3244148118
 31
0.0
  0
LINE
  5
59B
330
1F
100
AcDbEntity
  8
0
  6
Continuous
 62
     7
370
    25
100
AcDbLine
 10
-334.7266967394
 20
-32.6267132442
 30
0.0
 11
-336.8496502555
 21
-29.23657042
 31
0.0
  0
LINE
  5
59C
330
1F
100
AcDbEntity
  8
0
  6
Continuous
 62
     7
370
    25
100
AcDbLine
 10
-335.0858551259
 20
-32.8516231076
 30
0.0
 11
-315.3450262964
 21
-20.4896477726
 31
0.0
  0
LINE
  5
59D
330
1F
100
AcDbEntity
  8
0
  6
Continuous
 62
     7
370
    25
100
AcDbLine
 10
-310.4821331643
 20
-15.0846554099
 30
0.0
 11
-311.5436099224
 21
-13.3895839978
 31
0.0
  0
LINE
  5
59E
330
1F
100
AcDbEntity
  8
0
  6
Continuous
 62
     7
370
    25
100
AcDbLine
 10
-308.5210169527
 20
-16.216360368
 30
0.0
 11
-310.6439704688
 21
-12.8262175438
 31
0.0
  0
LINE
  5
59F
330
1F
100
AcDbEntity
  8
0
  6
Continuous
 62
     7
370
    25
100
AcDbLine
 10
-289.4985048962
 20
-4.3042047598
 30
0.0
 11
-291.6214584123
 21
-0.9140619356
 31
0.0
  0
LINE
  5
5A0
330
1F
100
AcDbEntity
  8
0
  6
Continuous
 62
     7
370
    25
100
AcDbLine
 10
-308.8801753392
 20
-16.4412702314
 30
0.0
 11
-289.1393465097
 21
-4.0792948964
 31
0.0
  0
LINE
  5
5A1
330
1F
100
AcDbEntity
  8
0
  6
Continuous
 62
     7
370
    25
100
AcDbLine
 10
-284.2764533776
 20
1.3256974663
 30
0.0
 11
-285.3379301357
 21
3.0207688784
 31
0.0
  0
LINE
  5
5A2
330
1F
100
AcDbEntity
  8
0
  6
Continuous
 62
     7
370
    25
100
AcDbLine
 10
-263.2928251095
 20
12.1061481163
 30
0.0
 11
-265.4157786256
 21
15.4962909405
 31
0.0
  0
LINE
  5
5A3
330
1F
100
AcDbEntity
  8
0
  6
Continuous
 62
     7
370
    25
100
AcDbLine
 10
-282.3153371659
 20
0.1939925081
 30
0.0
 11
-284.4382906821
 21
3.5841353323
 31
0.0
  0
LINE
  5
5A4
330
1F
100
AcDbEntity
  8
0
  6
Continuous
 62
     7
370
    25
100
AcDbLine
 10
-282.6744955525
 20
-0.0309173553
 30
0.0
 11
-262.933666723
 21
12.3310579797
 31
0.0
  0
LINE
  5
5A5
330
1F
100
AcDbEntity
  8
0
  6
Continuous
 62
     7
370
    25
100
AcDbLine
 10
-258.0707735909
 20
17.7360503424
 30
0.0
 11
-259.1322503489
 21
19.4311217545
 31
0.0
  0
LINE
  5
5A6
330
1F
100
AcDbEntity
  8
0
  6
Continuous
 62
     7
370
    25
100
AcDbLine
 10
-237.0871453227
 20
28.5165009925
 30
0.0
 11
-239.2100988389
 21
31.9066438167
 31
0.0
  0
LINE
  5
5A7
330
1F
100
AcDbEntity
  8
0
  6
Continuous
 62
     7
370
    25
100
AcDbLine
 10
-256.1096573792
 20
16.6043453843
 30
0.0
 11
-258.2326108953
 21
19.9944882085
 31
0.0
  0
LINE
  5
5A8
330
1F
100
AcDbEntity
  8
0
  6
Continuous
 62
     7
370
    25
100
AcDbLine
 10
-256.4688157657
 20
16.3794355209
 30
0.0
 11
-236.7279869362
 21
28.7414108559
 31
0.0
  0
LINE
  5
5A9
330
1F
100
AcDbEntity
  8
0
  6
Continuous
 62
     7
370
    25
100
AcDbLine
 10
-435.2169266598
 20
-90.8354959353
 30
0.0
 11
-175.3863343721
 21
71.8739526332
 31
0.0
  0
LINE
  5
5AA
330
1F
100
AcDbEntity
  8
0
  6
Continuous
 62
     7
370
    25
100
AcDbLine
 10
-231.8650938041
 20
34.1464032186
 30
0.0
 11
-232.9265705622
 21
35.8414746307
 31
0.0
  0
LINE
  5
5AB
330
1F
100
AcDbEntity
  8
0
  6
Continuous
 62
     7
370
    25
100
AcDbLine
 10
-229.9039775925
 20
33.0146982605
 30
0.0
 11
-232.0269311086
 21
36.4048410846
 31
0.0
  0
LINE
  5
5AC
330
1F
100
AcDbEntity
  8
0
  6
Continuous
 62
     7
370
    25
100
AcDbLine
 10
-210.881465536
 20
44.9268538686
 30
0.0
 11
-213.0044190521
 21
48.3169966928
 31
0.0
  0
LINE
  5
5AD
330
1F
100
AcDbEntity
  8
0
  6
Continuous
 62
     7
370
    25
100
AcDbLine
 10
-230.263135979
 20
32.7897883971
 30
0.0
 11
-210.5223071495
 21
45.151763732
 31
0.0
  0
LINE
  5
5AE
330
1F
100
AcDbEntity
  8
0
  6
Continuous
 62
     7
370
    25
100
AcDbLine
 10
-205.6594140174
 20
50.5567560948
 30
0.0
 11
-206.7208907755
 21
52.2518275068
 31
0.0
  0
LINE
  5
5AF
330
1F
100
AcDbEntity
  8
0
  6
Continuous
 62
     7
370
    25
100
AcDbLine
 10
-203.6982978058
 20
49.4250511366
 30
0.0
 11
-205.8212513219
 21
52.8151939608
 31
0.0
  0
LINE
  5
5B0
330
1F
100
AcDbEntity
  8
0
  6
Continuous
 62
     7
370
    25
100
AcDbLine
 10
-159.6051206224
 20
9.7829943174
 30
0.0
 11
-191.9801617432
 21
61.4826723862
 31
0.0
  0
LINE
  5
5B1
330
1F
100
AcDbEntity
  8
0
  6
Continuous
 62
     7
370
    25
100
AcDbLine
 10
-204.0574561923
 20
49.2001412732
 30
0.0
 11
-185.5118947506
 21
60.8136239236
 31
0.0
  0
LINE
  5
5B2
330
1F
100
AcDbEntity
  8
0
  6
Continuous
 62
     7
370
    25
100
AcDbLine
 10
-187.7086120974
 20
64.1575748344
 30
0.0
 11
-185.5856585813
 21
60.7674320102
 31
0.0
  0
LINE
  5
5B3
330
1F
100
AcDbEntity
  8
0
  6
Continuous
 62
     7
370
    25
100
AcDbLine
 10
-182.8416542123
 20
64.845547429
 30
0.0
 11
-183.9031309703
 21
66.5406188411
 31
0.0
  0
LINE
  5
5B4
330
1F
100
AcDbEntity
  8
0
  6
Continuous
 62
     7
370
    25
100
AcDbLine
 10
-180.4725389176
 20
63.9693370423
 30
0.0
 11
-182.5954924338
 21
67.3594798665
 31
0.0
  0
LINE
  5
5B5
330
1F
100
AcDbEntity
  8
0
  6
Continuous
 62
     7
370
    25
100
AcDbLine
 10
-180.9100870533
 20
63.6953384525
 30
0.0
 11
-173.263380856
 21
68.483809809
 31
0.0
  0
LINE
  5
5B6
330
1F
100
AcDbEntity
  8
0
  6
Continuous
 62
     7
370
    25
100
AcDbLine
 10
127.9249691227
 20
-3.0739816999
 30
0.0
 11
131.879198349
 21
-0.5977896116
 31
0.0
  0
LINE
  5
5B7
330
1F
100
AcDbEntity
  8
0
  6
Continuous
 62
     7
370
    25
100
AcDbLine
 10
127.5500427466
 20
6.3154356139
 30
0.0
 11
210.8747884176
 21
58.4945239224
 31
0.0
  0
LINE
  5
5B8
330
1F
100
AcDbEntity
  8
0
  6
Continuous
 62
     7
370
    25
100
AcDbLine
 10
130.8997903243
 20
186.2065363813
 30
0.0
 11
224.6739862723
 21
36.4585955651
 31
0.0
  0
LINE
  5
5B9
330
1F
100
AcDbEntity
  8
0
  6
Continuous
 62
     7
370
    25
100
AcDbLine
 10
224.6739862723
 20
36.4585955651
 30
0.0
 11
141.2081082093
 21
-15.8088717656
 31
0.0
  0
LINE
  5
5BA
330
1F
100
AcDbEntity
  8
0
  6
Continuous
 62
     7
370
    25
100
AcDbLine
 10
136.6558437603
 20
-8.225610966
 30
0.0
 11
132.701614534
 21
-10.7018030543
 31
0.0
  0
LINE
  5
5BB
330
1F
100
AcDbEntity
  8
0
  6
Continuous
 62
     7
370
    25
100
AcDbLine
 10
134.5008934412
 20
-9.5750701464
 30
0.0
 11
129.7242480299
 21
-1.947248792
 31
0.0
  0
LINE
  5
5BC
330
1F
100
AcDbEntity
  8
0
  6
Continuous
 62
     7
370
    25
100
AcDbLine
 10
132.701614534
 20
-10.7018030543
 30
0.0
 11
127.9249691227
 21
-3.0739816999
 31
0.0
  0
LINE
  5
5BD
330
1F
100
AcDbEntity
  8
0
  6
Continuous
 62
     7
370
    25
100
AcDbLine
 10
225.648144509
 20
33.7313901568
 30
0.0
 11
228.0359424282
 21
0.4096955394
 31
0.0
  0
LINE
  5
5BE
330
1F
100
AcDbEntity
  8
0
  6
Continuous
 62
     7
370
    25
100
AcDbLine
 10
233.3474112273
 20
-73.7117951753
 30
0.0
 11
235.573371842
 21
-104.7750519267
 31
0.0
  0
LINE
  5
5BF
330
1F
100
AcDbEntity
  8
0
  6
Continuous
 62
     7
370
    25
100
AcDbLine
 10
235.573371842
 20
-104.7750519267
 30
0.0
 11
152.2486261711
 21
-156.9541402351
 31
0.0
  0
LINE
  5
5C0
330
1F
100
AcDbEntity
  8
0
  6
Continuous
 62
     7
370
    25
100
AcDbLine
 10
151.5190791738
 20
-146.7733196324
 30
0.0
 11
149.3641288548
 21
-148.1227788128
 31
0.0
  0
LINE
  5
5C1
330
1F
100
AcDbEntity
  8
0
  6
Continuous
 62
     7
370
    25
100
AcDbLine
 10
149.3641288548
 20
-148.1227788128
 30
0.0
 11
148.8491657053
 21
-140.9364735279
 31
0.0
  0
LINE
  5
5C2
330
1F
100
AcDbEntity
  8
0
  6
Continuous
 62
     7
370
    25
100
AcDbLine
 10
148.8491657053
 20
-140.9364735279
 30
0.0
 11
151.0041160244
 21
-139.5870143475
 31
0.0
  0
LINE
  5
5C3
330
1F
100
AcDbEntity
  8
0
  6
Continuous
 62
     7
370
    25
100
AcDbLine
 10
148.2301950376
 20
-100.8769764197
 30
0.0
 11
146.0752447185
 21
-102.2264356001
 31
0.0
  0
LINE
  5
5C4
330
1F
100
AcDbEntity
  8
0
  6
Continuous
 62
     7
370
    25
100
AcDbLine
 10
146.0752447185
 20
-102.2264356001
 30
0.0
 11
145.5602815691
 21
-95.0401303152
 31
0.0
  0
LINE
  5
5C5
330
1F
100
AcDbEntity
  8
0
  6
Continuous
 62
     7
370
    25
100
AcDbLine
 10
145.5602815691
 20
-95.0401303152
 30
0.0
 11
147.7152318881
 21
-93.6906711348
 31
0.0
  0
LINE
  5
5C6
330
1F
100
AcDbEntity
  8
0
  6
Continuous
 62
     7
370
    25
100
AcDbLine
 10
144.9413109014
 20
-54.9806332069
 30
0.0
 11
142.7863605823
 21
-56.3300923873
 31
0.0
  0
LINE
  5
5C7
330
1F
100
AcDbEntity
  8
0
  6
Continuous
 62
     7
370
    25
100
AcDbLine
 10
142.7863605823
 20
-56.3300923873
 30
0.0
 11
142.2713974328
 21
-49.1437871025
 31
0.0
  0
LINE
  5
5C8
330
1F
100
AcDbEntity
  8
0
  6
Continuous
 62
     7
370
    25
100
AcDbLine
 10
142.2713974328
 20
-49.1437871025
 30
0.0
 11
144.4263477519
 21
-47.7943279221
 31
0.0
  0
LINE
  5
5C9
330
1F
100
AcDbEntity
  8
0
  6
Continuous
 62
     7
370
    25
100
AcDbLine
 10
142.3233988381
 20
-18.4476981517
 30
0.0
 11
225.648144509
 21
33.7313901568
 31
0.0
  0
LINE
  5
5CA
330
1F
100
AcDbEntity
  8
0
  6
Continuous
 62
     7
370
    25
100
AcDbLine
 10
142.3233988381
 20
-18.4476981517
 30
0.0
 11
142.1058551227
 21
-18.3221597976
 31
0.0
  0
LINE
  5
5CB
330
1F
100
AcDbEntity
  8
0
  6
Continuous
 62
     7
370
    25
100
AcDbLine
 10
144.4263477519
 20
-47.7943279221
 30
0.0
 11
144.0796681089
 21
-47.5942688595
 31
0.0
  0
LINE
  5
5CC
330
1F
100
AcDbEntity
  8
0
  6
Continuous
 62
     7
370
    25
100
AcDbLine
 10
225.648144509
 20
33.7313901568
 30
0.0
 11
222.8747073651
 21
35.3318626572
 31
0.0
  0
LINE
  5
5CD
330
1F
100
AcDbEntity
  8
0
  6
Continuous
 62
     7
370
    25
100
AcDbLine
 10
142.2713974328
 20
-49.1437871025
 30
0.0
 11
141.9247177898
 21
-48.9437280399
 31
0.0
  0
LINE
  5
5CE
330
1F
100
AcDbEntity
  8
0
  6
Continuous
 62
     7
370
    25
100
AcDbLine
 10
142.7863605823
 20
-56.3300923873
 30
0.0
 11
140.0129234384
 21
-54.7296198869
 31
0.0
  0
LINE
  5
5CF
330
1F
100
AcDbEntity
  8
0
  6
Continuous
 62
     7
370
    25
100
AcDbLine
 10
140.0129234384
 20
-54.7296198869
 30
0.0
 11
139.5339606916
 21
-48.045699839
 31
0.0
  0
LINE
  5
5D0
330
1F
100
AcDbEntity
  8
0
  6
Continuous
 62
     7
370
    25
100
AcDbLine
 10
147.7152318881
 20
-93.6906711348
 30
0.0
 11
147.3685522451
 21
-93.4906120722
 31
0.0
  0
LINE
  5
5D1
330
1F
100
AcDbEntity
  8
0
  6
Continuous
 62
     7
370
    25
100
AcDbLine
 10
145.5602815691
 20
-95.0401303152
 30
0.0
 11
145.2136019261
 21
-94.8400712526
 31
0.0
  0
LINE
  5
5D2
330
1F
100
AcDbEntity
  8
0
  6
Continuous
 62
     7
370
    25
100
AcDbLine
 10
146.0752447185
 20
-102.2264356001
 30
0.0
 11
143.3018075746
 21
-100.6259630996
 31
0.0
  0
LINE
  5
5D3
330
1F
100
AcDbEntity
  8
0
  6
Continuous
 62
     7
370
    25
100
AcDbLine
 10
143.3018075746
 20
-100.6259630996
 30
0.0
 11
142.8228448278
 21
-93.9420430517
 31
0.0
  0
LINE
  5
5D4
330
1F
100
AcDbEntity
  8
0
  6
Continuous
 62
     7
370
    25
100
AcDbLine
 10
151.0041160244
 20
-139.5870143475
 30
0.0
 11
150.6574363814
 21
-139.386955285
 31
0.0
  0
LINE
  5
5D5
330
1F
100
AcDbEntity
  8
0
  6
Continuous
 62
     7
370
    25
100
AcDbLine
 10
148.8491657053
 20
-140.9364735279
 30
0.0
 11
148.5024860623
 21
-140.7364144654
 31
0.0
  0
LINE
  5
5D6
330
1F
100
AcDbEntity
  8
0
  6
Continuous
 62
     7
370
    25
100
AcDbLine
 10
149.3641288548
 20
-148.1227788128
 30
0.0
 11
146.5906917109
 21
-146.5223063124
 31
0.0
  0
LINE
  5
5D7
330
1F
100
AcDbEntity
  8
0
  6
Continuous
 62
     7
370
    25
100
AcDbLine
 10
146.5906917109
 20
-146.5223063124
 30
0.0
 11
146.1117289641
 21
-139.8383862644
 31
0.0
  0
LINE
  5
5D8
330
1F
100
AcDbEntity
  8
0
  6
Continuous
 62
     7
370
    25
100
AcDbLine
 10
152.2486261711
 20
-156.9541402351
 30
0.0
 11
152.0310824556
 21
-156.828601881
 31
0.0
  0
LINE
  5
5D9
330
1F
100
AcDbEntity
  8
0
  6
Continuous
 62
     7
370
    25
100
AcDbLine
 10
234.9228882142
 20
-106.5647222504
 30
0.0
 11
234.3010895255
 21
-105.5717724064
 31
0.0
  0
LINE
  5
5DA
330
1F
100
AcDbEntity
  8
0
  6
Continuous
 62
     7
370
    25
100
AcDbLine
 10
151.5981425433
 20
-158.7438105589
 30
0.0
 11
151.4316216626
 21
-158.4778934937
 31
0.0
  0
LINE
  5
5DB
330
1F
100
AcDbEntity
  8
0
  6
Continuous
 62
     7
370
    25
100
AcDbLine
 10
48.9314460315
 20
-223.0350913843
 30
0.0
 11
237.6098338748
 21
-104.8821203562
 31
0.0
  0
LINE
  5
5DC
330
1F
100
AcDbEntity
  8
0
  6
Continuous
 62
     7
370
    25
100
AcDbLine
 10
130.6200081346
 20
-171.8806034653
 30
0.0
 11
128.4970546185
 21
-168.4904606411
 31
0.0
  0
LINE
  5
5DD
330
1F
100
AcDbEntity
  8
0
  6
Continuous
 62
     7
370
    25
100
AcDbLine
 10
104.7644790805
 20
-188.0716871934
 30
0.0
 11
102.6415255644
 21
-184.6815443692
 31
0.0
  0
LINE
  5
5DE
330
1F
100
AcDbEntity
  8
0
  6
Continuous
 62
     7
370
    25
100
AcDbLine
 10
78.9089500264
 20
-204.2627709214
 30
0.0
 11
76.7859965103
 21
-200.8726280972
 31
0.0
  0
LINE
  5
5DF
330
1F
100
AcDbEntity
  8
0
  6
Continuous
 62
     7
370
    25
100
AcDbLine
 10
53.0534209723
 20
-220.4538546495
 30
0.0
 11
50.9304674562
 21
-217.0637118253
 31
0.0
  0
LINE
  5
5E0
330
1F
100
AcDbEntity
  8
0
  6
Continuous
 62
     7
370
    25
100
AcDbLine
 10
20.635265539
 20
-224.0795908649
 30
0.0
 11
19.30493247
 21
-220.9241617258
 31
0.0
  0
LINE
  5
5E1
330
1F
100
AcDbEntity
  8
0
  6
Continuous
 62
     7
370
    25
100
AcDbLine
 10
20.635265539
 20
-224.0795908649
 30
0.0
 11
25.2999036519
 21
-223.9027888892
 31
0.0
  0
LINE
  5
5E2
330
1F
100
AcDbEntity
  8
0
  6
Continuous
 62
     7
370
    25
100
AcDbLine
 10
-12.9953461202
 20
-225.3542789419
 30
0.0
 11
-14.3256791893
 21
-222.1988498028
 31
0.0
  0
LINE
  5
5E3
330
1F
100
AcDbEntity
  8
0
  6
Continuous
 62
     7
370
    25
100
AcDbLine
 10
-12.9953461202
 20
-225.3542789419
 30
0.0
 11
-8.3307080073
 21
-225.1774769662
 31
0.0
  0
LINE
  5
5E4
330
1F
100
AcDbEntity
  8
0
  6
Continuous
 62
     7
370
    25
100
AcDbLine
 10
-46.6259577794
 20
-226.6289670189
 30
0.0
 11
-47.9562908485
 21
-223.4735378799
 31
0.0
  0
LINE
  5
5E5
330
1F
100
AcDbEntity
  8
0
  6
Continuous
 62
     7
370
    25
100
AcDbLine
 10
-46.6259577794
 20
-226.6289670189
 30
0.0
 11
-41.9613196666
 21
-226.4521650432
 31
0.0
  0
LINE
  5
5E6
330
1F
100
AcDbEntity
  8
0
  6
Continuous
 62
     7
370
    25
100
AcDbLine
 10
-252.1889215394
 20
-339.6273895875
 30
0.0
 11
-253.6898421035
 21
-337.2305707023
 31
0.0
  0
LINE
  5
5E7
330
1F
100
AcDbEntity
  8
0
  6
Continuous
 62
     7
370
    25
100
AcDbLine
 10
-217.609830043
 20
-313.2539273137
 30
0.0
 11
-208.534872161
 21
-307.5710653391
 31
0.0
  0
LINE
  5
5E8
330
1F
100
AcDbEntity
  8
0
  6
Continuous
 62
     7
370
    25
100
AcDbLine
 10
-213.9542447616
 20
-315.6843152946
 30
0.0
 11
-218.7882001563
 21
-307.9649756722
 31
0.0
  0
LINE
  5
5E9
330
1F
100
AcDbEntity
  8
0
  6
Continuous
 62
     7
370
    25
100
AcDbLine
 10
-206.7710770314
 20
-311.1861180267
 30
0.0
 11
-208.8940305475
 21
-307.7959752025
 31
0.0
  0
LINE
  5
5EA
330
1F
100
AcDbEntity
  8
0
  6
Continuous
 62
     7
370
    25
100
AcDbLine
 10
-200.4875487547
 20
-307.2512872127
 30
0.0
 11
-201.5490255128
 21
-305.5562158006
 31
0.0
  0
LINE
  5
5EB
330
1F
100
AcDbEntity
  8
0
  6
Continuous
 62
     7
370
    25
100
AcDbLine
 10
-199.5879093011
 20
-306.6879207587
 30
0.0
 11
-201.7108628173
 21
-303.2977779345
 31
0.0
  0
LINE
  5
5EC
330
1F
100
AcDbEntity
  8
0
  6
Continuous
 62
     7
370
    25
100
AcDbLine
 10
-180.5653972447
 20
-294.7757651505
 30
0.0
 11
-182.6883507608
 21
-291.3856223263
 31
0.0
  0
LINE
  5
5ED
330
1F
100
AcDbEntity
  8
0
  6
Continuous
 62
     7
370
    25
100
AcDbLine
 10
-202.0700212038
 20
-303.5226877979
 30
0.0
 11
-182.3291923743
 21
-291.1607124629
 31
0.0
  0
LINE
  5
5EE
330
1F
100
AcDbEntity
  8
0
  6
Continuous
 62
     7
370
    25
100
AcDbLine
 10
-174.281868968
 20
-290.8409343365
 30
0.0
 11
-175.3433457261
 21
-289.1458629244
 31
0.0
  0
LINE
  5
5EF
330
1F
100
AcDbEntity
  8
0
  6
Continuous
 62
     7
370
    25
100
AcDbLine
 10
-154.3597174579
 20
-278.3654122744
 30
0.0
 11
-156.4826709741
 21
-274.9752694502
 31
0.0
  0
LINE
  5
5F0
330
1F
100
AcDbEntity
  8
0
  6
Continuous
 62
     7
370
    25
100
AcDbLine
 10
-173.3822295144
 20
-290.2775678825
 30
0.0
 11
-175.5051830305
 21
-286.8874250584
 31
0.0
  0
LINE
  5
5F1
330
1F
100
AcDbEntity
  8
0
  6
Continuous
 62
     7
370
    25
100
AcDbLine
 10
-175.864341417
 20
-287.1123349218
 30
0.0
 11
-156.1235125875
 21
-274.7503595868
 31
0.0
  0
LINE
  5
5F2
330
1F
100
AcDbEntity
  8
0
  6
Continuous
 62
     7
370
    25
100
AcDbLine
 10
-148.0761891813
 20
-274.4305814603
 30
0.0
 11
-149.1376659393
 21
-272.7355100482
 31
0.0
  0
LINE
  5
5F3
330
1F
100
AcDbEntity
  8
0
  6
Continuous
 62
     7
370
    25
100
AcDbLine
 10
-147.1765497277
 20
-273.8672150064
 30
0.0
 11
-149.2995032438
 21
-270.4770721822
 31
0.0
  0
LINE
  5
5F4
330
1F
100
AcDbEntity
  8
0
  6
Continuous
 62
     7
370
    25
100
AcDbLine
 10
-128.1540376712
 20
-261.9550593982
 30
0.0
 11
-130.2769911873
 21
-258.564916574
 31
0.0
  0
LINE
  5
5F5
330
1F
100
AcDbEntity
  8
0
  6
Continuous
 62
     7
370
    25
100
AcDbLine
 10
-149.6586616303
 20
-270.7019820456
 30
0.0
 11
-129.9178328008
 21
-258.3400067106
 31
0.0
  0
LINE
  5
5F6
330
1F
100
AcDbEntity
  8
0
  6
Continuous
 62
     7
370
    25
100
AcDbLine
 10
-121.8705093945
 20
-258.0202285842
 30
0.0
 11
-122.9319861526
 21
-256.3251571721
 31
0.0
  0
LINE
  5
5F7
330
1F
100
AcDbEntity
  8
0
  6
Continuous
 62
     7
370
    25
100
AcDbLine
 10
-101.9483578845
 20
-245.544706522
 30
0.0
 11
-104.0713114006
 21
-242.1545636979
 31
0.0
  0
LINE
  5
5F8
330
1F
100
AcDbEntity
  8
0
  6
Continuous
 62
     7
370
    25
100
AcDbLine
 10
-120.970869941
 20
-257.4568621302
 30
0.0
 11
-123.0938234571
 21
-254.066719306
 31
0.0
  0
LINE
  5
5F9
330
1F
100
AcDbEntity
  8
0
  6
Continuous
 62
     7
370
    25
100
AcDbLine
 10
-123.4529818436
 20
-254.2916291694
 30
0.0
 11
-103.7121530141
 21
-241.9296538345
 31
0.0
  0
LINE
  5
5FA
330
1F
100
AcDbEntity
  8
0
  6
Continuous
 62
     7
370
    25
100
AcDbLine
 10
-271.7495059187
 20
-351.8764933978
 30
0.0
 11
-11.918913631
 21
-189.1670448294
 31
0.0
  0
LINE
  5
5FB
330
1F
100
AcDbEntity
  8
0
  6
Continuous
 62
     7
370
    25
100
AcDbLine
 10
-95.6648296078
 20
-241.609875708
 30
0.0
 11
-96.7263063659
 21
-239.9148042959
 31
0.0
  0
LINE
  5
5FC
330
1F
100
AcDbEntity
  8
0
  6
Continuous
 62
     7
370
    25
100
AcDbLine
 10
-94.7651901542
 20
-241.0465092541
 30
0.0
 11
-96.8881436703
 21
-237.6563664299
 31
0.0
  0
LINE
  5
5FD
330
1F
100
AcDbEntity
  8
0
  6
Continuous
 62
     7
370
    25
100
AcDbLine
 10
-75.7426780977
 20
-229.1343536459
 30
0.0
 11
-77.8656316139
 21
-225.7442108217
 31
0.0
  0
LINE
  5
5FE
330
1F
100
AcDbEntity
  8
0
  6
Continuous
 62
     7
370
    25
100
AcDbLine
 10
-97.2473020568
 20
-237.8812762933
 30
0.0
 11
-77.5064732273
 21
-225.5193009583
 31
0.0
  0
LINE
  5
5FF
330
1F
100
AcDbEntity
  8
0
  6
Continuous
 62
     7
370
    25
100
AcDbLine
 10
-69.4591498211
 20
-225.1995228319
 30
0.0
 11
-70.5206265791
 21
-223.5044514198
 31
0.0
  0
LINE
  5
600
330
1F
100
AcDbEntity
  8
0
  6
Continuous
 62
     7
370
    25
100
AcDbLine
 10
-68.5595103675
 20
-224.6361563779
 30
0.0
 11
-70.6824638836
 21
-221.2460135537
 31
0.0
  0
LINE
  5
601
330
1F
100
AcDbEntity
  8
0
  6
Continuous
 62
     7
370
    25
100
AcDbLine
 10
-49.536998311
 20
-212.7240007697
 30
0.0
 11
-51.6599518271
 21
-209.3338579455
 31
0.0
  0
LINE
  5
602
330
1F
100
AcDbEntity
  8
0
  6
Continuous
 62
     7
370
    25
100
AcDbLine
 10
-71.0416222701
 20
-221.4709234171
 30
0.0
 11
-51.3007934406
 21
-209.1089480821
 31
0.0
  0
LINE
  5
603
330
1F
100
AcDbEntity
  8
0
  6
Continuous
 62
     7
370
    25
100
AcDbLine
 10
-43.2534700343
 20
-208.7891699557
 30
0.0
 11
-44.3149467924
 21
-207.0940985436
 31
0.0
  0
LINE
  5
604
330
1F
100
AcDbEntity
  8
0
  6
Continuous
 62
     7
370
    25
100
AcDbLine
 10
-42.3538305808
 20
-208.2258035018
 30
0.0
 11
-44.4767840969
 21
-204.8356606776
 31
0.0
  0
LINE
  5
605
330
1F
100
AcDbEntity
  8
0
  6
Continuous
 62
     7
370
    25
100
AcDbLine
 10
-28.5127410021
 20
-199.5583250763
 30
0.0
 11
-60.8877821229
 21
-147.8586470074
 31
0.0
  0
LINE
  5
606
330
1F
100
AcDbEntity
  8
0
  6
Continuous
 62
     7
370
    25
100
AcDbLine
 10
-44.8359424834
 20
-205.060570541
 30
0.0
 11
-26.2903810417
 21
-193.4470878906
 31
0.0
  0
LINE
  5
607
330
1F
100
AcDbEntity
  8
0
  6
Continuous
 62
     7
370
    25
100
AcDbLine
 10
-26.2516716969
 20
-198.1424127444
 30
0.0
 11
-189.719092438
 21
62.8985847182
 31
0.0
  0
LINE
  5
608
330
1F
100
AcDbEntity
  8
0
  6
Continuous
 62
     7
370
    25
100
AcDbLine
 10
-26.3641448724
 20
-193.493279804
 30
0.0
 11
-24.2411913563
 21
-196.8834226282
 31
0.0
  0
LINE
  5
609
330
1F
100
AcDbEntity
  8
0
  6
Continuous
 62
     7
370
    25
100
AcDbLine
 10
-20.4357102292
 20
-194.5003786214
 30
0.0
 11
-21.4971869873
 21
-192.8053072093
 31
0.0
  0
LINE
  5
60A
330
1F
100
AcDbEntity
  8
0
  6
Continuous
 62
     7
370
    25
100
AcDbLine
 10
-19.1280716926
 20
-193.6815175961
 30
0.0
 11
-21.2510252088
 21
-190.2913747719
 31
0.0
  0
LINE
  5
60B
330
1F
100
AcDbEntity
  8
0
  6
Continuous
 62
     7
370
    25
100
AcDbLine
 10
-13.6350041183
 20
-190.241684018
 30
0.0
 11
-177.1024248594
 21
70.7993134446
 31
0.0
  0
LINE
  5
60C
330
1F
100
AcDbEntity
  8
0
  6
Continuous
 62
     7
370
    25
100
AcDbLine
 10
-21.6885733444
 20
-190.5653733617
 30
0.0
 11
-14.0418671471
 21
-185.7769020052
 31
0.0
  0
LINE
  5
60D
330
1F
100
AcDbEntity
  8
0
  6
Continuous
 62
     7
370
    25
100
AcDbLine
 10
-184.3449121295
 20
-29.3072252517
 30
0.0
 11
-106.8571087912
 21
-153.0474383346
 31
0.0
  0
LINE
  5
60E
330
1F
100
AcDbEntity
  8
0
  6
Continuous
 62
     7
370
    25
100
AcDbLine
 10
-569.0729701869
 20
-267.3541691896
 30
0.0
 11
-561.3081538393
 21
-302.2940681195
 31
0.0
  0
LINE
  5
60F
330
1F
100
AcDbEntity
  8
0
  6
Continuous
 62
     7
370
    25
100
AcDbLine
 10
-560.7832381094
 20
-303.4953555395
 30
0.0
 11
-543.1716264969
 21
-339.558267963
 31
0.0
  0
LINE
  5
610
330
1F
100
AcDbEntity
  8
0
  6
Continuous
 62
     7
370
    25
100
AcDbLine
 10
-543.1716264969
 20
-339.558267963
 30
0.0
 11
-542.6469680448
 21
-340.3960946384
 31
0.0
  0
LINE
  5
611
330
1F
100
AcDbEntity
  8
0
  6
Continuous
 62
     7
370
    25
100
AcDbLine
 10
-542.6469680448
 20
-340.3960946384
 30
0.0
 11
-517.8931696472
 21
-371.9864726187
 31
0.0
  0
LINE
  5
612
330
1F
100
AcDbEntity
  8
0
  6
Continuous
 62
     7
370
    25
100
AcDbLine
 10
-517.0416394358
 20
-372.9832303226
 30
0.0
 11
-488.9987076199
 21
-395.2246970098
 31
0.0
  0
LINE
  5
613
330
1F
100
AcDbEntity
  8
0
  6
Continuous
 62
     7
370
    25
100
AcDbLine
 10
-488.044376719
 20
-395.8060884431
 30
0.0
 11
-460.8879049522
 21
-405.4143318625
 31
0.0
  0
LINE
  5
614
330
1F
100
AcDbEntity
  8
0
  6
Continuous
 62
     7
370
    25
100
AcDbLine
 10
-460.0900044111
 20
-405.4674194667
 30
0.0
 11
-437.8749208831
 21
-400.9436101658
 31
0.0
  0
LINE
  5
615
330
1F
100
AcDbEntity
  8
0
  6
Continuous
 62
     7
370
    25
100
AcDbLine
 10
-437.4544611968
 20
-400.6070689389
 30
0.0
 11
-437.8749208831
 21
-400.9436101658
 31
0.0
  0
LINE
  5
616
330
1F
100
AcDbEntity
  8
0
  6
Continuous
 62
     7
370
    25
100
AcDbLine
 10
-423.6832018205
 20
-382.5946425595
 30
0.0
 11
-437.4544611968
 21
-400.6070689389
 31
0.0
  0
LINE
  5
617
330
1F
100
AcDbEntity
  8
0
  6
Continuous
 62
     7
370
    25
100
AcDbLine
 10
-420.2355761106
 20
-353.1798889338
 30
0.0
 11
-423.4551289871
 21
-381.8603761718
 31
0.0
  0
LINE
  5
618
330
1F
100
AcDbEntity
  8
0
  6
Continuous
 62
     7
370
    25
100
AcDbLine
 10
-428.0582909481
 20
-317.227529272
 30
0.0
 11
-420.2785692077
 21
-352.2344997638
 31
0.0
  0
LINE
  5
619
330
1F
100
AcDbEntity
  8
0
  6
Continuous
 62
     7
370
    25
100
AcDbLine
 10
-446.0574639131
 20
-279.9652386782
 30
0.0
 11
-428.4226339654
 21
-316.0756948351
 31
0.0
  0
LINE
  5
61A
330
1F
100
AcDbEntity
  8
0
  6
Continuous
 62
     7
370
    25
100
AcDbLine
 10
-446.6314265604
 20
-279.0486781717
 30
0.0
 11
-446.0574639131
 21
-279.9652386782
 31
0.0
  0
LINE
  5
61B
330
1F
100
AcDbEntity
  8
0
  6
Continuous
 62
     7
370
    25
100
AcDbLine
 10
-471.417859273
 20
-247.4166528712
 30
0.0
 11
-446.6314265604
 21
-279.0486781717
 31
0.0
  0
LINE
  5
61C
330
1F
100
AcDbEntity
  8
0
  6
Continuous
 62
     7
370
    25
100
AcDbLine
 10
-500.3917749066
 20
-224.3017836864
 30
0.0
 11
-472.2950105922
 21
-246.5859459644
 31
0.0
  0
LINE
  5
61D
330
1F
100
AcDbEntity
  8
0
  6
Continuous
 62
     7
370
    25
100
AcDbLine
 10
-528.4313747313
 20
-214.2238907198
 30
0.0
 11
-501.2235120745
 21
-223.8503167743
 31
0.0
  0
LINE
  5
61E
330
1F
100
AcDbEntity
  8
0
  6
Continuous
 62
     7
370
    25
100
AcDbLine
 10
-551.3908266781
 20
-218.6290623654
 30
0.0
 11
-529.191534333
 21
-214.1084687449
 31
0.0
  0
LINE
  5
61F
330
1F
100
AcDbEntity
  8
0
  6
Continuous
 62
     7
370
    25
100
AcDbLine
 10
-551.3908266781
 20
-218.6290623654
 30
0.0
 11
-551.9174566122
 21
-218.8927516337
 31
0.0
  0
LINE
  5
620
330
1F
100
AcDbEntity
  8
0
  6
Continuous
 62
     7
370
    25
100
AcDbLine
 10
-551.9174566122
 20
-218.8927516337
 30
0.0
 11
-565.6652178276
 21
-236.8744430032
 31
0.0
  0
LINE
  5
621
330
1F
100
AcDbEntity
  8
0
  6
Continuous
 62
     7
370
    25
100
AcDbLine
 10
-565.965848267
 20
-237.6154456388
 30
0.0
 11
-569.1793199729
 21
-266.2417604562
 31
0.0
  0
LINE
  5
622
330
1F
100
AcDbEntity
  8
0
  6
Continuous
 62
     7
370
    25
100
AcDbLine
 10
-457.216737319
 20
-403.6681405595
 30
0.0
 11
-460.0900044111
 21
-405.4674194667
 31
0.0
  0
LINE
  5
623
330
1F
100
AcDbEntity
  8
0
  6
Continuous
 62
     7
370
    25
100
AcDbLine
 10
-436.5822120144
 20
-399.4661911329
 30
0.0
 11
-457.216737319
 21
-403.6681405595
 31
0.0
  0
LINE
  5
624
330
1F
100
AcDbEntity
  8
0
  6
Continuous
 62
     7
370
    25
100
AcDbLine
 10
-562.7919507355
 20
-235.075164096
 30
0.0
 11
-565.6652178276
 21
-236.8744430032
 31
0.0
  0
LINE
  5
625
330
1F
100
AcDbEntity
  8
0
  6
Continuous
 62
     7
370
    25
100
AcDbLine
 10
-562.7919507355
 20
-235.075164096
 30
0.0
 11
-550.001985293
 21
-218.3462431022
 31
0.0
  0
LINE
  5
626
330
1F
100
AcDbEntity
  8
0
  6
Continuous
 62
     7
370
    25
100
AcDbLine
 10
-563.0925811749
 20
-235.8161667316
 30
0.0
 11
-565.965848267
 21
-237.6154456388
 31
0.0
  0
LINE
  5
627
330
1F
100
AcDbEntity
  8
0
  6
Continuous
 62
     7
370
    25
100
AcDbLine
 10
-458.0146378601
 20
-403.6150529554
 30
0.0
 11
-460.8879049522
 21
-405.4143318625
 31
0.0
  0
LINE
  5
628
330
1F
100
AcDbEntity
  8
0
  6
Continuous
 62
     7
370
    25
100
AcDbLine
 10
-566.3060528808
 20
-264.442481549
 30
0.0
 11
-569.1793199729
 21
-266.2417604562
 31
0.0
  0
LINE
  5
629
330
1F
100
AcDbEntity
  8
0
  6
Continuous
 62
     7
370
    25
100
AcDbLine
 10
-566.3060528808
 20
-264.442481549
 30
0.0
 11
-563.0925811749
 21
-235.8161667316
 31
0.0
  0
LINE
  5
62A
330
1F
100
AcDbEntity
  8
0
  6
Continuous
 62
     7
370
    25
100
AcDbLine
 10
-485.1711096269
 20
-394.0068095359
 30
0.0
 11
-488.044376719
 21
-395.8060884431
 31
0.0
  0
LINE
  5
62B
330
1F
100
AcDbEntity
  8
0
  6
Continuous
 62
     7
370
    25
100
AcDbLine
 10
-458.0146378601
 20
-403.6150529554
 30
0.0
 11
-485.1711096269
 21
-394.0068095359
 31
0.0
  0
LINE
  5
62C
330
1F
100
AcDbEntity
  8
0
  6
Continuous
 62
     7
370
    25
100
AcDbLine
 10
-486.1254405278
 20
-393.4254181026
 30
0.0
 11
-488.9987076199
 21
-395.2246970098
 31
0.0
  0
LINE
  5
62D
330
1F
100
AcDbEntity
  8
0
  6
Continuous
 62
     7
370
    25
100
AcDbLine
 10
-566.1997030948
 20
-265.5548902824
 30
0.0
 11
-569.0729701869
 21
-267.3541691896
 31
0.0
  0
LINE
  5
62E
330
1F
100
AcDbEntity
  8
0
  6
Continuous
 62
     7
370
    25
100
AcDbLine
 10
-558.4348867472
 20
-300.4947892123
 30
0.0
 11
-561.3081538393
 21
-302.2940681195
 31
0.0
  0
LINE
  5
62F
330
1F
100
AcDbEntity
  8
0
  6
Continuous
 62
     7
370
    25
100
AcDbLine
 10
-558.4348867472
 20
-300.4947892123
 30
0.0
 11
-566.1997030948
 21
-265.5548902824
 31
0.0
  0
LINE
  5
630
330
1F
100
AcDbEntity
  8
0
  6
Continuous
 62
     7
370
    25
100
AcDbLine
 10
-514.1683723437
 20
-371.1839514154
 30
0.0
 11
-517.0416394358
 21
-372.9832303226
 31
0.0
  0
LINE
  5
631
330
1F
100
AcDbEntity
  8
0
  6
Continuous
 62
     7
370
    25
100
AcDbLine
 10
-486.1254405278
 20
-393.4254181026
 30
0.0
 11
-514.1683723437
 21
-371.1839514154
 31
0.0
  0
LINE
  5
632
330
1F
100
AcDbEntity
  8
0
  6
Continuous
 62
     7
370
    25
100
AcDbLine
 10
-515.0199025551
 20
-370.1871937115
 30
0.0
 11
-517.8931696472
 21
-371.9864726187
 31
0.0
  0
LINE
  5
633
330
1F
100
AcDbEntity
  8
0
  6
Continuous
 62
     7
370
    25
100
AcDbLine
 10
-557.9099710173
 20
-301.6960766323
 30
0.0
 11
-560.7832381094
 21
-303.4953555395
 31
0.0
  0
LINE
  5
634
330
1F
100
AcDbEntity
  8
0
  6
Continuous
 62
     7
370
    25
100
AcDbLine
 10
-540.2983594048
 20
-337.7589890558
 30
0.0
 11
-543.1716264969
 21
-339.558267963
 31
0.0
  0
LINE
  5
635
330
1F
100
AcDbEntity
  8
0
  6
Continuous
 62
     7
370
    25
100
AcDbLine
 10
-540.2983594048
 20
-337.7589890558
 30
0.0
 11
-557.9099710173
 21
-301.6960766323
 31
0.0
  0
LINE
  5
636
330
1F
100
AcDbEntity
  8
0
  6
Continuous
 62
     7
370
    25
100
AcDbLine
 10
-539.7737009527
 20
-338.5968157312
 30
0.0
 11
-542.6469680448
 21
-340.3960946384
 31
0.0
  0
LINE
  5
637
330
1F
100
AcDbEntity
  8
0
  6
Continuous
 62
     7
370
    25
100
AcDbLine
 10
-515.0199025551
 20
-370.1871937115
 30
0.0
 11
-539.7737009527
 21
-338.5968157312
 31
0.0
  0
LINE
  5
638
330
1F
100
AcDbEntity
  8
0
  6
Continuous
 62
     7
370
    25
100
AcDbLine
 10
-539.7737009527
 20
-338.5968157312
 30
0.0
 11
-540.2983594048
 21
-337.7589890558
 31
0.0
  0
LINE
  5
639
330
1F
100
AcDbEntity
  8
0
  6
Continuous
 62
     7
370
    25
100
AcDbLine
 10
-435.2169266598
 20
-90.8354959353
 30
0.0
 11
-430.8146547014
 21
-97.8654806131
 31
0.0
  0
LINE
  5
63A
330
1F
100
AcDbEntity
  8
0
  6
Continuous
 62
     7
370
    25
100
AcDbLine
 10
-276.1517778771
 20
-344.84650872
 30
0.0
 11
-271.7495059187
 21
-351.8764933978
 31
0.0
  0
LINE
  5
63B
330
1F
100
AcDbEntity
  8
0
  6
Continuous
 62
     7
370
    25
100
AcDbLine
 10
-413.1001375003
 20
-390.7599016497
 30
0.0
 11
-413.0503428526
 21
-390.7418815804
 31
0.0
  0
LINE
  5
63C
330
1F
100
AcDbEntity
  8
0
  6
Continuous
 62
     7
370
    25
100
AcDbLine
 10
-403.2251130371
 20
-387.1862519865
 30
0.0
 11
-234.4641120721
 21
-326.1137253797
 31
0.0
  0
LINE
  5
63D
330
1F
100
AcDbEntity
  8
0
  6
Continuous
 62
     7
370
    25
100
AcDbLine
 10
-250.4000314569
 20
-336.0930147031
 30
0.0
 11
-218.5337486005
 21
-316.1379152445
 31
0.0
  0
LINE
  5
63E
330
1F
100
AcDbEntity
  8
0
  6
Continuous
 62
     7
370
    25
100
AcDbLine
 10
-395.7596703858
 20
-68.540973344
 30
0.0
 11
-524.3896391382
 21
-193.6987141816
 31
0.0
  0
LINE
  5
63F
330
1F
100
AcDbEntity
  8
0
  6
Continuous
 62
     7
370
    25
100
AcDbLine
 10
-531.8784487384
 20
-200.9853714062
 30
0.0
 11
-531.9164023173
 21
-201.022300469
 31
0.0
  0
LINE
  5
640
330
1F
100
AcDbEntity
  8
0
  6
Continuous
 62
     7
370
    25
100
AcDbLine
 10
-379.8293069141
 20
-58.5651632088
 30
0.0
 11
-411.6955897705
 21
-78.5202626674
 31
0.0
  0
LINE
  5
641
330
1F
100
AcDbEntity
  8
0
  6
Continuous
 62
     7
370
    25
100
AcDbLine
 10
-546.0839584035
 20
-221.1863385544
 30
0.0
 11
-561.2956970505
 21
-236.9944852582
 31
0.0
  0
LINE
  5
642
330
1F
100
AcDbEntity
  8
0
  6
Continuous
 62
     7
370
    25
100
AcDbLine
 10
-547.5441328253
 20
-219.0078196571
 30
0.0
 11
-561.2956970505
 21
-236.9944852582
 31
0.0
  0
LINE
  5
643
330
1F
100
AcDbEntity
  8
0
  6
Continuous
 62
     7
370
    25
100
AcDbLine
 10
-458.2901198084
 20
-401.4840117068
 30
0.0
 11
-437.4265319585
 21
-394.701298614
 31
0.0
  0
LINE
  5
644
330
1F
100
AcDbEntity
  8
0
  6
Continuous
 62
     7
370
    25
100
AcDbLine
 10
-458.2901198084
 20
-401.4840117068
 30
0.0
 11
-436.1042115436
 21
-396.9661435642
 31
0.0
  0
LINE
  5
645
330
1F
100
AcDbEntity
  8
0
  6
Continuous
 62
     7
370
    25
100
AcDbLine
 10
-561.3654128254
 20
-237.1876594483
 30
0.0
 11
-564.5789496644
 21
-265.814554497
 31
0.0
  0
LINE
  5
646
330
1F
100
AcDbEntity
  8
0
  6
Continuous
 62
     7
370
    25
100
AcDbLine
 10
-485.6513693823
 20
-391.8539462653
 30
0.0
 11
-458.4943471772
 21
-401.4623844368
 31
0.0
  0
LINE
  5
647
330
1F
100
AcDbEntity
  8
0
  6
Continuous
 62
     7
370
    25
100
AcDbLine
 10
-513.9582597962
 20
-369.4614022792
 30
0.0
 11
-485.9184412846
 21
-391.7003996147
 31
0.0
  0
LINE
  5
648
330
1F
100
AcDbEntity
  8
0
  6
Continuous
 62
     7
370
    25
100
AcDbLine
 10
-564.5574255913
 20
-266.1218665357
 30
0.0
 11
-556.7934715673
 21
-301.0578858076
 31
0.0
  0
LINE
  5
649
330
1F
100
AcDbEntity
  8
0
  6
Continuous
 62
     7
370
    25
100
AcDbLine
 10
-538.9654122389
 20
-337.6170073
 30
0.0
 11
-514.2180177835
 21
-369.1992126777
 31
0.0
  0
LINE
  5
64A
330
1F
100
AcDbEntity
  8
0
  6
Continuous
 62
     7
370
    25
100
AcDbLine
 10
-538.9654122389
 20
-337.6170073
 30
0.0
 11
-474.0508851784
 21
-336.215897348
 31
0.0
  0
LINE
  5
64B
330
1F
100
AcDbEntity
  8
0
  6
Continuous
 62
     7
370
    25
100
AcDbLine
 10
-509.4596051836
 20
-279.6717398204
 30
0.0
 11
-539.0639591157
 21
-337.4596378687
 31
0.0
  0
LINE
  5
64C
330
1F
100
AcDbEntity
  8
0
  6
Continuous
 62
     7
370
    25
100
AcDbLine
 10
-556.6710145085
 20
-301.4060551168
 30
0.0
 11
-539.0639591157
 21
-337.4596378687
 31
0.0
  0
LINE
  5
64D
330
1F
100
AcDbEntity
  8
0
  6
Continuous
 62
     7
370
    25
100
AcDbLine
 10
-538.6742323781
 20
-337.0301532776
 30
0.0
 11
-538.8086578201
 21
-336.9612880221
 31
0.0
  0
LINE
  5
64E
330
1F
100
AcDbEntity
  8
0
  6
Continuous
 62
     7
370
    25
100
AcDbLine
 10
-538.4056039451
 20
-337.6049244426
 30
0.0
 11
-538.4088631885
 21
-337.4539211306
 31
0.0
  0
LINE
  5
64F
330
1F
100
AcDbEntity
  8
0
  6
Continuous
 62
     7
370
    25
100
AcDbLine
 10
-538.6742323781
 20
-337.0301532776
 30
0.0
 11
-538.4088631885
 21
-337.4539211306
 31
0.0
  0
LINE
  5
650
330
1F
100
AcDbEntity
  8
0
  6
Continuous
 62
     7
370
    25
100
AcDbLine
 10
-436.1042115436
 20
-396.9661435642
 30
0.0
 11
-436.0998774612
 21
-396.9802253847
 31
0.0
  0
LINE
  5
651
330
1F
100
AcDbEntity
  8
0
  6
Continuous
 62
     7
370
    25
100
AcDbLine
 10
-458.0942903335
 20
-403.1916489841
 30
0.0
 11
-469.1881945733
 21
-399.2665097636
 31
0.0
  0
LINE
  5
652
330
1F
100
AcDbEntity
  8
0
  6
Continuous
 62
     7
370
    25
100
AcDbLine
 10
-436.2015877185
 20
-398.9683450812
 30
0.0
 11
-444.2181114202
 21
-400.6008045963
 31
0.0
  0
LINE
  5
653
330
1F
100
AcDbEntity
  8
0
  6
Continuous
 62
     7
370
    25
100
AcDbLine
 10
-449.0789314702
 20
-401.5906466072
 30
0.0
 11
-457.3355493377
 21
-403.2719981382
 31
0.0
  0
LINE
  5
654
330
1F
100
AcDbEntity
  8
0
  6
Continuous
 62
     7
370
    25
100
AcDbLine
 10
-547.5441328253
 20
-219.0078196571
 30
0.0
 11
-547.5549089808
 21
-218.9977719503
 31
0.0
  0
LINE
  5
655
330
1F
100
AcDbEntity
  8
0
  6
Continuous
 62
     7
370
    25
100
AcDbLine
 10
-561.2956970505
 20
-236.9944852582
 30
0.0
 11
-561.3202178345
 21
-236.9716220351
 31
0.0
  0
LINE
  5
656
330
1F
100
AcDbEntity
  8
0
  6
Continuous
 62
     7
370
    25
100
AcDbLine
 10
-554.7846890752
 20
-225.2080187855
 30
0.0
 11
-557.0061324874
 21
-228.1136053175
 31
0.0
  0
LINE
  5
657
330
1F
100
AcDbEntity
  8
0
  6
Continuous
 62
     7
370
    25
100
AcDbLine
 10
-458.2901198084
 20
-401.4840117068
 30
0.0
 11
-458.2802577477
 21
-401.5160544218
 31
0.0
  0
LINE
  5
658
330
1F
100
AcDbEntity
  8
0
  6
Continuous
 62
     7
370
    25
100
AcDbLine
 10
-448.4275620449
 20
-401.5026402876
 30
0.0
 11
-444.8436250504
 21
-400.7728187009
 31
0.0
  0
LINE
  5
659
330
1F
100
AcDbEntity
  8
0
  6
Continuous
 62
     7
370
    25
100
AcDbLine
 10
-562.7464491995
 20
-236.0726976167
 30
0.0
 11
-564.0592098436
 21
-247.7670590217
 31
0.0
  0
LINE
  5
65A
330
1F
100
AcDbEntity
  8
0
  6
Continuous
 62
     7
370
    25
100
AcDbLine
 10
-549.3879100064
 20
-218.2211947547
 30
0.0
 11
-554.3568181656
 21
-224.7203891735
 31
0.0
  0
LINE
  5
65B
330
1F
100
AcDbEntity
  8
0
  6
Continuous
 62
     7
370
    25
100
AcDbLine
 10
-557.3697161865
 20
-228.66117644
 30
0.0
 11
-562.4874426971
 21
-235.3550211457
 31
0.0
  0
LINE
  5
65C
330
1F
100
AcDbEntity
  8
0
  6
Continuous
 62
     7
370
    25
100
AcDbLine
 10
-561.3654128254
 20
-237.1876594483
 30
0.0
 11
-561.3893686918
 21
-237.1697186435
 31
0.0
  0
LINE
  5
65D
330
1F
100
AcDbEntity
  8
0
  6
Continuous
 62
     7
370
    25
100
AcDbLine
 10
-458.4943471772
 20
-401.4623844368
 30
0.0
 11
-458.4886668563
 21
-401.4917696366
 31
0.0
  0
LINE
  5
65E
330
1F
100
AcDbEntity
  8
0
  6
Continuous
 62
     7
370
    25
100
AcDbLine
 10
-485.6513693823
 20
-391.8539462653
 30
0.0
 11
-485.6447298621
 21
-391.8882935548
 31
0.0
  0
LINE
  5
65F
330
1F
100
AcDbEntity
  8
0
  6
Continuous
 62
     7
370
    25
100
AcDbLine
 10
-473.0627053434
 20
-397.9376857372
 30
0.0
 11
-470.4259262456
 21
-398.8706057291
 31
0.0
  0
LINE
  5
660
330
1F
100
AcDbEntity
  8
0
  6
Continuous
 62
     7
370
    25
100
AcDbLine
 10
-564.5789496644
 20
-265.814554497
 30
0.0
 11
-564.6069508039
 21
-265.7935841438
 31
0.0
  0
LINE
  5
661
330
1F
100
AcDbEntity
  8
0
  6
Continuous
 62
     7
370
    25
100
AcDbLine
 10
-564.2434741235
 20
-249.0534362496
 30
0.0
 11
-564.5554886994
 21
-251.8329309207
 31
0.0
  0
LINE
  5
662
330
1F
100
AcDbEntity
  8
0
  6
Continuous
 62
     7
370
    25
100
AcDbLine
 10
-485.372353252
 20
-393.5364924508
 30
0.0
 11
-485.6813288102
 21
-391.8661928173
 31
0.0
  0
LINE
  5
663
330
1F
100
AcDbEntity
  8
0
  6
Continuous
 62
     7
370
    25
100
AcDbLine
 10
-474.3178743798
 20
-397.4515754571
 30
0.0
 11
-485.2434774543
 21
-393.5859829472
 31
0.0
  0
LINE
  5
664
330
1F
100
AcDbEntity
  8
0
  6
Continuous
 62
     7
370
    25
100
AcDbLine
 10
-564.603048437
 20
-265.8361599249
 30
0.0
 11
-565.9708067931
 21
-264.8288844706
 31
0.0
  0
LINE
  5
665
330
1F
100
AcDbEntity
  8
0
  6
Continuous
 62
     7
370
    25
100
AcDbLine
 10
-564.6662136199
 20
-253.1743825621
 30
0.0
 11
-565.9590588996
 21
-264.6913335075
 31
0.0
  0
LINE
  5
666
330
1F
100
AcDbEntity
  8
0
  6
Continuous
 62
     7
370
    25
100
AcDbLine
 10
-485.9184412846
 20
-391.7003996147
 30
0.0
 11
-485.7890065994
 21
-392.9043889736
 31
0.0
  0
LINE
  5
667
330
1F
100
AcDbEntity
  8
0
  6
Continuous
 62
     7
370
    25
100
AcDbLine
 10
-564.5574255913
 20
-266.1218665357
 30
0.0
 11
-565.5840663947
 21
-265.4797198431
 31
0.0
  0
LINE
  5
668
330
1F
100
AcDbEntity
  8
0
  6
Continuous
 62
     7
370
    25
100
AcDbLine
 10
-556.7934715673
 20
-301.0578858076
 30
0.0
 11
-557.8201123707
 21
-300.415739115
 31
0.0
  0
LINE
  5
669
330
1F
100
AcDbEntity
  8
0
  6
Continuous
 62
     7
370
    25
100
AcDbLine
 10
-565.5840663947
 20
-265.4797198431
 30
0.0
 11
-557.8201123707
 21
-300.415739115
 31
0.0
  0
LINE
  5
66A
330
1F
100
AcDbEntity
  8
0
  6
Continuous
 62
     7
370
    25
100
AcDbLine
 10
-513.9582597962
 20
-369.4614022792
 30
0.0
 11
-513.8288251111
 21
-370.6653916381
 31
0.0
  0
LINE
  5
66B
330
1F
100
AcDbEntity
  8
0
  6
Continuous
 62
     7
370
    25
100
AcDbLine
 10
-513.8288251111
 20
-370.6653916381
 30
0.0
 11
-485.7890065994
 21
-392.9043889736
 31
0.0
  0
LINE
  5
66C
330
1F
100
AcDbEntity
  8
0
  6
Continuous
 62
     7
370
    25
100
AcDbLine
 10
-556.6710145085
 20
-301.4060551168
 30
0.0
 11
-557.0360034906
 21
-301.2190737008
 31
0.0
  0
LINE
  5
66D
330
1F
100
AcDbEntity
  8
0
  6
Continuous
 62
     7
370
    25
100
AcDbLine
 10
-514.2180177835
 20
-369.1992126777
 30
0.0
 11
-514.2091683581
 21
-369.6092135248
 31
0.0
  0
LINE
  5
66E
330
1F
100
AcDbEntity
  8
0
  6
Continuous
 62
     7
370
    25
100
AcDbLine
 10
-539.0639591157
 20
-337.4596378687
 30
0.0
 11
-539.4289480978
 21
-337.2726564527
 31
0.0
  0
LINE
  5
66F
330
1F
100
AcDbEntity
  8
0
  6
Continuous
 62
     7
370
    25
100
AcDbLine
 10
-557.0360034906
 20
-301.2190737008
 30
0.0
 11
-539.4289480978
 21
-337.2726564527
 31
0.0
  0
LINE
  5
670
330
1F
100
AcDbEntity
  8
0
  6
Continuous
 62
     7
370
    25
100
AcDbLine
 10
-538.9654122389
 20
-337.6170073
 30
0.0
 11
-538.9565628134
 21
-338.0270081471
 31
0.0
  0
LINE
  5
671
330
1F
100
AcDbEntity
  8
0
  6
Continuous
 62
     7
370
    25
100
AcDbLine
 10
-538.9565628134
 20
-338.0270081471
 30
0.0
 11
-514.2091683581
 21
-369.6092135248
 31
0.0
  0
LINE
  5
672
330
1F
100
AcDbEntity
  8
0
  6
Continuous
 62
     7
370
    25
100
AcDbLine
 10
-174.2035508639
 20
-303.7706946973
 30
0.0
 11
-282.3137121788
 21
-371.4707471711
 31
0.0
  0
LINE
  5
673
330
1F
100
AcDbEntity
  8
0
  6
Continuous
 62
     7
370
    25
100
AcDbLine
 10
-293.0049847922
 20
-366.3668544707
 30
0.0
 11
-301.1694666735
 21
-353.3289996835
 31
0.0
  0
LINE
  5
674
330
1F
100
AcDbEntity
  8
0
  6
Continuous
 62
     7
370
    25
100
AcDbLine
 10
-449.36940041
 20
-116.6686403834
 30
0.0
 11
-457.5338822913
 21
-103.6307855961
 31
0.0
  0
LINE
  5
675
330
1F
100
AcDbEntity
  8
0
  6
Continuous
 62
     7
370
    25
100
AcDbLine
 10
-457.4573772586
 20
-91.7839641755
 30
0.0
 11
-349.3472159437
 21
-24.0839117017
 31
0.0
  0
LINE
  5
676
330
1F
100
AcDbEntity
  8
0
  6
Continuous
 62
     7
370
    25
100
AcDbLine
 10
-294.8042636993
 20
-367.4935873786
 30
0.0
 11
-293.0049847922
 21
-366.3668544707
 31
0.0
  0
LINE
  5
677
330
1F
100
AcDbEntity
  8
0
  6
Continuous
 62
     7
370
    25
100
AcDbLine
 10
-294.8042636993
 20
-367.4935873786
 30
0.0
 11
-303.2356261741
 21
-354.0295511786
 31
0.0
  0
LINE
  5
678
330
1F
100
AcDbEntity
  8
0
  6
Continuous
 62
     7
370
    25
100
AcDbLine
 10
-450.9017987238
 20
-118.221554704
 30
0.0
 11
-459.3331611985
 21
-104.757518504
 31
0.0
  0
LINE
  5
679
330
1F
100
AcDbEntity
  8
0
  6
Continuous
 62
     7
370
    25
100
AcDbLine
 10
-457.5338822913
 20
-103.6307855961
 30
0.0
 11
-459.3331611985
 21
-104.757518504
 31
0.0
  0
LINE
  5
67A
330
1F
100
AcDbEntity
  8
0
  6
Continuous
 62
     7
370
    25
100
AcDbLine
 10
-423.930390304
 20
-382.9179582591
 30
0.0
 11
-423.543612956
 21
-382.0887967259
 31
0.0
  0
LINE
  5
67B
330
1F
100
AcDbEntity
  8
0
  6
Continuous
 62
     7
370
    25
100
AcDbLine
 10
-217.9780588813
 20
-310.0963262014
 30
0.0
 11
-218.7003686623
 21
-308.6172682397
 31
0.0
  0
LINE
  5
67C
330
1F
100
AcDbEntity
  8
0
  6
Continuous
 62
     7
370
    25
100
AcDbLine
 10
-529.0458848062
 20
-214.1956761516
 30
0.0
 11
-529.5903324627
 21
-214.1896787336
 31
0.0
  0
LINE
  5
67D
330
1F
100
AcDbEntity
  8
0
  6
Continuous
 62
     7
370
    25
100
AcDbLine
 10
-373.1361880604
 20
-61.9988279605
 30
0.0
 11
-374.1514222759
 21
-60.7032032612
 31
0.0
  0
LINE
  5
67E
330
1F
100
AcDbEntity
  8
0
  6
Continuous
 62
     7
370
    25
100
AcDbLine
 10
-354.3651472528
 20
-135.7762074405
 30
0.0
 11
-338.1776266924
 21
-161.626046475
 31
0.0
  0
LINE
  5
67F
330
1F
100
AcDbEntity
  8
0
  6
Continuous
 62
     7
370
    25
100
AcDbLine
 10
-338.1776266924
 20
-161.626046475
 30
0.0
 11
-351.1003546576
 21
-169.7184343755
 31
0.0
  0
LINE
  5
680
330
1F
100
AcDbEntity
  8
0
  6
Continuous
 62
     7
370
    25
100
AcDbLine
 10
-314.2943996361
 20
-199.7651532471
 30
0.0
 11
-295.71855637
 21
-229.4289029588
 31
0.0
  0
LINE
  5
681
330
1F
100
AcDbEntity
  8
0
  6
Continuous
 62
     7
370
    25
100
AcDbLine
 10
-314.2943996361
 20
-199.7651532471
 30
0.0
 11
-327.2171276013
 21
-207.8575411476
 31
0.0
  0
LINE
  5
682
330
1F
100
AcDbEntity
  8
0
  6
Continuous
 62
     7
370
    25
100
AcDbLine
 10
-295.71855637
 20
-229.4289029588
 30
0.0
 11
-308.6412843352
 21
-237.5212908593
 31
0.0
  0
LINE
  5
683
330
1F
100
AcDbEntity
  8
0
  6
Continuous
 62
     7
370
    25
100
AcDbLine
 10
-293.0648644749
 20
-233.666581489
 30
0.0
 11
-305.9875924401
 21
-241.7589693895
 31
0.0
  0
LINE
  5
684
330
1F
100
AcDbEntity
  8
0
  6
Continuous
 62
     7
370
    25
100
AcDbLine
 10
-293.0648644749
 20
-233.666581489
 30
0.0
 11
-276.8773439145
 21
-259.5164205234
 31
0.0
  0
LINE
  5
685
330
1F
100
AcDbEntity
  8
0
  6
Continuous
 62
     7
370
    25
100
AcDbLine
 10
-335.5239347973
 20
-165.8637250052
 30
0.0
 11
-348.4466627625
 21
-173.9561129058
 31
0.0
  0
LINE
  5
686
330
1F
100
AcDbEntity
  8
0
  6
Continuous
 62
     7
370
    25
100
AcDbLine
 10
-316.9480915312
 20
-195.5274747169
 30
0.0
 11
-329.8708194964
 21
-203.6198626174
 31
0.0
  0
LINE
  5
687
330
1F
100
AcDbEntity
  8
0
  6
Continuous
 62
     7
370
    25
100
AcDbLine
 10
-335.5239347973
 20
-165.8637250052
 30
0.0
 11
-316.9480915312
 21
-195.5274747169
 31
0.0
  0
LINE
  5
688
330
1F
100
AcDbEntity
  8
0
  6
Continuous
 62
     7
370
    25
100
AcDbLine
 10
-289.1533125802
 20
-184.0214628092
 30
0.0
 11
-310.7028157709
 21
-197.5160546131
 31
0.0
  0
LINE
  5
689
330
1F
100
AcDbEntity
  8
0
  6
Continuous
 62
     7
370
    25
100
AcDbLine
 10
-310.7028157709
 20
-197.5160546131
 30
0.0
 11
-292.1269725049
 21
-227.1798043248
 31
0.0
  0
LINE
  5
68A
330
1F
100
AcDbEntity
  8
0
  6
Continuous
 62
     7
370
    25
100
AcDbLine
 10
-270.5774693142
 20
-213.6852125209
 30
0.0
 11
-292.1269725049
 21
-227.1798043248
 31
0.0
  0
LINE
  5
68B
330
1F
100
AcDbEntity
  8
0
  6
Continuous
 62
     7
370
    25
100
AcDbLine
 10
-289.1533125802
 20
-184.0214628092
 30
0.0
 11
-270.5774693142
 21
-213.6852125209
 31
0.0
  0
LINE
  5
68C
330
1F
100
AcDbEntity
  8
0
  6
Continuous
 62
     7
370
    25
100
AcDbLine
 10
-129.6224054444
 20
-167.30337653
 30
0.0
 11
-207.1102087827
 21
-43.5631634471
 31
0.0
  0
LINE
  5
68D
330
1F
100
AcDbEntity
  8
0
  6
Continuous
 62
     7
370
    25
100
AcDbLine
 10
-105.2224848387
 20
-160.2830536477
 30
0.0
 11
-106.7149469168
 21
-161.217653687
 31
0.0
  0
LINE
  5
68E
330
1F
100
AcDbEntity
  8
0
  6
Continuous
 62
     7
370
    25
100
AcDbLine
 10
-291.8070044753
 20
-179.783784279
 30
0.0
 11
-313.3565076661
 21
-193.2783760829
 31
0.0
  0
LINE
  5
68F
330
1F
100
AcDbEntity
  8
0
  6
Continuous
 62
     7
370
    25
100
AcDbLine
 10
-310.3828477414
 20
-150.1200345673
 30
0.0
 11
-291.8070044753
 21
-179.783784279
 31
0.0
  0
LINE
  5
690
330
1F
100
AcDbEntity
  8
0
  6
Continuous
 62
     7
370
    25
100
AcDbLine
 10
-310.3828477414
 20
-150.1200345673
 30
0.0
 11
-331.9323509321
 21
-163.6146263712
 31
0.0
  0
LINE
  5
691
330
1F
100
AcDbEntity
  8
0
  6
Continuous
 62
     7
370
    25
100
AcDbLine
 10
-331.9323509321
 20
-163.6146263712
 30
0.0
 11
-313.3565076661
 21
-193.2783760829
 31
0.0
  0
LINE
  5
692
330
1F
100
AcDbEntity
  8
0
  6
Continuous
 62
     7
370
    25
100
AcDbLine
 10
-313.0365396365
 20
-145.8823560371
 30
0.0
 11
-334.5860428273
 21
-159.376947841
 31
0.0
  0
LINE
  5
693
330
1F
100
AcDbEntity
  8
0
  6
Continuous
 62
     7
370
    25
100
AcDbLine
 10
-329.2240601969
 20
-120.0325170026
 30
0.0
 11
-313.0365396365
 21
-145.8823560371
 31
0.0
  0
LINE
  5
694
330
1F
100
AcDbEntity
  8
0
  6
Continuous
 62
     7
370
    25
100
AcDbLine
 10
-350.7735633877
 20
-133.5271088066
 30
0.0
 11
-334.5860428273
 21
-159.376947841
 31
0.0
  0
LINE
  5
695
330
1F
100
AcDbEntity
  8
0
  6
Continuous
 62
     7
370
    25
100
AcDbLine
 10
-368.8178626279
 20
-51.6152821128
 30
0.0
 11
-367.7563858699
 21
-53.3103535249
 31
0.0
  0
LINE
  5
696
330
1F
100
AcDbEntity
  8
0
  6
Continuous
 62
     7
370
    25
100
AcDbLine
 10
-362.3530116707
 20
-47.5669045716
 30
0.0
 11
-369.1770210145
 21
-51.8401919762
 31
0.0
  0
LINE
  5
697
330
1F
100
AcDbEntity
  8
0
  6
Continuous
 62
     7
370
    25
100
AcDbLine
 10
-361.2915349127
 20
-49.2619759837
 30
0.0
 11
-362.3530116707
 21
-47.5669045716
 31
0.0
  0
LINE
  5
698
330
1F
100
AcDbEntity
  8
0
  6
Continuous
 62
     7
370
    25
100
AcDbLine
 10
-342.6121828412
 20
-35.2049292367
 30
0.0
 11
-341.5507060831
 21
-36.9000006488
 31
0.0
  0
LINE
  5
699
330
1F
100
AcDbEntity
  8
0
  6
Continuous
 62
     7
370
    25
100
AcDbLine
 10
-336.147331884
 20
-31.1565516955
 30
0.0
 11
-342.9713412277
 21
-35.4298391001
 31
0.0
  0
LINE
  5
69A
330
1F
100
AcDbEntity
  8
0
  6
Continuous
 62
     7
370
    25
100
AcDbLine
 10
-335.0858551259
 20
-32.8516231076
 30
0.0
 11
-336.147331884
 21
-31.1565516955
 31
0.0
  0
LINE
  5
69B
330
1F
100
AcDbEntity
  8
0
  6
Continuous
 62
     7
370
    25
100
AcDbLine
 10
-316.4065030545
 20
-18.7945763605
 30
0.0
 11
-315.3450262964
 21
-20.4896477726
 31
0.0
  0
LINE
  5
69C
330
1F
100
AcDbEntity
  8
0
  6
Continuous
 62
     7
370
    25
100
AcDbLine
 10
-309.9416520973
 20
-14.7461988193
 30
0.0
 11
-316.765661441
 21
-19.0194862239
 31
0.0
  0
LINE
  5
69D
330
1F
100
AcDbEntity
  8
0
  6
Continuous
 62
     7
370
    25
100
AcDbLine
 10
-308.8801753392
 20
-16.4412702314
 30
0.0
 11
-309.9416520973
 21
-14.7461988193
 31
0.0
  0
LINE
  5
69E
330
1F
100
AcDbEntity
  8
0
  6
Continuous
 62
     7
370
    25
100
AcDbLine
 10
-290.2008232677
 20
-2.3842234843
 30
0.0
 11
-289.1393465097
 21
-4.0792948964
 31
0.0
  0
LINE
  5
69F
330
1F
100
AcDbEntity
  8
0
  6
Continuous
 62
     7
370
    25
100
AcDbLine
 10
-283.7359723105
 20
1.6641540568
 30
0.0
 11
-290.5599816543
 21
-2.6091333477
 31
0.0
  0
LINE
  5
6A0
330
1F
100
AcDbEntity
  8
0
  6
Continuous
 62
     7
370
    25
100
AcDbLine
 10
-282.6744955525
 20
-0.0309173553
 30
0.0
 11
-283.7359723105
 21
1.6641540568
 31
0.0
  0
LINE
  5
6A1
330
1F
100
AcDbEntity
  8
0
  6
Continuous
 62
     7
370
    25
100
AcDbLine
 10
-263.995143481
 20
14.0261293918
 30
0.0
 11
-262.933666723
 21
12.3310579797
 31
0.0
  0
LINE
  5
6A2
330
1F
100
AcDbEntity
  8
0
  6
Continuous
 62
     7
370
    25
100
AcDbLine
 10
-257.5302925238
 20
18.074506933
 30
0.0
 11
-264.3543018675
 21
13.8012195284
 31
0.0
  0
LINE
  5
6A3
330
1F
100
AcDbEntity
  8
0
  6
Continuous
 62
     7
370
    25
100
AcDbLine
 10
-256.4688157657
 20
16.3794355209
 30
0.0
 11
-257.5302925238
 21
18.074506933
 31
0.0
  0
LINE
  5
6A4
330
1F
100
AcDbEntity
  8
0
  6
Continuous
 62
     7
370
    25
100
AcDbLine
 10
-237.7894636943
 20
30.436482268
 30
0.0
 11
-236.7279869362
 21
28.7414108559
 31
0.0
  0
LINE
  5
6A5
330
1F
100
AcDbEntity
  8
0
  6
Continuous
 62
     7
370
    25
100
AcDbLine
 10
-231.3246127371
 20
34.4848598091
 30
0.0
 11
-238.1486220808
 21
30.2115724046
 31
0.0
  0
LINE
  5
6A6
330
1F
100
AcDbEntity
  8
0
  6
Continuous
 62
     7
370
    25
100
AcDbLine
 10
-230.263135979
 20
32.7897883971
 30
0.0
 11
-231.3246127371
 21
34.4848598091
 31
0.0
  0
LINE
  5
6A7
330
1F
100
AcDbEntity
  8
0
  6
Continuous
 62
     7
370
    25
100
AcDbLine
 10
-211.5837839075
 20
46.8468351441
 30
0.0
 11
-210.5223071495
 21
45.151763732
 31
0.0
  0
LINE
  5
6A8
330
1F
100
AcDbEntity
  8
0
  6
Continuous
 62
     7
370
    25
100
AcDbLine
 10
-205.1189329503
 20
50.8952126853
 30
0.0
 11
-211.9429422941
 21
46.6219252807
 31
0.0
  0
LINE
  5
6A9
330
1F
100
AcDbEntity
  8
0
  6
Continuous
 62
     7
370
    25
100
AcDbLine
 10
-204.0574561923
 20
49.2001412732
 30
0.0
 11
-205.1189329503
 21
50.8952126853
 31
0.0
  0
LINE
  5
6AA
330
1F
100
AcDbEntity
  8
0
  6
Continuous
 62
     7
370
    25
100
AcDbLine
 10
-44.8359424834
 20
-205.060570541
 30
0.0
 11
-43.7744657253
 21
-206.7556419531
 31
0.0
  0
LINE
  5
6AB
330
1F
100
AcDbEntity
  8
0
  6
Continuous
 62
     7
370
    25
100
AcDbLine
 10
-43.7744657253
 20
-206.7556419531
 30
0.0
 11
-50.5984750691
 21
-211.0289293576
 31
0.0
  0
LINE
  5
6AC
330
1F
100
AcDbEntity
  8
0
  6
Continuous
 62
     7
370
    25
100
AcDbLine
 10
-50.2393166826
 20
-210.8040194942
 30
0.0
 11
-51.3007934406
 21
-209.1089480821
 31
0.0
  0
LINE
  5
6AD
330
1F
100
AcDbEntity
  8
0
  6
Continuous
 62
     7
370
    25
100
AcDbLine
 10
-71.0416222701
 20
-221.4709234171
 30
0.0
 11
-69.9801455121
 21
-223.1659948292
 31
0.0
  0
LINE
  5
6AE
330
1F
100
AcDbEntity
  8
0
  6
Continuous
 62
     7
370
    25
100
AcDbLine
 10
-69.9801455121
 20
-223.1659948292
 30
0.0
 11
-76.8041548558
 21
-227.4392822338
 31
0.0
  0
LINE
  5
6AF
330
1F
100
AcDbEntity
  8
0
  6
Continuous
 62
     7
370
    25
100
AcDbLine
 10
-76.4449964693
 20
-227.2143723704
 30
0.0
 11
-77.5064732273
 21
-225.5193009583
 31
0.0
  0
LINE
  5
6B0
330
1F
100
AcDbEntity
  8
0
  6
Continuous
 62
     7
370
    25
100
AcDbLine
 10
-97.2473020568
 20
-237.8812762933
 30
0.0
 11
-96.1858252988
 21
-239.5763477054
 31
0.0
  0
LINE
  5
6B1
330
1F
100
AcDbEntity
  8
0
  6
Continuous
 62
     7
370
    25
100
AcDbLine
 10
-96.1858252988
 20
-239.5763477054
 30
0.0
 11
-103.0098346425
 21
-243.84963511
 31
0.0
  0
LINE
  5
6B2
330
1F
100
AcDbEntity
  8
0
  6
Continuous
 62
     7
370
    25
100
AcDbLine
 10
-102.650676256
 20
-243.6247252466
 30
0.0
 11
-103.7121530141
 21
-241.9296538345
 31
0.0
  0
LINE
  5
6B3
330
1F
100
AcDbEntity
  8
0
  6
Continuous
 62
     7
370
    25
100
AcDbLine
 10
-123.4529818436
 20
-254.2916291694
 30
0.0
 11
-122.3915050855
 21
-255.9867005815
 31
0.0
  0
LINE
  5
6B4
330
1F
100
AcDbEntity
  8
0
  6
Continuous
 62
     7
370
    25
100
AcDbLine
 10
-122.3915050855
 20
-255.9867005815
 30
0.0
 11
-129.2155144293
 21
-260.2599879861
 31
0.0
  0
LINE
  5
6B5
330
1F
100
AcDbEntity
  8
0
  6
Continuous
 62
     7
370
    25
100
AcDbLine
 10
-128.8563560427
 20
-260.0350781227
 30
0.0
 11
-129.9178328008
 21
-258.3400067106
 31
0.0
  0
LINE
  5
6B6
330
1F
100
AcDbEntity
  8
0
  6
Continuous
 62
     7
370
    25
100
AcDbLine
 10
-149.6586616303
 20
-270.7019820456
 30
0.0
 11
-148.5971848723
 21
-272.3970534577
 31
0.0
  0
LINE
  5
6B7
330
1F
100
AcDbEntity
  8
0
  6
Continuous
 62
     7
370
    25
100
AcDbLine
 10
-148.5971848723
 20
-272.3970534577
 30
0.0
 11
-155.421194216
 21
-276.6703408623
 31
0.0
  0
LINE
  5
6B8
330
1F
100
AcDbEntity
  8
0
  6
Continuous
 62
     7
370
    25
100
AcDbLine
 10
-155.0620358295
 20
-276.4454309989
 30
0.0
 11
-156.1235125875
 21
-274.7503595868
 31
0.0
  0
LINE
  5
6B9
330
1F
100
AcDbEntity
  8
0
  6
Continuous
 62
     7
370
    25
100
AcDbLine
 10
-175.864341417
 20
-287.1123349218
 30
0.0
 11
-174.802864659
 21
-288.8074063339
 31
0.0
  0
LINE
  5
6BA
330
1F
100
AcDbEntity
  8
0
  6
Continuous
 62
     7
370
    25
100
AcDbLine
 10
-174.802864659
 20
-288.8074063339
 30
0.0
 11
-181.6268740027
 21
-293.0806937384
 31
0.0
  0
LINE
  5
6BB
330
1F
100
AcDbEntity
  8
0
  6
Continuous
 62
     7
370
    25
100
AcDbLine
 10
-181.2677156162
 20
-292.855783875
 30
0.0
 11
-182.3291923743
 21
-291.1607124629
 31
0.0
  0
LINE
  5
6BC
330
1F
100
AcDbEntity
  8
0
  6
Continuous
 62
     7
370
    25
100
AcDbLine
 10
-202.0700212038
 20
-303.5226877979
 30
0.0
 11
-201.0085444457
 21
-305.21775921
 31
0.0
  0
LINE
  5
6BD
330
1F
100
AcDbEntity
  8
0
  6
Continuous
 62
     7
370
    25
100
AcDbLine
 10
-201.0085444457
 20
-305.21775921
 30
0.0
 11
-207.8325537895
 21
-309.4910466146
 31
0.0
  0
LINE
  5
6BE
330
1F
100
AcDbEntity
  8
0
  6
Continuous
 62
     7
370
    25
100
AcDbLine
 10
-207.4733954029
 20
-309.2661367512
 30
0.0
 11
-208.534872161
 21
-307.5710653391
 31
0.0
  0
LINE
  5
6BF
330
1F
100
AcDbEntity
  8
0
  6
Continuous
 62
     7
370
    25
100
AcDbLine
 10
-261.8155413581
 20
-258.3437540895
 30
0.0
 11
-263.3080034363
 21
-259.2783541288
 31
0.0
  0
LINE
  5
6C0
330
1F
100
AcDbEntity
  8
0
  6
Continuous
 62
     7
370
    25
100
AcDbLine
 10
-267.923777419
 20
-217.9228910511
 30
0.0
 11
-251.7362568586
 21
-243.7727300855
 31
0.0
  0
LINE
  5
6C1
330
1F
100
AcDbEntity
  8
0
  6
Continuous
 62
     7
370
    25
100
AcDbLine
 10
-267.923777419
 20
-217.9228910511
 30
0.0
 11
-289.4732806098
 21
-231.417482855
 31
0.0
  0
LINE
  5
6C2
330
1F
100
AcDbEntity
  8
0
  6
Continuous
 62
     7
370
    25
100
AcDbLine
 10
-289.4732806098
 20
-231.417482855
 30
0.0
 11
-273.2857600494
 21
-257.2673218895
 31
0.0
  0
LINE
  5
6C3
330
1F
100
AcDbEntity
  8
0
  6
Continuous
 62
     7
370
    25
100
AcDbLine
 10
-217.6015681035
 20
-312.6301377186
 30
0.0
 11
-217.915455694
 21
-311.2177152757
 31
0.0
  0
LINE
  5
6C4
330
1F
100
AcDbEntity
  8
0
  6
Continuous
 62
     7
370
    25
100
AcDbLine
 10
-375.1329334783
 20
-60.1572468759
 30
0.0
 11
-376.2665505814
 21
-59.2581501958
 31
0.0
  0
LINE
  5
6C5
330
1F
100
AcDbEntity
  8
0
  6
Continuous
 62
     7
370
    25
100
AcDbLine
 10
-377.0403509039
 20
-58.9254515524
 30
0.0
 11
-378.1573867846
 21
-58.5302325879
 31
0.0
  0
LINE
  5
6C6
330
1F
100
AcDbEntity
  8
0
  6
Continuous
 62
     7
370
    25
100
AcDbLine
 10
-217.7723072209
 20
-314.6490418136
 30
0.0
 11
-217.6401264565
 21
-313.4715464063
 31
0.0
  0
LINE
  5
6C7
330
1F
100
AcDbEntity
  8
0
  6
Continuous
 62
     7
370
    25
100
AcDbLine
 10
-378.7142744481
 20
-58.3769454297
 30
0.0
 11
-379.6532406804
 21
-58.5681535415
 31
0.0
  0
LINE
  5
6C8
330
1F
100
AcDbEntity
  8
0
  6
Continuous
 62
     7
370
    25
100
AcDbLine
 10
-218.4595623978
 20
-315.9782134347
 30
0.0
 11
-217.8775598809
 21
-315.2169702423
 31
0.0
  0
LINE
  5
6C9
330
1F
100
AcDbEntity
  8
0
  6
Continuous
 62
     7
370
    25
100
AcDbLine
 10
-547.4741673154
 20
-218.9663150208
 30
0.0
 11
-547.4849707962
 21
-218.953984859
 31
0.0
  0
LINE
  5
6CA
330
1F
100
AcDbEntity
  8
0
  6
Continuous
 62
     7
370
    25
100
AcDbLine
 10
-547.4741673154
 20
-218.9663150208
 30
0.0
 11
-526.8803575941
 21
-214.7726567868
 31
0.0
  0
LINE
  5
6CB
330
1F
100
AcDbEntity
  8
0
  6
Continuous
 62
     7
370
    25
100
AcDbLine
 10
-436.0363230466
 20
-396.9213221476
 30
0.0
 11
-436.0299475088
 21
-396.9364251475
 31
0.0
  0
LINE
  5
6CC
330
1F
100
AcDbEntity
  8
0
  6
Continuous
 62
     7
370
    25
100
AcDbLine
 10
-423.2715944791
 20
-380.2254102883
 30
0.0
 11
-436.0363230466
 21
-396.9213221476
 31
0.0
  0
LINE
  5
6CD
330
1F
100
AcDbEntity
  8
0
  6
Continuous
 62
     7
370
    25
100
AcDbLine
 10
-339.077266146
 20
-162.1894129289
 30
0.0
 11
-355.2647867064
 21
-136.3395738945
 31
0.0
  0
LINE
  5
6CE
330
1F
100
AcDbEntity
  8
0
  6
Continuous
 62
     7
370
    25
100
AcDbLine
 10
-277.7769833681
 20
-260.0797869774
 30
0.0
 11
-293.9645039285
 21
-234.229947943
 31
0.0
  0
LINE
  5
6CF
330
1F
100
AcDbEntity
  8
0
  6
Continuous
 62
     7
370
    25
100
AcDbLine
 10
-296.6181958236
 20
-229.9922694127
 30
0.0
 11
-315.1940390897
 21
-200.3285197011
 31
0.0
  0
LINE
  5
6D0
330
1F
100
AcDbEntity
  8
0
  6
Continuous
 62
     7
370
    25
100
AcDbLine
 10
-317.8477309848
 20
-196.0908411708
 30
0.0
 11
-336.4235742509
 21
-166.4270914592
 31
0.0
  0
LINE
  5
6D1
330
1F
100
AcDbEntity
  8
0
  6
Continuous
 62
     7
370
    25
100
AcDbLine
 10
-216.9768377314
 20
-312.8575389244
 30
0.0
 11
-217.8669019386
 21
-311.4361960819
 31
0.0
  0
LINE
  5
6D2
330
1F
100
AcDbEntity
  8
0
  6
Continuous
 62
     7
370
    25
100
AcDbLine
 10
-375.308287233
 20
-60.0181699527
 30
0.0
 11
-376.1983514402
 21
-58.5968271102
 31
0.0
  0
LINE
  5
6D3
330
1F
100
AcDbEntity
  8
0
  6
Continuous
 62
     7
370
    25
100
AcDbLine
 10
-311.282487195
 20
-150.6834010213
 30
0.0
 11
-292.7066439289
 21
-180.3471507329
 31
0.0
  0
LINE
  5
6D4
330
1F
100
AcDbEntity
  8
0
  6
Continuous
 62
     7
370
    25
100
AcDbLine
 10
-268.8234168726
 20
-218.486257505
 30
0.0
 11
-252.6358963122
 21
-244.3360965395
 31
0.0
  0
LINE
  5
6D5
330
1F
100
AcDbEntity
  8
0
  6
Continuous
 62
     7
370
    25
100
AcDbLine
 10
-290.0529520338
 20
-184.5848292632
 30
0.0
 11
-271.4771087678
 21
-214.2485789748
 31
0.0
  0
LINE
  5
6D6
330
1F
100
AcDbEntity
  8
0
  6
Continuous
 62
     7
370
    25
100
AcDbLine
 10
-330.1236996505
 20
-120.5958834566
 30
0.0
 11
-313.9361790901
 21
-146.445722491
 31
0.0
  0
LINE
  5
6D7
330
1F
100
AcDbEntity
  8
0
  6
Continuous
 62
     7
370
    25
100
AcDbLine
 10
-186.5733715086
 20
62.5086953357
 30
0.0
 11
-185.5118947506
 21
60.8136239236
 31
0.0
  0
LINE
  5
6D8
330
1F
100
AcDbEntity
  8
0
  6
Continuous
 62
     7
370
    25
100
AcDbLine
 10
-181.9715638113
 20
65.3904098646
 30
0.0
 11
-186.6471353393
 21
62.4625034223
 31
0.0
  0
LINE
  5
6D9
330
1F
100
AcDbEntity
  8
0
  6
Continuous
 62
     7
370
    25
100
AcDbLine
 10
-180.9100870533
 20
63.6953384525
 30
0.0
 11
-181.9715638113
 21
65.3904098646
 31
0.0
  0
LINE
  5
6DA
330
1F
100
AcDbEntity
  8
0
  6
Continuous
 62
     7
370
    25
100
AcDbLine
 10
-21.6885733444
 20
-190.5653733617
 30
0.0
 11
-20.6270965863
 21
-192.2604447738
 31
0.0
  0
LINE
  5
6DB
330
1F
100
AcDbEntity
  8
0
  6
Continuous
 62
     7
370
    25
100
AcDbLine
 10
-20.6270965863
 20
-192.2604447738
 30
0.0
 11
-25.3026681143
 21
-195.1883512161
 31
0.0
  0
LINE
  5
6DC
330
1F
100
AcDbEntity
  8
0
  6
Continuous
 62
     7
370
    25
100
AcDbLine
 10
-25.2289042836
 20
-195.1421593027
 30
0.0
 11
-26.2903810417
 21
-193.4470878906
 31
0.0
  0
LINE
  5
6DD
330
1F
100
AcDbEntity
  8
0
  6
Continuous
 62
     7
370
    25
100
AcDbLine
 10
-394.0682571663
 20
-137.041008664
 30
0.0
 11
-295.3509186668
 21
-294.6826499888
 31
0.0
  0
LINE
  5
6DE
330
1F
100
AcDbEntity
  8
0
  6
Continuous
 62
     7
370
    25
100
AcDbLine
 10
-395.8675360735
 20
-138.1677415719
 30
0.0
 11
-297.150197574
 21
-295.8093828967
 31
0.0
  0
LINE
  5
6DF
330
1F
100
AcDbEntity
  8
0
  6
Continuous
 62
     7
370
    25
100
AcDbLine
 10
-153.6825303661
 20
-182.3701537868
 30
0.0
 11
-143.0677627855
 21
-199.3208679078
 31
0.0
  0
LINE
  5
6E0
330
1F
100
AcDbEntity
  8
0
  6
Continuous
 62
     7
370
    25
100
AcDbLine
 10
-241.785101285
 20
-41.679226583
 30
0.0
 11
-231.1703337044
 21
-58.6299407039
 31
0.0
  0
LINE
  5
6E1
330
1F
100
AcDbEntity
  8
0
  6
Continuous
 62
     7
370
    25
100
AcDbLine
 10
-239.869211539
 20
-48.7387094332
 30
0.0
 11
-238.0699326318
 21
-47.6119765253
 31
0.0
  0
LINE
  5
6E2
330
1F
100
AcDbEntity
  8
0
  6
Continuous
 62
     7
370
    25
100
AcDbLine
 10
-243.5843801922
 20
-42.8059594909
 30
0.0
 11
-239.869211539
 21
-48.7387094332
 31
0.0
  0
LINE
  5
6E3
330
1F
100
AcDbEntity
  8
0
  6
Continuous
 62
     7
370
    25
100
AcDbLine
 10
-148.5822103459
 20
-194.5148508733
 30
0.0
 11
-144.8670416927
 21
-200.4476008157
 31
0.0
  0
LINE
  5
6E4
330
1F
100
AcDbEntity
  8
0
  6
Continuous
 62
     7
370
    25
100
AcDbLine
 10
-148.5822103459
 20
-194.5148508733
 30
0.0
 11
-146.7829314387
 21
-193.3881179654
 31
0.0
  0
LINE
  5
6E5
330
1F
100
AcDbEntity
  8
0
  6
Continuous
 62
     7
370
    25
100
AcDbLine
 10
-84.3614747945
 20
-138.96036656
 30
0.0
 11
-153.6825303661
 21
-182.3701537868
 31
0.0
  0
LINE
  5
6E6
330
1F
100
AcDbEntity
  8
0
  6
Continuous
 62
     7
370
    25
100
AcDbLine
 10
-161.8492781328
 20
-15.2201534771
 30
0.0
 11
-84.3614747945
 21
-138.96036656
 31
0.0
  0
LINE
  5
6E7
330
1F
100
AcDbEntity
  8
0
  6
Continuous
 62
     7
370
    25
100
AcDbLine
 10
-239.9858223778
 20
-40.5524936751
 30
0.0
 11
-229.3710547972
 21
-57.503207796
 31
0.0
  0
LINE
  5
6E8
330
1F
100
AcDbEntity
  8
0
  6
Continuous
 62
     7
370
    25
100
AcDbLine
 10
-158.0977102529
 20
10.7269551798
 30
0.0
 11
-243.5843801922
 21
-42.8059594909
 31
0.0
  0
LINE
  5
6E9
330
1F
100
AcDbEntity
  8
0
  6
Continuous
 62
     7
370
    25
100
AcDbLine
 10
-59.3803717534
 20
-146.914686145
 30
0.0
 11
-158.0977102529
 21
10.7269551798
 31
0.0
  0
LINE
  5
6EA
330
1F
100
AcDbEntity
  8
0
  6
Continuous
 62
     7
370
    25
100
AcDbLine
 10
-144.8670416927
 20
-200.4476008157
 30
0.0
 11
-59.3803717534
 21
-146.914686145
 31
0.0
  0
LINE
  5
6EB
330
1F
100
AcDbEntity
  8
0
  6
Continuous
 62
     7
370
    25
100
AcDbLine
 10
-151.8832514589
 20
-181.2434208789
 30
0.0
 11
-141.2684838783
 21
-198.1941349999
 31
0.0
  0
LINE
  5
6EC
330
1F
100
AcDbEntity
  8
0
  6
Continuous
 62
     7
370
    25
100
AcDbLine
 10
-231.1703337044
 20
-58.6299407039
 30
0.0
 11
-161.8492781328
 21
-15.2201534771
 31
0.0
  0
LINE
  5
6ED
330
1F
100
AcDbEntity
  8
0
  6
Continuous
 62
     7
370
    25
100
AcDbLine
 10
-163.64855704
 20
-16.346886385
 30
0.0
 11
-86.1607537017
 21
-140.0870994679
 31
0.0
  0
LINE
  5
6EE
330
1F
100
AcDbEntity
  8
0
  6
Continuous
 62
     7
370
    25
100
AcDbLine
 10
-211.6635276347
 20
-242.276468226
 30
0.0
 11
-297.150197574
 21
-295.8093828967
 31
0.0
  0
LINE
  5
6EF
330
1F
100
AcDbEntity
  8
0
  6
Continuous
 62
     7
370
    25
100
AcDbLine
 10
-293.5516397596
 20
-293.5559170809
 30
0.0
 11
-392.2689782591
 21
-135.9142757561
 31
0.0
  0
LINE
  5
6F0
330
1F
100
AcDbEntity
  8
0
  6
Continuous
 62
     7
370
    25
100
AcDbLine
 10
-395.8675360735
 20
-138.1677415719
 30
0.0
 11
-310.3808661342
 21
-84.6348269012
 31
0.0
  0
LINE
  5
6F1
330
1F
100
AcDbEntity
  8
0
  6
Continuous
 62
     7
370
    25
100
AcDbLine
 10
-310.3808661342
 20
-84.6348269012
 30
0.0
 11
-299.7660985537
 21
-101.5855410221
 31
0.0
  0
LINE
  5
6F2
330
1F
100
AcDbEntity
  8
0
  6
Continuous
 62
     7
370
    25
100
AcDbLine
 10
-299.7660985537
 20
-101.5855410221
 30
0.0
 11
-367.287875218
 21
-143.8685953411
 31
0.0
  0
LINE
  5
6F3
330
1F
100
AcDbEntity
  8
0
  6
Continuous
 62
     7
370
    25
100
AcDbLine
 10
-367.287875218
 20
-143.8685953411
 30
0.0
 11
-289.8000718797
 21
-267.608808424
 31
0.0
  0
LINE
  5
6F4
330
1F
100
AcDbEntity
  8
0
  6
Continuous
 62
     7
370
    25
100
AcDbLine
 10
-289.8000718797
 20
-267.608808424
 30
0.0
 11
-222.2782952153
 21
-225.325754105
 31
0.0
  0
LINE
  5
6F5
330
1F
100
AcDbEntity
  8
0
  6
Continuous
 62
     7
370
    25
100
AcDbLine
 10
-222.2782952153
 20
-225.325754105
 30
0.0
 11
-211.6635276347
 21
-242.276468226
 31
0.0
  0
LINE
  5
6F6
330
1F
100
AcDbEntity
  8
0
  6
Continuous
 62
     7
370
    25
100
AcDbLine
 10
210.102096529
 20
59.7284350003
 30
0.0
 11
126.7773508581
 21
7.5493466918
 31
0.0
  0
LINE
  5
6F7
330
1F
100
AcDbEntity
  8
0
  6
Continuous
 62
     7
370
    25
100
AcDbLine
 10
209.0755095104
 20
57.3677910145
 30
0.0
 11
210.102096529
 21
59.7284350003
 31
0.0
  0
LINE
  5
6F8
330
1F
100
AcDbEntity
  8
0
  6
Continuous
 62
     7
370
    25
100
AcDbLine
 10
210.102096529
 20
59.7284350003
 30
0.0
 11
207.4917831459
 21
62.5287618449
 31
0.0
  0
LINE
  5
6F9
330
1F
100
AcDbEntity
  8
0
  6
Continuous
 62
     7
370
    25
100
AcDbLine
 10
207.4917831459
 20
62.5287618449
 30
0.0
 11
124.7824271047
 21
10.7350388871
 31
0.0
  0
LINE
  5
6FA
330
1F
100
AcDbEntity
  8
0
  6
Continuous
 62
     7
370
    25
100
AcDbLine
 10
107.4213589357
 20
-24.5512666173
 30
0.0
 11
110.001541666
 21
-27.319269498
 31
0.0
  0
LINE
  5
6FB
330
1F
100
AcDbEntity
  8
0
  6
Continuous
 62
     7
370
    25
100
AcDbLine
 10
112.0034277488
 20
-14.014767528
 30
0.0
 11
107.4213589357
 21
-24.5512666173
 31
0.0
  0
LINE
  5
6FC
330
1F
100
AcDbEntity
  8
0
  6
Continuous
 62
     7
370
    25
100
AcDbLine
 10
95.3629058611
 20
-52.2797632894
 30
0.0
 11
97.9430885915
 21
-55.0477661701
 31
0.0
  0
LINE
  5
6FD
330
1F
100
AcDbEntity
  8
0
  6
Continuous
 62
     7
370
    25
100
AcDbLine
 10
99.9449746743
 20
-41.7432642002
 30
0.0
 11
95.3629058611
 21
-52.2797632894
 31
0.0
  0
LINE
  5
6FE
330
1F
100
AcDbEntity
  8
0
  6
Continuous
 62
     7
370
    25
100
AcDbLine
 10
83.3044527866
 20
-80.0082599616
 30
0.0
 11
85.8846355169
 21
-82.7762628423
 31
0.0
  0
LINE
  5
6FF
330
1F
100
AcDbEntity
  8
0
  6
Continuous
 62
     7
370
    25
100
AcDbLine
 10
87.8865215997
 20
-69.4717608724
 30
0.0
 11
83.3044527866
 21
-80.0082599616
 31
0.0
  0
LINE
  5
700
330
1F
100
AcDbEntity
  8
0
  6
Continuous
 62
     7
370
    25
100
AcDbLine
 10
147.1503637471
 20
160.2560082798
 30
0.0
 11
63.8256180762
 21
108.0769199713
 31
0.0
  0
LINE
  5
701
330
1F
100
AcDbEntity
  8
0
  6
Continuous
 62
     7
370
    25
100
AcDbLine
 10
138.5815213971
 20
114.1838331249
 30
0.0
 11
147.1503637471
 21
160.2560082798
 31
0.0
  0
LINE
  5
702
330
1F
100
AcDbEntity
  8
0
  6
Continuous
 62
     7
370
    25
100
AcDbLine
 10
139.933667192
 20
115.0305652004
 30
0.0
 11
138.5815213971
 21
114.1838331249
 31
0.0
  0
LINE
  5
703
330
1F
100
AcDbEntity
  8
0
  6
Continuous
 62
     7
370
    25
100
AcDbLine
 10
141.0074601793
 20
113.5779577065
 30
0.0
 11
138.2259493428
 21
98.6225822636
 31
0.0
  0
LINE
  5
704
330
1F
100
AcDbEntity
  8
0
  6
Continuous
 62
     7
370
    25
100
AcDbLine
 10
138.2259493428
 20
98.6225822636
 30
0.0
 11
89.0356910801
 21
67.8189739341
 31
0.0
  0
LINE
  5
705
330
1F
100
AcDbEntity
  8
0
  6
Continuous
 62
     7
370
    25
100
AcDbLine
 10
144.4121926175
 20
162.6285916341
 30
0.0
 11
61.9870864002
 21
111.0128697795
 31
0.0
  0
LINE
  5
706
330
1F
100
AcDbEntity
  8
0
  6
Continuous
 62
     7
370
    25
100
AcDbLine
 10
147.1503637471
 20
160.2560082798
 30
0.0
 11
144.4121926175
 21
162.6285916341
 31
0.0
  0
LINE
  5
707
330
1F
100
AcDbEntity
  8
0
  6
Continuous
 62
     7
370
    25
100
AcDbLine
 10
53.9029587264
 20
82.0576804673
 30
0.0
 11
56.4368283279
 21
79.8621212587
 31
0.0
  0
LINE
  5
708
330
1F
100
AcDbEntity
  8
0
  6
Continuous
 62
     7
370
    25
100
AcDbLine
 10
56.2770303535
 20
94.8223736854
 30
0.0
 11
53.9029587264
 21
82.0576804673
 31
0.0
  0
LINE
  5
709
330
1F
100
AcDbEntity
  8
0
  6
Continuous
 62
     7
370
    25
100
AcDbLine
 10
48.9355138858
 20
55.3491731312
 30
0.0
 11
51.4693834873
 21
53.1536139225
 31
0.0
  0
LINE
  5
70A
330
1F
100
AcDbEntity
  8
0
  6
Continuous
 62
     7
370
    25
100
AcDbLine
 10
51.3095855129
 20
68.1138663493
 30
0.0
 11
48.9355138858
 21
55.3491731312
 31
0.0
  0
LINE
  5
70B
330
1F
100
AcDbEntity
  8
0
  6
Continuous
 62
     7
370
    25
100
AcDbLine
 10
-54.4681124496
 20
73.2203966249
 30
0.0
 11
42.0893525261
 21
-80.972144344
 31
0.0
  0
LINE
  5
70C
330
1F
100
AcDbEntity
  8
0
  6
Continuous
 62
     7
370
    25
100
AcDbLine
 10
123.7907370237
 20
151.0775769608
 30
0.0
 11
124.5995153157
 21
150.2216238091
 31
0.0
  0
LINE
  5
70D
330
1F
100
AcDbEntity
  8
0
  6
Continuous
 62
     7
370
    25
100
AcDbLine
 10
133.9928964511
 20
187.6547545045
 30
0.0
 11
131.119629359
 21
185.8554755973
 31
0.0
  0
LINE
  5
70E
330
1F
100
AcDbEntity
  8
0
  6
Continuous
 62
     7
370
    25
100
AcDbLine
 10
128.5844400864
 20
188.4394512873
 30
0.0
 11
131.4577071785
 21
190.2387301945
 31
0.0
  0
LINE
  5
70F
330
1F
100
AcDbEntity
  8
0
  6
Continuous
 62
     7
370
    25
100
AcDbLine
 10
224.4541472377
 20
36.8096563492
 30
0.0
 11
227.3274143298
 21
38.6089352564
 31
0.0
  0
LINE
  5
710
330
1F
100
AcDbEntity
  8
0
  6
Continuous
 62
     7
370
    25
100
AcDbLine
 10
133.9928964511
 20
187.6547545045
 30
0.0
 11
227.3274143298
 21
38.6089352564
 31
0.0
  0
LINE
  5
711
330
1F
100
AcDbEntity
  8
0
  6
Continuous
 62
     7
370
    25
100
AcDbLine
 10
228.5451121257
 20
35.199928496
 30
0.0
 11
225.6718450336
 21
33.4006495888
 31
0.0
  0
LINE
  5
712
330
1F
100
AcDbEntity
  8
0
  6
Continuous
 62
     7
370
    25
100
AcDbLine
 10
11.7599321487
 20
259.3129465389
 30
0.0
 11
8.8866650566
 21
257.5136676317
 31
0.0
  0
LINE
  5
713
330
1F
100
AcDbEntity
  8
0
  6
Continuous
 62
     7
370
    25
100
AcDbLine
 10
11.7599321487
 20
259.3129465389
 30
0.0
 11
131.4577071785
 21
190.2387301945
 31
0.0
  0
LINE
  5
714
330
1F
100
AcDbEntity
  8
0
  6
Continuous
 62
     7
370
    25
100
AcDbLine
 10
228.5451121257
 20
35.199928496
 30
0.0
 11
230.9092095203
 21
2.2089744466
 31
0.0
  0
LINE
  5
715
330
1F
100
AcDbEntity
  8
0
  6
Continuous
 62
     7
370
    25
100
AcDbLine
 10
236.2206783194
 20
-71.9125162681
 30
0.0
 11
238.4229384096
 21
-102.6450324514
 31
0.0
  0
LINE
  5
716
330
1F
100
AcDbEntity
  8
0
  6
Continuous
 62
     7
370
    25
100
AcDbLine
 10
235.5496713175
 20
-104.4443113586
 30
0.0
 11
238.4229384096
 21
-102.6450324514
 31
0.0
  0
LINE
  5
717
330
1F
100
AcDbEntity
  8
0
  6
Continuous
 62
     7
370
    25
100
AcDbLine
 10
-379.2157682023
 20
-51.0472441567
 30
0.0
 11
-377.0928146861
 21
-54.4373869809
 31
0.0
  0
LINE
  5
718
330
1F
100
AcDbEntity
  8
0
  6
Continuous
 62
     7
370
    25
100
AcDbLine
 10
-263.1714030413
 20
21.6213146091
 30
0.0
 11
-261.0484495252
 21
18.2311717849
 31
0.0
  0
LINE
  5
719
330
1F
100
AcDbEntity
  8
0
  6
Continuous
 62
     7
370
    25
100
AcDbLine
 10
-263.1714030413
 20
21.6213146091
 30
0.0
 11
-420.9206106005
 21
-77.1633833284
 31
0.0
  0
LINE
  5
71A
330
1F
100
AcDbEntity
  8
0
  6
Continuous
 62
     7
370
    25
100
AcDbLine
 10
-420.9206106005
 20
-77.1633833284
 30
0.0
 11
-418.7976570844
 21
-80.5535261526
 31
0.0
  0
LINE
  5
71B
330
1F
100
AcDbEntity
  8
0
  6
Continuous
 62
     7
370
    25
100
AcDbLine
 10
-95.458075268
 20
-246.1999685018
 30
0.0
 11
-97.5810287841
 21
-242.8098256776
 31
0.0
  0
LINE
  5
71C
330
1F
100
AcDbEntity
  8
0
  6
Continuous
 62
     7
370
    25
100
AcDbLine
 10
-211.5024404289
 20
-318.8685272677
 30
0.0
 11
-213.625393945
 21
-315.4783844435
 31
0.0
  0
LINE
  5
71D
330
1F
100
AcDbEntity
  8
0
  6
Continuous
 62
     7
370
    25
100
AcDbLine
 10
-95.458075268
 20
-246.1999685018
 30
0.0
 11
-253.2072828271
 21
-344.9846664393
 31
0.0
  0
LINE
  5
71E
330
1F
100
AcDbEntity
  8
0
  6
Continuous
 62
     7
370
    25
100
AcDbLine
 10
-253.2072828271
 20
-344.9846664393
 30
0.0
 11
-255.3302363432
 21
-341.5945236152
 31
0.0
  0
LINE
  5
71F
330
1F
100
AcDbEntity
  8
0
  6
Continuous
 62
     7
370
    25
100
AcDbLine
 10
199.229537318
 20
-58.9847273079
 30
0.0
 11
250.4113508833
 21
-26.9339799782
 31
0.0
  0
LINE
  5
720
330
1F
100
AcDbEntity
  8
0
  6
Continuous
 62
     7
370
    25
100
AcDbLine
 10
200.1291767716
 20
-58.421360854
 30
0.0
 11
181.5266748621
 21
-28.7150399753
 31
0.0
  0
LINE
  5
721
330
1F
100
AcDbEntity
  8
0
  6
Continuous
 62
     7
370
    25
100
AcDbLine
 10
180.6270354085
 20
-29.2784064292
 30
0.0
 11
231.8088489739
 21
2.7723409005
 31
0.0
  0
LINE
  5
722
330
1F
100
AcDbEntity
  8
0
  6
Continuous
 62
     7
370
    25
100
AcDbLine
 10
250.4113508833
 20
-26.9339799782
 30
0.0
 11
231.8088489739
 21
2.7723409005
 31
0.0
  0
LINE
  5
723
330
1F
100
AcDbEntity
  8
0
  6
Continuous
 62
     7
370
    25
100
AcDbLine
 10
200.7956471292
 20
-60.2871784341
 30
0.0
 11
251.077821241
 21
-28.7997975583
 31
0.0
  0
LINE
  5
724
330
1F
100
AcDbEntity
  8
0
  6
Continuous
 62
     7
370
    25
100
AcDbLine
 10
199.229537318
 20
-58.9847273079
 30
0.0
 11
180.6270354085
 21
-29.2784064292
 31
0.0
  0
LINE
  5
725
330
1F
100
AcDbEntity
  8
0
  6
Continuous
 62
     7
370
    25
100
AcDbLine
 10
200.7956471292
 20
-60.2871784341
 30
0.0
 11
199.4089285573
 21
-59.4869421839
 31
0.0
  0
LINE
  5
726
330
1F
100
AcDbEntity
  8
0
  6
Continuous
 62
     7
370
    25
100
AcDbLine
 10
203.0494566253
 20
-91.7390660286
 30
0.0
 11
200.7956471292
 21
-60.2871784341
 31
0.0
  0
LINE
  5
727
330
1F
100
AcDbEntity
  8
0
  6
Continuous
 62
     7
370
    25
100
AcDbLine
 10
201.6627380533
 20
-90.9388297784
 30
0.0
 11
203.0494566253
 21
-91.7390660286
 31
0.0
  0
LINE
  5
728
330
1F
100
AcDbEntity
  8
0
  6
Continuous
 62
     7
370
    25
100
AcDbLine
 10
201.6627380533
 20
-90.9388297784
 30
0.0
 11
199.4089285573
 21
-59.4869421839
 31
0.0
  0
LINE
  5
729
330
1F
100
AcDbEntity
  8
0
  6
Continuous
 62
     7
370
    25
100
AcDbLine
 10
203.0494566253
 20
-91.7390660286
 30
0.0
 11
253.331630737
 21
-60.2516851528
 31
0.0
  0
LINE
  5
72A
330
1F
100
AcDbEntity
  8
0
  6
Continuous
 62
     7
370
    25
100
AcDbLine
 10
253.331630737
 20
-60.2516851528
 30
0.0
 11
251.077821241
 21
-28.7997975583
 31
0.0
  0
LINE
  5
72B
330
1F
100
AcDbEntity
  8
0
  6
Continuous
 62
     7
370
    25
100
AcDbLine
 10
241.7849770209
 20
-47.281416714
 30
0.0
 11
246.4614153411
 21
-40.8923315644
 31
0.0
  0
LINE
  5
72C
330
1F
100
AcDbEntity
  8
0
  6
Continuous
 62
     7
370
    25
100
AcDbLine
 10
239.4749902087
 20
-39.438110194
 30
0.0
 11
244.8092423514
 21
-35.941666873
 31
0.0
  0
LINE
  5
72D
330
1F
100
AcDbEntity
  8
0
  6
Continuous
 62
     7
370
    25
100
AcDbLine
 10
241.2662230381
 20
-64.4347453148
 30
0.0
 11
246.6218811134
 21
-61.2370215575
 31
0.0
  0
LINE
  5
72E
330
1F
100
AcDbEntity
  8
0
  6
Continuous
 62
     7
370
    25
100
AcDbLine
 10
242.3019869107
 20
-54.4962842397
 30
0.0
 11
247.4530960679
 21
-54.7312255806
 31
0.0
  0
LINE
  5
72F
330
1F
100
AcDbEntity
  8
0
  6
Continuous
 62
     7
370
    25
100
AcDbLine
 10
186.8381436612
 20
-102.8365306899
 30
0.0
 11
252.8866023631
 21
-61.4760881048
 31
0.0
  0
LINE
  5
730
330
1F
100
AcDbEntity
  8
0
  6
Continuous
 62
     7
370
    25
100
AcDbLine
 10
202.6044282513
 20
-92.9634689806
 30
0.0
 11
201.5429514932
 21
-91.2683975685
 31
0.0
  0
LINE
  5
731
330
1F
100
AcDbEntity
  8
0
  6
Continuous
 62
     7
370
    25
100
AcDbLine
 10
185.7766669032
 20
-101.1414592778
 30
0.0
 11
186.8381436612
 21
-102.8365306899
 31
0.0
  0
LINE
  5
732
330
1F
100
AcDbEntity
  8
0
  6
Continuous
 62
     7
370
    25
100
AcDbLine
 10
185.7766669032
 20
-101.1414592778
 30
0.0
 11
201.5429514932
 21
-91.2683975685
 31
0.0
  0
LINE
  5
733
330
1F
100
AcDbEntity
  8
0
  6
Continuous
 62
     7
370
    25
100
AcDbLine
 10
238.7972513938
 20
-47.7771010142
 30
0.0
 11
240.1839699657
 21
-48.5773372644
 31
0.0
  0
LINE
  5
734
330
1F
100
AcDbEntity
  8
0
  6
Continuous
 62
     7
370
    25
100
AcDbLine
 10
245.3202635355
 20
-39.7227397549
 30
0.0
 11
246.7069821075
 21
-40.5229760051
 31
0.0
  0
LINE
  5
735
330
1F
100
AcDbEntity
  8
0
  6
Continuous
 62
     7
370
    25
100
AcDbLine
 10
245.0746967692
 20
-40.0920953142
 30
0.0
 11
246.4614153411
 21
-40.8923315644
 31
0.0
  0
LINE
  5
736
330
1F
100
AcDbEntity
  8
0
  6
Continuous
 62
     7
370
    25
100
AcDbLine
 10
240.3982584489
 20
-46.4811804638
 30
0.0
 11
241.7849770209
 21
-47.281416714
 31
0.0
  0
LINE
  5
737
330
1F
100
AcDbEntity
  8
0
  6
Continuous
 62
     7
370
    25
100
AcDbLine
 10
240.3982584489
 20
-46.4811804638
 30
0.0
 11
245.0746967692
 21
-40.0920953142
 31
0.0
  0
LINE
  5
738
330
1F
100
AcDbEntity
  8
0
  6
Continuous
 62
     7
370
    25
100
AcDbLine
 10
238.9086824861
 20
-63.9542505519
 30
0.0
 11
240.2954010581
 21
-64.7544868021
 31
0.0
  0
LINE
  5
739
330
1F
100
AcDbEntity
  8
0
  6
Continuous
 62
     7
370
    25
100
AcDbLine
 10
238.385144435
 20
-63.9240596933
 30
0.0
 11
238.9086824861
 21
-63.9542505519
 31
0.0
  0
LINE
  5
73A
330
1F
100
AcDbEntity
  8
0
  6
Continuous
 62
     7
370
    25
100
AcDbLine
 10
239.8795044661
 20
-63.6345090646
 30
0.0
 11
241.2662230381
 21
-64.4347453148
 31
0.0
  0
LINE
  5
73B
330
1F
100
AcDbEntity
  8
0
  6
Continuous
 62
     7
370
    25
100
AcDbLine
 10
245.2351625415
 20
-60.4367853073
 30
0.0
 11
246.6218811134
 21
-61.2370215575
 31
0.0
  0
LINE
  5
73C
330
1F
100
AcDbEntity
  8
0
  6
Continuous
 62
     7
370
    25
100
AcDbLine
 10
239.8795044661
 20
-63.6345090646
 30
0.0
 11
245.2351625415
 21
-60.4367853073
 31
0.0
  0
LINE
  5
73D
330
1F
100
AcDbEntity
  8
0
  6
Continuous
 62
     7
370
    25
100
AcDbLine
 10
246.4290246537
 20
-59.2911767198
 30
0.0
 11
247.8157432257
 21
-60.09141297
 31
0.0
  0
LINE
  5
73E
330
1F
100
AcDbEntity
  8
0
  6
Continuous
 62
     7
370
    25
100
AcDbLine
 10
-445.607164113
 20
-361.637653468
 30
0.0
 11
-519.9105371771
 21
-242.9826546214
 31
0.0
  0
LINE
  5
73F
330
1F
100
AcDbEntity
  8
0
  6
Continuous
 62
     7
370
    25
100
AcDbLine
 10
-437.3297362186
 20
-394.8558716559
 30
0.0
 11
-546.1807541433
 21
-221.0317655126
 31
0.0
  0
LINE
  5
740
330
1F
100
AcDbEntity
  8
0
  6
Continuous
 62
     7
370
    25
100
AcDbLine
 10
-442.8888979743
 20
-359.5908536586
 30
0.0
 11
-516.8822691316
 21
-241.4308966165
 31
0.0
  0
LINE
  5
741
330
1F
100
AcDbEntity
  8
0
  6
Continuous
 62
     7
370
    25
100
AcDbLine
 10
-45.6201434093
 20
78.908734156
 30
0.0
 11
-44.3765495016
 21
78.1060450648
 31
0.0
  0
LINE
  5
742
330
1F
100
AcDbEntity
  8
0
  6
Continuous
 62
     7
370
    25
100
AcDbLine
 10
-403.3985736861
 20
-387.968660069
 30
0.0
 11
-250.4000314569
 21
-336.0930147031
 31
0.0
  0
LINE
  5
743
330
1F
100
AcDbEntity
  8
0
  6
Continuous
 62
     7
370
    25
100
AcDbLine
 10
-411.6955897705
 20
-78.5202626674
 30
0.0
 11
-525.1692630564
 21
-193.5131406095
 31
0.0
  0
LINE
  5
744
330
1F
100
AcDbEntity
  8
0
  6
Continuous
 62
     7
370
    25
100
AcDbLine
 10
-436.0306829774
 20
-396.9412129879
 30
0.0
 11
-436.1042115436
 21
-396.9661435642
 31
0.0
  0
LINE
  5
745
330
1F
100
AcDbEntity
  8
0
  6
Continuous
 62
     7
370
    25
100
AcDbLine
 10
-547.5441328253
 20
-219.0078196571
 30
0.0
 11
-547.4895904082
 21
-218.9525470169
 31
0.0
  0
LINE
  5
746
330
1F
100
AcDbEntity
  8
0
  6
Continuous
 62
     7
370
    25
100
AcDbLine
 10
-561.3654128254
 20
-237.1876594483
 30
0.0
 11
-546.0381616686
 21
-221.2594713249
 31
0.0
  0
LINE
  5
747
330
1F
100
AcDbEntity
  8
0
  6
Continuous
 62
     7
370
    25
100
AcDbLine
 10
-437.4723286934
 20
-394.6281658435
 30
0.0
 11
-458.4943471772
 21
-401.4623844368
 31
0.0
  0
LINE
  5
748
330
1F
100
AcDbEntity
  8
0
  6
Continuous
 62
     7
370
    25
100
AcDbLine
 10
-538.040353109
 20
-234.0311656139
 30
0.0
 11
-564.5789496644
 21
-265.814554497
 31
0.0
  0
LINE
  5
749
330
1F
100
AcDbEntity
  8
0
  6
Continuous
 62
     7
370
    25
100
AcDbLine
 10
-485.6513693823
 20
-391.8539462653
 30
0.0
 11
-445.470137253
 21
-381.8564715545
 31
0.0
  0
LINE
  5
74A
330
1F
100
AcDbEntity
  8
0
  6
Continuous
 62
     7
370
    25
100
AcDbLine
 10
-445.5893308631
 20
-381.666131371
 30
0.0
 11
-485.9184412846
 21
-391.7003996147
 31
0.0
  0
LINE
  5
74B
330
1F
100
AcDbEntity
  8
0
  6
Continuous
 62
     7
370
    25
100
AcDbLine
 10
-564.5574255913
 20
-266.1218665357
 30
0.0
 11
-537.9211594989
 21
-234.2215057974
 31
0.0
  0
LINE
  5
74C
330
1F
100
AcDbEntity
  8
0
  6
Continuous
 62
     7
370
    25
100
AcDbLine
 10
-513.9582597962
 20
-369.4614022792
 30
0.0
 11
-458.1399463428
 21
-361.6240632405
 31
0.0
  0
LINE
  5
74D
330
1F
100
AcDbEntity
  8
0
  6
Continuous
 62
     7
370
    25
100
AcDbLine
 10
-442.9511552222
 20
-359.4914351076
 30
0.0
 11
-442.7472867832
 21
-359.4628103431
 31
0.0
  0
LINE
  5
74E
330
1F
100
AcDbEntity
  8
0
  6
Continuous
 62
     7
370
    25
100
AcDbLine
 10
-516.7052441168
 20
-241.3594056088
 30
0.0
 11
-516.8200118837
 21
-241.5303151674
 31
0.0
  0
LINE
  5
74F
330
1F
100
AcDbEntity
  8
0
  6
Continuous
 62
     7
370
    25
100
AcDbLine
 10
-525.3705440192
 20
-254.2635739279
 30
0.0
 11
-556.7934715673
 21
-301.0578858076
 31
0.0
  0
LINE
  5
750
330
1F
100
AcDbEntity
  8
0
  6
Continuous
 62
     7
370
    25
100
AcDbLine
 10
-442.3718908602
 20
-359.1114400368
 30
0.0
 11
-443.1230659233
 21
-359.2169110423
 31
0.0
  0
LINE
  5
751
330
1F
100
AcDbEntity
  8
0
  6
Continuous
 62
     7
370
    25
100
AcDbLine
 10
-458.3118570439
 20
-361.3495391752
 30
0.0
 11
-514.2180177835
 21
-369.1992126777
 31
0.0
  0
LINE
  5
752
330
1F
100
AcDbEntity
  8
0
  6
Continuous
 62
     7
370
    25
100
AcDbLine
 10
-556.6710145085
 20
-301.4060551168
 30
0.0
 11
-525.1986333181
 21
-254.5380979932
 31
0.0
  0
LINE
  5
753
330
1F
100
AcDbEntity
  8
0
  6
Continuous
 62
     7
370
    25
100
AcDbLine
 10
-516.6481011826
 20
-241.8048392328
 30
0.0
 11
-516.2252270733
 21
-241.1751046886
 31
0.0
  0
LINE
  5
754
330
1F
100
AcDbEntity
  8
0
  6
Continuous
 62
     7
370
    25
100
AcDbLine
 10
-457.7469792739
 20
-335.863995149
 30
0.0
 11
-434.0611522898
 21
-335.3527621568
 31
0.0
  0
LINE
  5
755
330
1F
100
AcDbEntity
  8
0
  6
Continuous
 62
     7
370
    25
100
AcDbLine
 10
-491.222235835
 20
-244.0722721544
 30
0.0
 11
-502.024187832
 21
-265.157755126
 31
0.0
  0
LINE
  5
756
330
1F
100
AcDbEntity
  8
0
  6
Continuous
 62
     7
370
    25
100
AcDbLine
 10
-538.6742323781
 20
-337.0301532776
 30
0.0
 11
-509.3662624387
 21
-279.8207987773
 31
0.0
  0
LINE
  5
757
330
1F
100
AcDbEntity
  8
0
  6
Continuous
 62
     7
370
    25
100
AcDbLine
 10
-501.9308450871
 20
-265.3068140829
 30
0.0
 11
-491.0857821404
 21
-244.1371782472
 31
0.0
  0
LINE
  5
758
330
1F
100
AcDbEntity
  8
0
  6
Continuous
 62
     7
370
    25
100
AcDbLine
 10
-434.0599641112
 20
-335.201662852
 30
0.0
 11
-457.8403220188
 21
-335.7149361921
 31
0.0
  0
LINE
  5
759
330
1F
100
AcDbEntity
  8
0
  6
Continuous
 62
     7
370
    25
100
AcDbLine
 10
-474.1442279233
 20
-336.0668383911
 30
0.0
 11
-538.4088631885
 21
-337.4539211306
 31
0.0
  0
LINE
  5
75A
330
1F
100
AcDbEntity
  8
0
  6
Continuous
 62
     7
370
    25
100
AcDbLine
 10
-218.7003686623
 20
-308.6172682397
 30
0.0
 11
-427.8535814155
 21
-280.5078402109
 31
0.0
  0
LINE
  5
75B
330
1F
100
AcDbEntity
  8
0
  6
Continuous
 62
     7
370
    25
100
AcDbLine
 10
-412.1424361769
 20
-314.1544010972
 30
0.0
 11
-217.9780588813
 21
-310.0963262014
 31
0.0
  0
LINE
  5
75C
330
1F
100
AcDbEntity
  8
0
  6
Continuous
 62
     7
370
    25
100
AcDbLine
 10
-439.17114654
 20
-262.434829237
 30
0.0
 11
-373.1361880604
 21
-61.9988279605
 31
0.0
  0
LINE
  5
75D
330
1F
100
AcDbEntity
  8
0
  6
Continuous
 62
     7
370
    25
100
AcDbLine
 10
-374.1514222759
 20
-60.7032032612
 30
0.0
 11
-462.580907133
 21
-233.6092459269
 31
0.0
  0
LINE
  5
75E
330
1F
100
AcDbEntity
  8
0
  6
Continuous
 62
     7
370
    25
100
AcDbLine
 10
-372.5877101081
 20
-62.3626574545
 30
0.0
 11
-438.7195748403
 21
-263.0927984144
 31
0.0
  0
LINE
  5
75F
330
1F
100
AcDbEntity
  8
0
  6
Continuous
 62
     7
370
    25
100
AcDbLine
 10
-428.2483450942
 20
-279.8142970787
 30
0.0
 11
-218.7882001563
 21
-307.9649756722
 31
0.0
  0
LINE
  5
760
330
1F
100
AcDbEntity
  8
0
  6
Continuous
 62
     7
370
    25
100
AcDbLine
 10
-217.915455694
 20
-311.2177152757
 30
0.0
 11
-411.7342532074
 21
-315.268567484
 31
0.0
  0
LINE
  5
761
330
1F
100
AcDbEntity
  8
0
  6
Continuous
 62
     7
370
    25
100
AcDbLine
 10
-463.405028795
 20
-232.755546003
 30
0.0
 11
-375.1329334783
 21
-60.1572468759
 31
0.0
  0
LINE
  5
762
330
1F
100
AcDbEntity
  8
0
  6
Continuous
 62
     7
370
    25
100
AcDbLine
 10
-403.1039893442
 20
-347.7283735437
 30
0.0
 11
-217.6015681035
 21
-312.6301377186
 31
0.0
  0
LINE
  5
763
330
1F
100
AcDbEntity
  8
0
  6
Continuous
 62
     7
370
    25
100
AcDbLine
 10
-376.2665505814
 20
-59.2581501958
 30
0.0
 11
-488.8388882685
 21
-210.8183799128
 31
0.0
  0
LINE
  5
764
330
1F
100
AcDbEntity
  8
0
  6
Continuous
 62
     7
370
    25
100
AcDbLine
 10
-217.6401264565
 20
-313.4715464063
 30
0.0
 11
-402.9746548298
 21
-348.538015835
 31
0.0
  0
LINE
  5
765
330
1F
100
AcDbEntity
  8
0
  6
Continuous
 62
     7
370
    25
100
AcDbLine
 10
-489.5108026294
 20
-210.3485084962
 30
0.0
 11
-377.0403509039
 21
-58.9254515524
 31
0.0
  0
LINE
  5
766
330
1F
100
AcDbEntity
  8
0
  6
Continuous
 62
     7
370
    25
100
AcDbLine
 10
-378.1573867846
 20
-58.5302325879
 30
0.0
 11
-511.4947772328
 21
-198.0231977459
 31
0.0
  0
LINE
  5
767
330
1F
100
AcDbEntity
  8
0
  6
Continuous
 62
     7
370
    25
100
AcDbLine
 10
-401.4852597884
 20
-373.6973108742
 30
0.0
 11
-217.7723072209
 21
-314.6490418136
 31
0.0
  0
LINE
  5
768
330
1F
100
AcDbEntity
  8
0
  6
Continuous
 62
     7
370
    25
100
AcDbLine
 10
-511.9968489647
 20
-197.8125640563
 30
0.0
 11
-378.7142744481
 21
-58.3769454297
 31
0.0
  0
LINE
  5
769
330
1F
100
AcDbEntity
  8
0
  6
Continuous
 62
     7
370
    25
100
AcDbLine
 10
-217.8775598809
 20
-315.2169702423
 30
0.0
 11
-401.5149867717
 21
-374.2409641475
 31
0.0
  0
LINE
  5
76A
330
1F
100
AcDbEntity
  8
0
  6
Continuous
 62
     7
370
    25
100
AcDbLine
 10
-379.6532406804
 20
-58.5681535415
 30
0.0
 11
-523.5845645098
 21
-193.8998739392
 31
0.0
  0
LINE
  5
76B
330
1F
100
AcDbEntity
  8
0
  6
Continuous
 62
     7
370
    25
100
AcDbLine
 10
-531.5749748017
 20
-201.4128734915
 30
0.0
 11
-531.6578319646
 21
-201.4907801076
 31
0.0
  0
LINE
  5
76C
330
1F
100
AcDbEntity
  8
0
  6
Continuous
 62
     7
370
    25
100
AcDbLine
 10
-413.4086997763
 20
-390.322727633
 30
0.0
 11
-413.302433694
 21
-390.2822027024
 31
0.0
  0
LINE
  5
76D
330
1F
100
AcDbEntity
  8
0
  6
Continuous
 62
     7
370
    25
100
AcDbLine
 10
-403.0545617017
 20
-386.3741419893
 30
0.0
 11
-218.4595623978
 21
-315.9782134347
 31
0.0
  0
LINE
  5
76E
330
1F
100
AcDbEntity
  8
0
  6
Continuous
 62
     7
370
    25
100
AcDbLine
 10
-218.5337486005
 20
-316.1379152445
 30
0.0
 11
-403.0838131503
 21
-386.5167077784
 31
0.0
  0
LINE
  5
76F
330
1F
100
AcDbEntity
  8
0
  6
Continuous
 62
     7
370
    25
100
AcDbLine
 10
-413.2390131217
 20
-390.3894277022
 30
0.0
 11
-413.3396515688
 21
-390.4278065151
 31
0.0
  0
LINE
  5
770
330
1F
100
AcDbEntity
  8
0
  6
Continuous
 62
     7
370
    25
100
AcDbLine
 10
-531.722216309
 20
-201.3827806511
 30
0.0
 11
-531.6437470927
 21
-201.3089998106
 31
0.0
  0
LINE
  5
771
330
1F
100
AcDbEntity
  8
0
  6
Continuous
 62
     7
370
    25
100
AcDbLine
 10
-523.7255944821
 20
-193.8639406904
 30
0.0
 11
-379.8293069141
 21
-58.5651632088
 31
0.0
  0
ARC
  5
772
330
1F
100
AcDbEntity
  8
0
  6
Continuous
 62
     7
370
    25
100
AcDbCircle
 10
144.6602644282
 20
-157.6395103498
 30
0.0
 40
4.655015276151643
100
AcDbArc
 50
309.2727239607
 51
10.7783450093
  0
ARC
  5
773
330
1F
100
AcDbEntity
  8
0
  6
Continuous
 62
     7
370
    25
100
AcDbCircle
 10
47.3178595986
 20
-220.393837685
 30
0.0
 40
3.095138491299323
100
AcDbArc
 50
271.3041527105
 51
301.4214617023
  0
ARC
  5
774
330
1F
100
AcDbEntity
  8
0
  6
Continuous
 62
     7
370
    25
100
AcDbCircle
 10
-73.1354007835
 20
-231.1533446088
 30
0.0
 40
3.095138491299064
100
AcDbArc
 50
91.3041527105
 51
121.4214617023
  0
ARC
  5
775
330
1F
100
AcDbEntity
  8
0
  6
Continuous
 62
     7
370
    25
100
AcDbCircle
 10
-239.8880380263
 20
35.1338125386
 30
0.0
 40
3.095138491298784
100
AcDbArc
 50
302.6892537151
 51
332.8065627069
  0
ARC
  5
776
330
1F
100
AcDbEntity
  8
0
  6
Continuous
 62
     7
370
    25
100
AcDbCircle
 10
-177.6144268825
 20
138.8003562305
 30
0.0
 40
3.095138491299621
100
AcDbArc
 50
122.6892537151
 51
152.8065627069
  0
ARC
  5
777
330
1F
100
AcDbEntity
  8
0
  6
Continuous
 62
     7
370
    25
100
AcDbCircle
 10
-78.6551987261
 20
198.9727796487
 30
0.0
 40
4.655015276151711
100
AcDbArc
 50
53.3323704082
 51
114.8379914567
  0
ARC
  5
778
330
1F
100
AcDbEntity
  8
0
  6
Continuous
 62
     7
370
    25
100
AcDbCircle
 10
32.7635775237
 20
122.1861713562
 30
0.0
 40
15.45084245678599
100
AcDbArc
 50
30.9042704312
 51
58.0036877149
  0
ARC
  5
779
330
1F
100
AcDbEntity
  8
0
  6
Continuous
 62
     7
370
    25
100
AcDbCircle
 10
124.2291774711
 20
-23.8751742963
 30
0.0
 40
15.45084245678668
100
AcDbArc
 50
6.1070277025
 51
33.2064449862
  0
ARC
  5
77A
330
1F
100
AcDbEntity
  8
0
  6
Continuous
 62
     7
370
    25
100
AcDbCircle
 10
35.6368446158
 20
123.9854502634
 30
0.0
 40
15.45084245678725
100
AcDbArc
 50
30.9042704312
 51
58.0036877149
  0
ARC
  5
77B
330
1F
100
AcDbEntity
  8
0
  6
Continuous
 62
     7
370
    25
100
AcDbCircle
 10
127.1024445632
 20
-22.0758953891
 30
0.0
 40
15.45084245678611
100
AcDbArc
 50
6.1070277025
 51
33.2064449862
  0
ARC
  5
77C
330
1F
100
AcDbEntity
  8
0
  6
Continuous
 62
     7
370
    25
100
AcDbCircle
 10
-75.781931634
 20
200.7720585559
 30
0.0
 40
4.655015276151441
100
AcDbArc
 50
53.3323704082
 51
114.8379914567
  0
ARC
  5
77D
330
1F
100
AcDbEntity
  8
0
  6
Continuous
 62
     7
370
    25
100
AcDbCircle
 10
147.5335315203
 20
-155.8402314426
 30
0.0
 40
4.655015276151409
100
AcDbArc
 50
309.2727239607
 51
10.7783450093
  0
ARC
  5
77E
330
1F
100
AcDbEntity
  8
0
  6
Continuous
 62
     7
370
    25
100
AcDbCircle
 10
-25.525227588
 20
124.1003945875
 30
0.0
 40
7.278247908069966
100
AcDbArc
 50
186.2343822519
 51
237.8763331656
  0
ARC
  5
77F
330
1F
100
AcDbEntity
  8
0
  6
Continuous
 62
     7
370
    25
100
AcDbCircle
 10
84.5950535469
 20
-111.3053091274
 30
0.0
 40
7.278247908069937
100
AcDbArc
 50
186.2343822519
 51
237.8763331656
  0
ARC
  5
780
330
1F
100
AcDbEntity
  8
0
  6
Continuous
 62
     7
370
    25
100
AcDbCircle
 10
-76.3629194182
 20
116.460383412
 30
0.0
 40
7.278247908068602
100
AcDbArc
 50
186.2343822518
 51
237.8763331656
  0
ARC
  5
781
330
1F
100
AcDbEntity
  8
0
  6
Continuous
 62
     7
370
    25
100
AcDbCircle
 10
33.7573617168
 20
-118.945320303
 30
0.0
 40
7.278247908068227
100
AcDbArc
 50
186.2343822518
 51
237.8763331656
  0
ARC
  5
782
330
1F
100
AcDbEntity
  8
0
  6
Continuous
 62
     7
370
    25
100
AcDbCircle
 10
209.1090368982
 20
39.6548970451
 30
0.0
 40
3.01864140701295
100
AcDbArc
 50
29.6488549266
 51
91.4942636486
  0
ARC
  5
783
330
1F
100
AcDbEntity
  8
0
  6
Continuous
 62
     7
370
    25
100
AcDbCircle
 10
209.2435789515
 20
39.4400469444
 30
0.0
 40
3.018641407012813
100
AcDbArc
 50
332.6164517689
 51
34.4618604909
  0
ARC
  5
784
330
1F
100
AcDbEntity
  8
0
  6
Continuous
 62
     7
370
    25
100
AcDbCircle
 10
-413.5482347832
 20
-313.378270065
 30
0.0
 40
6.108254366155054
100
AcDbArc
 50
204.2414653296
 51
219.8692500878
  0
ARC
  5
785
330
1F
100
AcDbEntity
  8
0
  6
Continuous
 62
     7
370
    25
100
AcDbCircle
 10
-462.4964878661
 20
-235.212842662
 30
0.0
 40
6.108254365788232
100
AcDbArc
 50
204.2414653094
 51
219.8692501068
  0
ARC
  5
786
330
1F
100
AcDbEntity
  8
0
  6
Continuous
 62
     7
370
    25
100
AcDbCircle
 10
-408.2711952717
 20
-387.019300438
 30
0.0
 40
6.108254366085704
100
AcDbArc
 50
204.2414653298
 51
219.8692500876
  0
ARC
  5
787
330
1F
100
AcDbEntity
  8
0
  6
Continuous
 62
     7
370
    25
100
AcDbCircle
 10
-526.4427317181
 20
-198.3112654925
 30
0.0
 40
6.108254366114541
100
AcDbArc
 50
204.2414653295
 51
219.8692500879
  0
ARC
  5
788
330
1F
100
AcDbEntity
  8
0
  6
Continuous
 62
     7
370
    25
100
AcDbCircle
 10
-449.7565875111
 20
-412.9980169373
 30
0.0
 40
6.108254362286549
100
AcDbArc
 50
204.2414651194
 51
219.8692503043
  0
ARC
  5
789
330
1F
100
AcDbEntity
  8
0
  6
Continuous
 62
     7
370
    25
100
AcDbCircle
 10
-567.9281239574
 20
-224.289981992
 30
0.0
 40
6.108254362288082
100
AcDbArc
 50
204.2414651106
 51
219.8692503006
  0
ARC
  5
78A
330
1F
100
AcDbEntity
  8
0
  6
Continuous
 62
     7
370
    25
100
AcDbCircle
 10
-513.70283136
 20
-376.096439766
 30
0.0
 40
6.108254366129848
100
AcDbArc
 50
204.2414653293
 51
219.8692500881
  0
ARC
  5
78B
330
1F
100
AcDbEntity
  8
0
  6
Continuous
 62
     7
370
    25
100
AcDbCircle
 10
-562.6510844426
 20
-297.9310123629
 30
0.0
 40
6.108254366090164
100
AcDbArc
 50
204.2414653296
 51
219.8692500879
  0
ARC
  5
78C
330
1F
100
AcDbEntity
  8
0
  6
Continuous
 62
     7
370
    25
100
AcDbCircle
 10
-560.9795643828
 20
-237.2177434087
 30
0.0
 40
0.3870194637783226
100
AcDbArc
 50
144.7696254621
 51
175.5417628689
  0
ARC
  5
78D
330
1F
100
AcDbEntity
  8
0
  6
Continuous
 62
     7
370
    25
100
AcDbCircle
 10
-458.3529375212
 20
-401.1021242884
 30
0.0
 40
0.3870194637791959
100
AcDbArc
 50
248.5689525486
 51
279.3410899553
  0
ARC
  5
78E
330
1F
100
AcDbEntity
  8
0
  6
Continuous
 62
     7
370
    25
100
AcDbCircle
 10
-485.3182469433
 20
-390.9654890413
 30
0.0
 40
0.9488555201811262
100
AcDbArc
 50
230.7618203585
 51
249.4467263376
  0
ARC
  5
78F
330
1F
100
AcDbEntity
  8
0
  6
Continuous
 62
     7
370
    25
100
AcDbCircle
 10
-563.6342060611
 20
-265.9027946362
 30
0.0
 40
0.9488555201765424
100
AcDbArc
 50
174.6639890798
 51
193.348895059
  0
ARC
  5
790
330
1F
100
AcDbEntity
  8
0
  6
Continuous
 62
     7
370
    25
100
AcDbCircle
 10
-512.9712698475
 20
-368.2237966677
 30
0.0
 40
1.582977197699898
100
AcDbArc
 50
218.0384980903
 51
231.427654348
  0
ARC
  5
791
330
1F
100
AcDbEntity
  8
0
  6
Continuous
 62
     7
370
    25
100
AcDbCircle
 10
-555.24911981
 20
-300.7103308362
 30
0.0
 40
1.582977197703885
100
AcDbArc
 50
192.6830610694
 51
206.0722173272
  0
ARC
  5
792
330
1F
100
AcDbEntity
  8
0
  6
Continuous
 62
     7
370
    25
100
AcDbCircle
 10
-457.5689283125
 20
-401.8532184626
 30
0.0
 40
1.437846137086287
100
AcDbArc
 50
248.5689525486
 51
279.3410899553
  0
ARC
  5
793
330
1F
100
AcDbEntity
  8
0
  6
Continuous
 62
     7
370
    25
100
AcDbCircle
 10
-530.7032028626
 20
-245.9294828585
 30
0.0
 40
31.76943580760346
100
AcDbArc
 50
122.0350324966
 51
139.2889000955
  0
ARC
  5
794
330
1F
100
AcDbEntity
  8
0
  6
Continuous
 62
     7
370
    25
100
AcDbCircle
 10
-527.4251958048
 20
-247.9998380251
 30
0.0
 40
35.64399060600482
100
AcDbArc
 50
146.0884349138
 51
161.9769832279
  0
ARC
  5
795
330
1F
100
AcDbEntity
  8
0
  6
Continuous
 62
     7
370
    25
100
AcDbCircle
 10
-453.4019722928
 20
-366.207466269
 30
0.0
 40
35.64399060601529
100
AcDbArc
 50
262.1337321895
 51
278.0222805036
  0
ARC
  5
796
330
1F
100
AcDbEntity
  8
0
  6
Continuous
 62
     7
370
    25
100
AcDbCircle
 10
-452.9706869476
 20
-370.0604772654
 30
0.0
 40
31.76943580759481
100
AcDbArc
 50
284.821815322
 51
302.0756829208
  0
ARC
  5
797
330
1F
100
AcDbEntity
  8
0
  6
Continuous
 62
     7
370
    25
100
AcDbCircle
 10
-561.3129536143
 20
-236.1844648799
 30
0.0
 40
1.437846137084844
100
AcDbArc
 50
144.7696254622
 51
175.5417628689
  0
ARC
  5
798
330
1F
100
AcDbEntity
  8
0
  6
Continuous
 62
     7
370
    25
100
AcDbCircle
 10
-443.1825403695
 20
-319.6811936091
 30
0.0
 40
83.76695541244916
100
AcDbArc
 50
239.5418688364
 51
249.1019703183
  0
ARC
  5
799
330
1F
100
AcDbEntity
  8
0
  6
Continuous
 62
     7
370
    25
100
AcDbCircle
 10
-452.5176107052
 20
-345.8056766522
 30
0.0
 40
56.0053074576585
100
AcDbArc
 50
251.3515255865
 51
263.8797266428
  0
ARC
  5
79A
330
1F
100
AcDbEntity
  8
0
  6
Continuous
 62
     7
370
    25
100
AcDbCircle
 10
-481.1061784919
 20
-259.1209652895
 30
0.0
 40
83.76695541245648
100
AcDbArc
 50
175.0087450992
 51
184.5688465811
  0
ARC
  5
79B
330
1F
100
AcDbEntity
  8
0
  6
Continuous
 62
     7
370
    25
100
AcDbCircle
 10
-508.6847990056
 20
-256.1123371958
 30
0.0
 40
56.00530745764956
100
AcDbArc
 50
160.2309887746
 51
172.759189831
  0
ARC
  5
79C
330
1F
100
AcDbEntity
  8
0
  6
Continuous
 62
     7
370
    25
100
AcDbCircle
 10
-484.3614193629
 20
-391.0965134642
 30
0.0
 40
2.641114307198153
100
AcDbArc
 50
247.4947588802
 51
250.4899652055
  0
ARC
  5
79D
330
1F
100
AcDbEntity
  8
0
  6
Continuous
 62
     7
370
    25
100
AcDbCircle
 10
-563.334297782
 20
-264.9847851361
 30
0.0
 40
2.641114307062614
100
AcDbArc
 50
173.6207502119
 51
176.6159565373
  0
ARC
  5
79E
330
1F
100
AcDbEntity
  8
0
  6
Continuous
 62
     7
370
    25
100
AcDbCircle
 10
-482.3052174516
 20
-391.0614074949
 30
0.0
 40
3.941239342769137
100
AcDbArc
 50
207.8795730463
 51
218.9024704088
  0
ARC
  5
79F
330
1F
100
AcDbEntity
  8
0
  6
Continuous
 62
     7
370
    25
100
AcDbCircle
 10
-562.404908335
 20
-263.1502732161
 30
0.0
 40
3.941239342763118
100
AcDbArc
 50
205.2082450086
 51
216.2311423712
  0
ARC
  5
7A0
330
1F
100
AcDbEntity
  8
0
  6
Continuous
 62
     7
370
    25
100
AcDbCircle
 10
-549.670562653
 20
-293.2455664277
 30
0.0
 40
10.85479327147191
100
AcDbArc
 50
221.3421065487
 51
227.2701300857
  0
ARC
  5
7A1
330
1F
100
AcDbEntity
  8
0
  6
Continuous
 62
     7
370
    25
100
AcDbCircle
 10
-503.8198880805
 20
-366.4644731093
 30
0.0
 40
10.85479327149408
100
AcDbArc
 50
196.8405853317
 51
202.7686088687
  0
ARC
  5
7A2
330
1F
100
AcDbEntity
  8
0
  6
Continuous
 62
     7
370
    25
100
AcDbCircle
 10
-345.1226955942
 20
-31.722685058
 30
0.0
 40
8.72911396269841
100
AcDbArc
 50
43.3942632392
 51
118.9441945441
  0
ARC
  5
7A3
330
1F
100
AcDbEntity
  8
0
  6
Continuous
 62
     7
370
    25
100
AcDbCircle
 10
-179.4899825987
 20
-296.5553750894
 30
0.0
 40
8.944674255083342
100
AcDbArc
 50
306.2290297378
 51
19.6539433137
  0
ARC
  5
7A4
330
1F
100
AcDbEntity
  8
0
  6
Continuous
 62
     7
370
    25
100
AcDbCircle
 10
-376.0188370811
 20
-66.9397946607
 30
0.0
 40
5.720386115314466
100
AcDbArc
 50
53.1439319939
 51
59.7399425839
  0
ARC
  5
7A5
330
1F
100
AcDbEntity
  8
0
  6
Continuous
 62
     7
370
    25
100
AcDbCircle
 10
-224.4041185086
 20
-309.0532212183
 30
0.0
 40
5.720386115352992
100
AcDbArc
 50
4.3707728335
 51
10.9667834235
  0
ARC
  5
7A6
330
1F
100
AcDbEntity
  8
0
  6
Continuous
 62
     7
370
    25
100
AcDbCircle
 10
-223.2703533071
 20
-310.9542182828
 30
0.0
 40
5.361376606055975
100
AcDbArc
 50
357.1829343241
 51
9.2076738114
  0
ARC
  5
7A7
330
1F
100
AcDbEntity
  8
0
  6
Continuous
 62
     7
370
    25
100
AcDbCircle
 10
-377.2340091212
 20
-65.0897756649
 30
0.0
 40
5.361376606060398
100
AcDbArc
 50
54.9030416061
 51
66.9277810933
  0
ARC
  5
7A8
330
1F
100
AcDbEntity
  8
0
  6
Continuous
 62
     7
370
    25
100
AcDbCircle
 10
-221.137554459
 20
-312.8896856128
 30
0.0
 40
3.545499205406578
100
AcDbArc
 50
350.5543174162
 51
4.1980867469
  0
ARC
  5
7A9
330
1F
100
AcDbEntity
  8
0
  6
Continuous
 62
     7
370
    25
100
AcDbCircle
 10
-378.0439803683
 20
-62.3259357111
 30
0.0
 40
3.545499205408175
100
AcDbArc
 50
59.9126286706
 51
73.5563980012
  0
ARC
  5
7AA
330
1F
100
AcDbEntity
  8
0
  6
Continuous
 62
     7
370
    25
100
AcDbCircle
 10
-378.8063177375
 20
-59.7995576448
 30
0.0
 40
1.425586714906937
100
AcDbArc
 50
62.9220215314
 51
86.2981115829
  0
ARC
  5
7AB
330
1F
100
AcDbEntity
  8
0
  6
Continuous
 62
     7
370
    25
100
AcDbCircle
 10
-219.1975871446
 20
-314.6786158008
 30
0.0
 40
1.425586714905594
100
AcDbArc
 50
337.8126038346
 51
1.188693886
  0
ARC
  5
7AC
330
1F
100
AcDbEntity
  8
0
  6
Continuous
 62
     7
370
    25
100
AcDbCircle
 10
-218.7985923854
 20
-315.9178057472
 30
0.0
 40
0.344369599733216
100
AcDbArc
 50
320.2703075837
 51
349.8971746521
  0
ARC
  5
7AD
330
1F
100
AcDbEntity
  8
0
  6
Continuous
 62
     7
370
    25
100
AcDbCircle
 10
-379.7469274072
 20
-58.8995343171
 30
0.0
 40
0.3443695997333394
100
AcDbArc
 50
74.2135407654
 51
103.8404078338
  0
ARC
  5
7AE
330
1F
100
AcDbEntity
  8
0
  6
Continuous
 62
     7
370
    25
100
AcDbCircle
 10
-106.3436068141
 20
-196.0787718843
 30
0.0
 40
3.812672725538802
100
AcDbArc
 50
28.1922137751
 51
107.7107079003
  0
ARC
  5
7AF
330
1F
100
AcDbEntity
  8
0
  6
Continuous
 62
     7
370
    25
100
AcDbCircle
 10
-106.1323867788
 20
-196.5100651335
 30
0.0
 40
3.860214995581318
100
AcDbArc
 50
316.9846142861
 51
35.3338948735
  0
ARC
  5
7B0
330
1F
100
AcDbEntity
  8
0
  6
Continuous
 62
     7
370
    25
100
AcDbCircle
 10
-223.1060502006
 20
-9.6209165539
 30
0.0
 40
3.812672725535355
100
AcDbArc
 50
28.1922137751
 51
107.7107079006
  0
ARC
  5
7B1
330
1F
100
AcDbEntity
  8
0
  6
Continuous
 62
     7
370
    25
100
AcDbCircle
 10
-222.8948301653
 20
-10.0522098031
 30
0.0
 40
3.860214995577688
100
AcDbArc
 50
316.9846142858
 51
35.3338948735
  0
ARC
  5
7B2
330
1F
100
AcDbEntity
  8
0
  6
Continuous
 62
     7
370
    25
100
AcDbCircle
 10
-107.8361398898
 20
-160.6502152166
 30
0.0
 40
2.588039404735516
100
AcDbArc
 50
30.3729191841
 51
85.8265331403
  0
ARC
  5
7B3
330
1F
100
AcDbEntity
  8
0
  6
Continuous
 62
     7
370
    25
100
AcDbCircle
 10
-107.755484103
 20
-160.77901438
 30
0.0
 40
2.588039404735482
100
AcDbArc
 50
338.2841822772
 51
33.7377962333
  0
ARC
  5
7B4
330
1F
100
AcDbEntity
  8
0
  6
Continuous
 62
     7
370
    25
100
AcDbCircle
 10
-264.4518955398
 20
-258.8147836191
 30
0.0
 40
2.693326113003099
100
AcDbArc
 50
338.6049803791
 51
85.5057350383
  0
ARC
  5
7B5
330
1F
100
AcDbEntity
  8
0
  6
Continuous
 62
     7
370
    25
100
AcDbCircle
 10
-87.4188361184
 20
-54.7156014714
 30
0.0
 40
283.7329469558342
100
AcDbArc
 50
20.4349137323
 51
37.0682615393
  0
ARC
  5
7B6
330
1F
100
AcDbEntity
  8
0
  6
Continuous
 62
     7
370
    25
100
AcDbCircle
 10
217.9902663226
 20
32.5787726742
 30
0.0
 40
7.725421228393305
100
AcDbArc
 50
6.1070277025
 51
33.2064449862
  0
ARC
  5
7B7
330
1F
100
AcDbEntity
  8
0
  6
Continuous
 62
     7
370
    25
100
AcDbCircle
 10
233.1465577216
 20
-104.8675745195
 30
0.0
 40
2.440103821174675
100
AcDbArc
 50
316.4052525899
 51
9.9891176868
  0
ARC
  5
7B8
330
1F
100
AcDbEntity
  8
0
  6
Continuous
 62
     7
370
    25
100
AcDbCircle
 10
7.4566008069
 20
255.5365427242
 30
0.0
 40
2.440103821173795
100
AcDbArc
 50
54.1215977306
 51
107.7054628276
  0
ARC
  5
7B9
330
1F
100
AcDbEntity
  8
0
  6
Continuous
 62
     7
370
    25
100
AcDbCircle
 10
124.4910122362
 20
181.8876590447
 30
0.0
 40
7.725421228394354
100
AcDbArc
 50
30.9042704312
 51
58.0036877149
  0
ARC
  5
7BA
330
1F
100
AcDbEntity
  8
0
  6
Continuous
 62
     7
370
    25
100
AcDbCircle
 10
127.3642793283
 20
183.6869379518
 30
0.0
 40
7.72542122839466
100
AcDbArc
 50
30.9042704312
 51
58.0036877149
  0
ARC
  5
7BB
330
1F
100
AcDbEntity
  8
0
  6
Continuous
 62
     7
370
    25
100
AcDbCircle
 10
220.8635334147
 20
34.3780515813
 30
0.0
 40
7.725421228393074
100
AcDbArc
 50
6.1070277025
 51
33.2064449862
  0
ARC
  5
7BC
330
1F
100
AcDbEntity
  8
0
  6
Continuous
 62
     7
370
    25
100
AcDbCircle
 10
273.0157546748
 20
170.9661764711
 30
0.0
 40
313.4011580906516
100
AcDbArc
 50
197.0190148949
 51
227.0917005226
  0
ARC
  5
7BD
330
1F
100
AcDbEntity
  8
0
  6
Continuous
 62
     7
370
    25
100
AcDbCircle
 10
10.3700095892
 20
257.4460220401
 30
0.0
 40
2.327507638075627
100
AcDbArc
 50
53.3323704082
 51
114.8379914567
  0
ARC
  5
7BE
330
1F
100
AcDbEntity
  8
0
  6
Continuous
 62
     7
370
    25
100
AcDbCircle
 10
236.1364926577
 20
-103.0802997593
 30
0.0
 40
2.327507638075541
100
AcDbArc
 50
309.2727239607
 51
10.7783450093
  0
ARC
  5
7BF
330
1F
100
AcDbEntity
  8
0
  6
Continuous
 62
     7
370
    25
100
AcDbCircle
 10
196.5913654691
 20
-60.737008107
 30
0.0
 40
4.22827754672348
100
AcDbArc
 50
6.1070277025
 51
33.2064449862
  0
ARC
  5
7C0
330
1F
100
AcDbEntity
  8
0
  6
Continuous
 62
     7
370
    25
100
AcDbCircle
 10
246.8735395809
 20
-29.2496272312
 30
0.0
 40
4.228277546724194
100
AcDbArc
 50
6.1070277025
 51
33.2064449862
  0
ARC
  5
7C1
330
1F
100
AcDbEntity
  8
0
  6
Continuous
 62
     7
370
    25
100
AcDbCircle
 10
198.2772783816
 20
-59.6080210909
 30
0.0
 40
1.138109055365938
100
AcDbArc
 50
6.1070277025
 51
33.2064449862
  0
ARC
  5
7C2
330
1F
100
AcDbEntity
  8
0
  6
Continuous
 62
     7
370
    25
100
AcDbCircle
 10
238.8248448945
 20
-45.2613271447
 30
0.0
 40
3.583733259272443
100
AcDbArc
 50
292.2871340204
 51
325.6891125693
  0
ARC
  5
7C3
330
1F
100
AcDbEntity
  8
0
  6
Continuous
 62
     7
370
    25
100
AcDbCircle
 10
242.4682908103
 20
-37.9711843542
 30
0.0
 40
4.947539241170811
100
AcDbArc
 50
323.8128790263
 51
328.9510722125
  0
ARC
  5
7C4
330
1F
100
AcDbEntity
  8
0
  6
Continuous
 62
     7
370
    25
100
AcDbCircle
 10
245.9971911516
 20
-37.5834742545
 30
0.0
 40
2.026512726326857
100
AcDbArc
 50
88.2891224496
 51
125.8880555019
  0
ARC
  5
7C5
330
1F
100
AcDbEntity
  8
0
  6
Continuous
 62
     7
370
    25
100
AcDbCircle
 10
241.7191236485
 20
-42.7698675688
 30
0.0
 40
4.017056397379321
100
AcDbArc
 50
123.9625715496
 51
142.2309095739
  0
ARC
  5
7C6
330
1F
100
AcDbEntity
  8
0
  6
Continuous
 62
     7
370
    25
100
AcDbCircle
 10
240.1484375979
 20
-62.6745555093
 30
0.0
 40
2.085116889171827
100
AcDbArc
 50
274.0416790954
 51
302.4170531212
  0
ARC
  5
7C7
330
1F
100
AcDbEntity
  8
0
  6
Continuous
 62
     7
370
    25
100
AcDbCircle
 10
244.4692475091
 20
-57.7988397611
 30
0.0
 40
4.056467120442726
100
AcDbArc
 50
302.050538529
 51
325.5862505472
  0
ARC
  5
7C8
330
1F
100
AcDbEntity
  8
0
  6
Continuous
 62
     7
370
    25
100
AcDbCircle
 10
247.4009280554
 20
-55.9589215913
 30
0.0
 40
1.228803888384091
100
AcDbArc
 50
74.5522239638
 51
87.566816333
  0
ARC
  5
7C9
330
1F
100
AcDbEntity
  8
0
  6
Continuous
 62
     7
370
    25
100
AcDbCircle
 10
242.3977244821
 20
-56.9113244109
 30
0.0
 40
2.416937051508456
100
AcDbArc
 50
92.2701436295
 51
135.9448147901
  0
ARC
  5
7CA
330
1F
100
AcDbEntity
  8
0
  6
Continuous
 62
     7
370
    25
100
AcDbCircle
 10
201.7980391364
 20
-91.9772965315
 30
0.0
 40
1.273891480471667
100
AcDbArc
 50
309.2727239607
 51
10.7783450093
  0
ARC
  5
7CB
330
1F
100
AcDbEntity
  8
0
  6
Continuous
 62
     7
370
    25
100
AcDbCircle
 10
252.0802132481
 20
-60.4899156557
 30
0.0
 40
1.273891480471547
100
AcDbArc
 50
309.2727239607
 51
10.7783450093
  0
ARC
  5
7CC
330
1F
100
AcDbEntity
  8
0
  6
Continuous
 62
     7
370
    25
100
AcDbCircle
 10
201.3258988651
 20
-91.0029533582
 30
0.0
 40
0.3428884252411856
100
AcDbArc
 50
309.2727239607
 51
10.7783450093
  0
ARC
  5
7CD
330
1F
100
AcDbEntity
  8
0
  6
Continuous
 62
     7
370
    25
100
AcDbCircle
 10
241.8451659535
 20
-37.1277404822
 30
0.0
 40
4.337087090430278
100
AcDbArc
 50
323.249779534
 51
21.273407245
  0
ARC
  5
7CE
330
1F
100
AcDbEntity
  8
0
  6
Continuous
 62
     7
370
    25
100
AcDbCircle
 10
237.4381263225
 20
-44.4610908945
 30
0.0
 40
3.583733259272229
100
AcDbArc
 50
292.2871340204
 51
325.6891125693
  0
ARC
  5
7CF
330
1F
100
AcDbEntity
  8
0
  6
Continuous
 62
     7
370
    25
100
AcDbCircle
 10
241.0815722384
 20
-37.1709481041
 30
0.0
 40
4.947539241037219
100
AcDbArc
 50
323.8128790262
 51
328.9510722126
  0
ARC
  5
7D0
330
1F
100
AcDbEntity
  8
0
  6
Continuous
 62
     7
370
    25
100
AcDbCircle
 10
238.7617190259
 20
-61.8743192591
 30
0.0
 40
2.085116889171206
100
AcDbArc
 50
274.0416790954
 51
302.4170531212
  0
ARC
  5
7D1
330
1F
100
AcDbEntity
  8
0
  6
Continuous
 62
     7
370
    25
100
AcDbCircle
 10
242.8792370261
 20
-56.2830376198
 30
0.0
 40
4.652944556527382
100
AcDbArc
 50
319.7215977269
 51
19.5955353508
  0
ARC
  5
7D2
330
1F
100
AcDbEntity
  8
0
  6
Continuous
 62
     7
370
    25
100
AcDbCircle
 10
243.0825289372
 20
-56.9986035109
 30
0.0
 40
4.056467120442409
100
AcDbArc
 50
302.050538529
 51
325.5862505472
  0
ARC
  5
7D3
330
1F
100
AcDbEntity
  8
0
  6
Continuous
 62
     7
370
    25
100
AcDbCircle
 10
-44.3334796967
 20
81.4489767962
 30
0.0
 40
2.82755333508521
100
AcDbArc
 50
241.7739195957
 51
295.7401586734
  0
ARC
  5
7D4
330
1F
100
AcDbEntity
  8
0
  6
Continuous
 62
     7
370
    25
100
AcDbCircle
 10
-44.2428271085
 20
80.645269845
 30
0.0
 40
2.081471889879563
100
AcDbArc
 50
303.120743244
 51
336.052649923
  0
ENDSEC
  0
SECTION
  2
OBJECTS
  0
DICTIONARY
  5
C
330
0
100
AcDbDictionary
281
     1
  3
ACAD_GROUP
350
D
  3
ACAD_LAYOUT
350
1A
  3
ACAD_MLINESTYLE
350
17
  3
ACAD_PLOTSETTINGS
350
19
  3
ACAD_PLOTSTYLENAME
350
E
  3
ACAD_SCALELIST
350
47
  3
DWGPROPS
350
7D5
  0
DICTIONARY
  5
D
102
{ACAD_REACTORS
330
C
102
}
330
C
100
AcDbDictionary
281
     1
  0
DICTIONARY
  5
1A
102
{ACAD_REACTORS
330
C
102
}
330
C
100
AcDbDictionary
281
     1
  3
Layout1
350
1E
  3
Layout2
350
26
  3
Model
350
22
  0
DICTIONARY
  5
17
102
{ACAD_REACTORS
330
C
102
}
330
C
100
AcDbDictionary
281
     1
  3
Standard
350
18
  0
DICTIONARY
  5
19
102
{ACAD_REACTORS
330
C
102
}
330
C
100
AcDbDictionary
281
     1
  0
ACDBDICTIONARYWDFLT
  5
E
102
{ACAD_REACTORS
330
C
102
}
330
C
100
AcDbDictionary
281
     1
  3
Normal
350
F
100
AcDbDictionaryWithDefault
340
F
  0
DICTIONARY
  5
47
102
{ACAD_REACTORS
330
C
102
}
330
C
100
AcDbDictionary
281
     1
  3
A0
350
48
  3
A1
350
49
  3
A2
350
4A
  3
A3
350
4B
  3
A4
350
4C
  3
A5
350
4D
  3
A6
350
4E
  3
A7
350
4F
  3
A8
350
50
  3
A9
350
51
  3
B0
350
52
  3
B1
350
53
  3
B2
350
54
  3
B3
350
55
  3
B4
350
56
  3
B5
350
57
  3
B6
350
58
  0
XRECORD
  5
7D5
102
{ACAD_REACTORS
330
C
102
}
330
C
100
AcDbXrecord
280
     1
  1
DWGPROPS COOKIE
  2

  3

  4

  6

  7

  8
ttranle
  9

300
=
301
=
302
=
303
=
304
=
305
=
306
=
307
=
308
=
309
=
 40
0.0
 41
2459838.504882107
 42
2459838.504944989
  1

 90
        0
  0
LAYOUT
  5
1E
102
{ACAD_REACTORS
330
1A
102
}
330
1A
100
AcDbPlotSettings
  1

  2
none_device
  4

  6

 40
0.0
 41
0.0
 42
0.0
 43
0.0
 44
0.0
 45
0.0
 46
0.0
 47
0.0
 48
0.0
 49
0.0
140
0.0
141
0.0
142
1.0
143
1.0
 70
   688
 72
     1
 73
     0
 74
     5
  7

 75
    16
147
1.0
148
0.0
149
0.0
100
AcDbLayout
  1
Layout1
 70
     1
 71
     1
 10
0.0
 20
0.0
 11
420.0
 21
297.0
 12
0.0
 22
0.0
 32
0.0
 14
1.0000000000E+20
 24
1.0000000000E+20
 34
1.0000000000E+20
 15
-1.0000000000E+20
 25
-1.0000000000E+20
 35
-1.0000000000E+20
146
0.0
 13
0.0
 23
0.0
 33
0.0
 16
1.0
 26
0.0
 36
0.0
 17
0.0
 27
1.0
 37
0.0
 76
     0
330
1B
  0
LAYOUT
  5
26
102
{ACAD_REACTORS
330
1A
102
}
330
1A
100
AcDbPlotSettings
  1

  2
none_device
  4

  6

 40
0.0
 41
0.0
 42
0.0
 43
0.0
 44
0.0
 45
0.0
 46
0.0
 47
0.0
 48
0.0
 49
0.0
140
0.0
141
0.0
142
1.0
143
1.0
 70
   688
 72
     1
 73
     0
 74
     5
  7

 75
    16
147
1.0
148
0.0
149
0.0
100
AcDbLayout
  1
Layout2
 70
     1
 71
     2
 10
0.0
 20
0.0
 11
0.0
 21
0.0
 12
0.0
 22
0.0
 32
0.0
 14
0.0
 24
0.0
 34
0.0
 15
0.0
 25
0.0
 35
0.0
146
0.0
 13
0.0
 23
0.0
 33
0.0
 16
1.0
 26
0.0
 36
0.0
 17
0.0
 27
1.0
 37
0.0
 76
     0
330
23
  0
LAYOUT
  5
22
102
{ACAD_REACTORS
330
1A
102
}
330
1A
100
AcDbPlotSettings
  1

  2
none_device
  4
ANSI_A_(11.00_x_8.50_Inches)
  6

 40
6.35
 41
19.05
 42
6.35000508
 43
19.05000254
 44
279.4
 45
215.9
 46
185.0603868759
 47
114.7888651672
 48
0.0
 49
0.0
140
0.0
141
0.0
142
0.0122732031
143
1.0
 70
  1696
 72
     0
 73
     0
 74
     0
  7

 75
     0
147
0.0179189148
148
-1300.4909072572
149
0.0
100
AcDbLayout
  1
Model
 70
     1
 71
     0
 10
0.0
 20
0.0
 11
420.0
 21
297.0
 12
0.0
 22
0.0
 32
0.0
 14
-585.1081034718
 24
-425.8665539326
 34
0.0
 15
253.3541047286
 25
259.7735296782
 35
0.0
146
0.0
 13
0.0
 23
0.0
 33
0.0
 16
1.0
 26
0.0
 36
0.0
 17
0.0
 27
1.0
 37
0.0
 76
     0
330
1F
331
29
  0
MLINESTYLE
  5
18
102
{ACAD_REACTORS
330
17
102
}
330
17
100
AcDbMlineStyle
  2
Standard
 70
     0
  3

 62
   256
 51
90.0
 52
90.0
 71
     2
 49
0.5
 62
   256
  6
BYLAYER
 49
-0.5
 62
   256
  6
BYLAYER
  0
ACDBPLACEHOLDER
  5
F
102
{ACAD_REACTORS
330
E
102
}
330
E
  0
SCALE
  5
48
102
{ACAD_REACTORS
330
47
102
}
330
47
100
AcDbScale
 70
     0
300
1:1
140
1.0
141
1.0
290
     1
  0
SCALE
  5
49
102
{ACAD_REACTORS
330
47
102
}
330
47
100
AcDbScale
 70
     0
300
1:2
140
1.0
141
2.0
290
     0
  0
SCALE
  5
4A
102
{ACAD_REACTORS
330
47
102
}
330
47
100
AcDbScale
 70
     0
300
1:4
140
1.0
141
4.0
290
     0
  0
SCALE
  5
4B
102
{ACAD_REACTORS
330
47
102
}
330
47
100
AcDbScale
 70
     0
300
1:5
140
1.0
141
5.0
290
     0
  0
SCALE
  5
4C
102
{ACAD_REACTORS
330
47
102
}
330
47
100
AcDbScale
 70
     0
300
1:8
140
1.0
141
8.0
290
     0
  0
SCALE
  5
4D
102
{ACAD_REACTORS
330
47
102
}
330
47
100
AcDbScale
 70
     0
300
1:10
140
1.0
141
10.0
290
     0
  0
SCALE
  5
4E
102
{ACAD_REACTORS
330
47
102
}
330
47
100
AcDbScale
 70
     0
300
1:16
140
1.0
141
16.0
290
     0
  0
SCALE
  5
4F
102
{ACAD_REACTORS
330
47
102
}
330
47
100
AcDbScale
 70
     0
300
1:20
140
1.0
141
20.0
290
     0
  0
SCALE
  5
50
102
{ACAD_REACTORS
330
47
102
}
330
47
100
AcDbScale
 70
     0
300
1:30
140
1.0
141
30.0
290
     0
  0
SCALE
  5
51
102
{ACAD_REACTORS
330
47
102
}
330
47
100
AcDbScale
 70
     0
300
1:40
140
1.0
141
40.0
290
     0
  0
SCALE
  5
52
102
{ACAD_REACTORS
330
47
102
}
330
47
100
AcDbScale
 70
     0
300
1:50
140
1.0
141
50.0
290
     0
  0
SCALE
  5
53
102
{ACAD_REACTORS
330
47
102
}
330
47
100
AcDbScale
 70
     0
300
1:100
140
1.0
141
100.0
290
     0
  0
SCALE
  5
54
102
{ACAD_REACTORS
330
47
102
}
330
47
100
AcDbScale
 70
     0
300
2:1
140
2.0
141
1.0
290
     0
  0
SCALE
  5
55
102
{ACAD_REACTORS
330
47
102
}
330
47
100
AcDbScale
 70
     0
300
4:1
140
4.0
141
1.0
290
     0
  0
SCALE
  5
56
102
{ACAD_REACTORS
330
47
102
}
330
47
100
AcDbScale
 70
     0
300
8:1
140
8.0
141
1.0
290
     0
  0
SCALE
  5
57
102
{ACAD_REACTORS
330
47
102
}
330
47
100
AcDbScale
 70
     0
300
10:1
140
10.0
141
1.0
290
     0
  0
SCALE
  5
58
102
{ACAD_REACTORS
330
47
102
}
330
47
100
AcDbScale
 70
     0
300
100:1
140
100.0
141
1.0
290
     0
  0
ENDSEC
  0
EOF
