  0
SECTION
  2
HEADER
  9
$ACADVER
  1
AC1015
  9
$ACADMAINTVER
 70
     6
  9
$DWGCODEPAGE
  3
ANSI_1252
  9
$INSBASE
 10
0.0
 20
0.0
 30
0.0
  9
$EXTMIN
 10
-705.9544941917
 20
-393.0001551189
 30
0.0
  9
$EXTMAX
 10
17.9910065512
 20
247.2968129306
 30
0.0
  9
$LIMMIN
 10
0.0
 20
0.0
  9
$LIMMAX
 10
420.0
 20
297.0
  9
$ORTHOMODE
 70
     0
  9
$REGENMODE
 70
     1
  9
$FILLMODE
 70
     1
  9
$QTEXTMODE
 70
     0
  9
$MIRRTEXT
 70
     1
  9
$LTSCALE
 40
1.0
  9
$ATTMODE
 70
     1
  9
$TEXTSIZE
 40
3.5
  9
$TRACEWID
 40
1.0
  9
$TEXTSTYLE
  7
Standard
  9
$CLAYER
  8
0
  9
$CELTYPE
  6
ByLayer
  9
$CECOLOR
 62
   256
  9
$CELTSCALE
 40
1.0
  9
$DISPSILH
 70
     0
  9
$DIMSCALE
 40
1.0
  9
$DIMASZ
 40
3.556
  9
$DIMEXO
 40
0.0
  9
$DIMDLI
 40
3.75
  9
$DIMRND
 40
0.0
  9
$DIMDLE
 40
0.0
  9
$DIMEXE
 40
1.0
  9
$DIMTP
 40
0.0
  9
$DIMTM
 40
0.0
  9
$DIMTXT
 40
3.5
  9
$DIMCEN
 40
2.5
  9
$DIMTSZ
 40
0.0
  9
$DIMTOL
 70
     0
  9
$DIMLIM
 70
     0
  9
$DIMTIH
 70
     1
  9
$DIMTOH
 70
     1
  9
$DIMSE1
 70
     0
  9
$DIMSE2
 70
     0
  9
$DIMTAD
 70
     1
  9
$DIMZIN
 70
     0
  9
$DIMBLK
  1

  9
$DIMASO
 70
     1
  9
$DIMSHO
 70
     1
  9
$DIMPOST
  1

  9
$DIMAPOST
  1

  9
$DIMALT
 70
     0
  9
$DIMALTD
 70
     3
  9
$DIMALTF
 40
0.0393700787
  9
$DIMLFAC
 40
1.0
  9
$DIMTOFL
 70
     1
  9
$DIMTVP
 40
0.0
  9
$DIMTIX
 70
     0
  9
$DIMSOXD
 70
     0
  9
$DIMSAH
 70
     0
  9
$DIMBLK1
  1

  9
$DIMBLK2
  1

  9
$DIMSTYLE
  2
ISO-25
  9
$DIMCLRD
 70
     0
  9
$DIMCLRE
 70
     0
  9
$DIMCLRT
 70
     0
  9
$DIMTFAC
 40
1.0
  9
$DIMGAP
 40
1.524
  9
$DIMJUST
 70
     0
  9
$DIMSD1
 70
     0
  9
$DIMSD2
 70
     0
  9
$DIMTOLJ
 70
     0
  9
$DIMTZIN
 70
     0
  9
$DIMALTZ
 70
     0
  9
$DIMALTTZ
 70
     0
  9
$DIMUPT
 70
     0
  9
$DIMDEC
 70
     2
  9
$DIMTDEC
 70
     2
  9
$DIMALTU
 70
     2
  9
$DIMALTTD
 70
     3
  9
$DIMTXSTY
  7
Standard
  9
$DIMAUNIT
 70
     0
  9
$DIMADEC
 70
     0
  9
$DIMALTRND
 40
0.0
  9
$DIMAZIN
 70
     0
  9
$DIMDSEP
 70
    44
  9
$DIMATFIT
 70
     3
  9
$DIMFRAC
 70
     0
  9
$DIMLDRBLK
  1

  9
$DIMLUNIT
 70
     2
  9
$DIMLWD
 70
    -2
  9
$DIMLWE
 70
    -2
  9
$DIMTMOVE
 70
     0
  9
$LUNITS
 70
     2
  9
$LUPREC
 70
     0
  9
$SKETCHINC
 40
1.0
  9
$FILLETRAD
 40
0.0
  9
$AUNITS
 70
     0
  9
$AUPREC
 70
     0
  9
$MENU
  1
.
  9
$ELEVATION
 40
0.0
  9
$PELEVATION
 40
0.0
  9
$THICKNESS
 40
0.0
  9
$LIMCHECK
 70
     0
  9
$CHAMFERA
 40
0.0
  9
$CHAMFERB
 40
0.0
  9
$CHAMFERC
 40
0.0
  9
$CHAMFERD
 40
0.0
  9
$SKPOLY
 70
     0
  9
$TDCREATE
 40
2459780.635744271
  9
$TDUCREATE
 40
2459780.552410937
  9
$TDUPDATE
 40
2459780.635756146
  9
$TDUUPDATE
 40
2459780.552422813
  9
$TDINDWG
 40
0.0000000116
  9
$TDUSRTIMER
 40
0.0000000116
  9
$USRTIMER
 70
     1
  9
$ANGBASE
 50
0.0
  9
$ANGDIR
 70
     0
  9
$PDMODE
 70
     0
  9
$PDSIZE
 40
-1.0
  9
$PLINEWID
 40
0.0
  9
$SPLFRAME
 70
     0
  9
$SPLINETYPE
 70
     6
  9
$SPLINESEGS
 70
     8
  9
$HANDSEED
  5
81
  9
$SURFTAB1
 70
     6
  9
$SURFTAB2
 70
     6
  9
$SURFTYPE
 70
     6
  9
$SURFU
 70
     6
  9
$SURFV
 70
     6
  9
$UCSBASE
  2

  9
$UCSNAME
  2

  9
$UCSORG
 10
0.0
 20
0.0
 30
0.0
  9
$UCSXDIR
 10
1.0
 20
0.0
 30
0.0
  9
$UCSYDIR
 10
0.0
 20
1.0
 30
0.0
  9
$UCSORTHOREF
  2

  9
$UCSORTHOVIEW
 70
     0
  9
$UCSORGTOP
 10
0.0
 20
0.0
 30
0.0
  9
$UCSORGBOTTOM
 10
0.0
 20
0.0
 30
0.0
  9
$UCSORGLEFT
 10
0.0
 20
0.0
 30
0.0
  9
$UCSORGRIGHT
 10
0.0
 20
0.0
 30
0.0
  9
$UCSORGFRONT
 10
0.0
 20
0.0
 30
0.0
  9
$UCSORGBACK
 10
0.0
 20
0.0
 30
0.0
  9
$PUCSBASE
  2

  9
$PUCSNAME
  2

  9
$PUCSORG
 10
0.0
 20
0.0
 30
0.0
  9
$PUCSXDIR
 10
1.0
 20
0.0
 30
0.0
  9
$PUCSYDIR
 10
0.0
 20
1.0
 30
0.0
  9
$PUCSORTHOREF
  2

  9
$PUCSORTHOVIEW
 70
     0
  9
$PUCSORGTOP
 10
0.0
 20
0.0
 30
0.0
  9
$PUCSORGBOTTOM
 10
0.0
 20
0.0
 30
0.0
  9
$PUCSORGLEFT
 10
0.0
 20
0.0
 30
0.0
  9
$PUCSORGRIGHT
 10
0.0
 20
0.0
 30
0.0
  9
$PUCSORGFRONT
 10
0.0
 20
0.0
 30
0.0
  9
$PUCSORGBACK
 10
0.0
 20
0.0
 30
0.0
  9
$USERI1
 70
     0
  9
$USERI2
 70
     0
  9
$USERI3
 70
     0
  9
$USERI4
 70
     0
  9
$USERI5
 70
     0
  9
$USERR1
 40
0.0
  9
$USERR2
 40
0.0
  9
$USERR3
 40
0.0
  9
$USERR4
 40
0.0
  9
$USERR5
 40
0.0
  9
$WORLDVIEW
 70
     1
  9
$SHADEDGE
 70
     3
  9
$SHADEDIF
 70
    70
  9
$TILEMODE
 70
     1
  9
$MAXACTVP
 70
    64
  9
$PINSBASE
 10
0.0
 20
0.0
 30
0.0
  9
$PLIMCHECK
 70
     0
  9
$PEXTMIN
 10
1.0000000000E+20
 20
1.0000000000E+20
 30
1.0000000000E+20
  9
$PEXTMAX
 10
-1.0000000000E+20
 20
-1.0000000000E+20
 30
-1.0000000000E+20
  9
$PLIMMIN
 10
0.0
 20
0.0
  9
$PLIMMAX
 10
420.0
 20
297.0
  9
$UNITMODE
 70
     0
  9
$VISRETAIN
 70
     1
  9
$PLINEGEN
 70
     0
  9
$PSLTSCALE
 70
     1
  9
$TREEDEPTH
 70
  3020
  9
$CMLSTYLE
  2
Standard
  9
$CMLJUST
 70
     0
  9
$CMLSCALE
 40
20.0
  9
$PROXYGRAPHICS
 70
     1
  9
$MEASUREMENT
 70
     1
  9
$CELWEIGHT
370
    -1
  9
$ENDCAPS
280
     0
  9
$JOINSTYLE
280
     0
  9
$LWDISPLAY
290
     1
  9
$INSUNITS
 70
     4
  9
$HYPERLINKBASE
  1

  9
$STYLESHEET
  1

  9
$XEDIT
290
     1
  9
$CEPSNTYPE
380
     0
  9
$PSTYLEMODE
290
     1
  9
$FINGERPRINTGUID
  2
{fde6eb5e-6df2-41da-9a3e-1e49e182b8c0}
  9
$VERSIONGUID
  2
{FAEB1C32-E019-11D5-929B-00C0DF256EC4}
  9
$EXTNAMES
290
     1
  9
$PSVPSCALE
 40
0.0
  9
$OLESTARTUP
290
     0
  0
ENDSEC
  0
SECTION
  2
CLASSES
  0
CLASS
  1
ACDBDICTIONARYWDFLT
  2
AcDbDictionaryWithDefault
  3
ObjectDBX Classes
 90
        0
280
     0
281
     0
  0
CLASS
  1
VISUALSTYLE
  2
AcDbVisualStyle
  3
ObjectDBX Classes
 90
     4095
280
     0
281
     0
  0
CLASS
  1
MATERIAL
  2
AcDbMaterial
  3
ObjectDBX Classes
 90
     1153
280
     0
281
     0
  0
CLASS
  1
SCALE
  2
AcDbScale
  3
ObjectDBX Classes
 90
     1153
280
     0
281
     0
  0
CLASS
  1
TABLESTYLE
  2
AcDbTableStyle
  3
ObjectDBX Classes
 90
     4095
280
     0
281
     0
  0
CLASS
  1
MLEADERSTYLE
  2
AcDbMLeaderStyle
  3
ACDB_MLEADERSTYLE_CLASS
 90
     4095
280
     0
281
     0
  0
CLASS
  1
SUN
  2
AcDbSun
  3
SCENEOE
 90
     1153
280
     0
281
     0
  0
CLASS
  1
ACDBPLACEHOLDER
  2
AcDbPlaceHolder
  3
ObjectDBX Classes
 90
        0
280
     0
281
     0
  0
CLASS
  1
LAYOUT
  2
AcDbLayout
  3
ObjectDBX Classes
 90
        0
280
     0
281
     0
  0
ENDSEC
  0
SECTION
  2
TABLES
  0
TABLE
  2
VPORT
  5
8
330
0
100
AcDbSymbolTable
 70
     1
  0
VPORT
  5
29
330
8
100
AcDbSymbolTableRecord
100
AcDbViewportTableRecord
  2
*Active
 70
     0
 10
0.0
 20
0.0
 11
1.0
 21
1.0
 12
-343.9817438202
 22
-72.8516710942
 13
0.0
 23
0.0
 14
10.0
 24
10.0
 15
10.0
 25
10.0
 16
0.0
 26
0.0
 36
1.0
 17
0.0
 27
0.0
 37
0.0
 40
653.1029074105
 41
1.1306402136
 42
50.0
 43
0.0
 44
0.0
 50
0.0
 51
0.0
 71
     0
 72
   100
 73
     1
 74
     3
 75
     0
 76
     0
 77
     0
 78
     0
281
     0
 65
     1
110
0.0
120
0.0
130
0.0
111
1.0
121
0.0
131
0.0
112
0.0
122
1.0
132
0.0
 79
     0
146
0.0
  0
ENDTAB
  0
TABLE
  2
LTYPE
  5
5
330
0
100
AcDbSymbolTable
 70
     6
  0
LTYPE
  5
14
330
5
100
AcDbSymbolTableRecord
100
AcDbLinetypeTableRecord
  2
ByBlock
 70
     0
  3

 72
    65
 73
     0
 40
0.0
  0
LTYPE
  5
15
330
5
100
AcDbSymbolTableRecord
100
AcDbLinetypeTableRecord
  2
ByLayer
 70
     0
  3

 72
    65
 73
     0
 40
0.0
  0
LTYPE
  5
16
330
5
100
AcDbSymbolTableRecord
100
AcDbLinetypeTableRecord
  2
Continuous
 70
     0
  3
Solid line
 72
    65
 73
     0
 40
0.0
  0
LTYPE
  5
5E
330
5
100
AcDbSymbolTableRecord
100
AcDbLinetypeTableRecord
  2
HIDDEN
 70
     0
  3
Hidden __ __ __ __ __ __ __ __ __ __ __ __ __ __
 72
    65
 73
     2
 40
1.905
 49
1.27
 74
     0
 49
-0.635
 74
     0
  0
LTYPE
  5
5F
330
5
100
AcDbSymbolTableRecord
100
AcDbLinetypeTableRecord
  2
PHANTOM
 70
     0
  3
Phantom ______  __  __  ______  __  __  ______
 72
    65
 73
     6
 40
12.7
 49
6.35
 74
     0
 49
-1.27
 74
     0
 49
1.27
 74
     0
 49
-1.27
 74
     0
 49
1.27
 74
     0
 49
-1.27
 74
     0
  0
LTYPE
  5
60
330
5
100
AcDbSymbolTableRecord
100
AcDbLinetypeTableRecord
  2
CENTER
 70
     0
  3
Center ____ _ ____ _ ____ _ ____ _ ____ _ ____
 72
    65
 73
     4
 40
10.16
 49
6.35
 74
     0
 49
-1.27
 74
     0
 49
1.27
 74
     0
 49
-1.27
 74
     0
  0
LTYPE
  5
61
330
5
100
AcDbSymbolTableRecord
100
AcDbLinetypeTableRecord
  2
CENTERX2
 70
     0
  3
Center (2x) ________  __  ________  __  _____
 72
    65
 73
     4
 40
20.32
 49
12.7
 74
     0
 49
-2.54
 74
     0
 49
2.54
 74
     0
 49
-2.54
 74
     0
  0
LTYPE
  5
62
330
5
100
AcDbSymbolTableRecord
100
AcDbLinetypeTableRecord
  2
DOT2
 70
     0
  3
Dot (.5x) ........................................
 72
    65
 73
     2
 40
0.635
 49
0.0
 74
     0
 49
-0.635
 74
     0
  0
ENDTAB
  0
TABLE
  2
LAYER
  5
2
330
0
100
AcDbSymbolTable
 70
     1
  0
LAYER
  5
10
330
2
100
AcDbSymbolTableRecord
100
AcDbLayerTableRecord
  2
0
 70
     0
 62
     7
  6
Continuous
370
    -3
390
F
  0
ENDTAB
  0
TABLE
  2
STYLE
  5
3
330
0
100
AcDbSymbolTable
 70
     1
  0
STYLE
  5
11
330
3
100
AcDbSymbolTableRecord
100
AcDbTextStyleTableRecord
  2
Standard
 70
     0
 40
0.0
 41
1.0
 50
0.0
 71
     0
 42
3.5
  3
txt
  4

  0
ENDTAB
  0
TABLE
  2
VIEW
  5
6
330
0
100
AcDbSymbolTable
 70
     0
  0
ENDTAB
  0
TABLE
  2
UCS
  5
7
330
0
100
AcDbSymbolTable
 70
     0
  0
ENDTAB
  0
TABLE
  2
APPID
  5
9
330
0
100
AcDbSymbolTable
 70
     1
  0
APPID
  5
12
330
9
100
AcDbSymbolTableRecord
100
AcDbRegAppTableRecord
  2
ACAD
 70
     0
  0
ENDTAB
  0
TABLE
  2
DIMSTYLE
  5
A
330
0
100
AcDbSymbolTable
 70
     1
100
AcDbDimStyleTable
  0
DIMSTYLE
105
27
330
A
100
AcDbSymbolTableRecord
100
AcDbDimStyleTableRecord
  2
ISO-25
 70
     0
 41
2.5
 42
0.625
 43
3.75
 44
1.25
 73
     0
 74
     0
 77
     1
 78
     8
140
2.5
141
2.5
143
0.0393700787
147
0.625
171
     3
172
     1
178
     0
271
     2
272
     2
274
     3
278
    44
283
     0
284
     8
340
11
  0
ENDTAB
  0
TABLE
  2
BLOCK_RECORD
  5
1
330
0
100
AcDbSymbolTable
 70
     1
  0
BLOCK_RECORD
  5
1F
330
1
100
AcDbSymbolTableRecord
100
AcDbBlockTableRecord
  2
*Model_Space
340
22
  0
BLOCK_RECORD
  5
1B
330
1
100
AcDbSymbolTableRecord
100
AcDbBlockTableRecord
  2
*Paper_Space
340
1E
  0
BLOCK_RECORD
  5
23
330
1
100
AcDbSymbolTableRecord
100
AcDbBlockTableRecord
  2
*Paper_Space0
340
26
  0
ENDTAB
  0
ENDSEC
  0
SECTION
  2
BLOCKS
  0
BLOCK
  5
20
330
1F
100
AcDbEntity
  8
0
100
AcDbBlockBegin
  2
*Model_Space
 70
     0
 10
0.0
 20
0.0
 30
0.0
  3
*Model_Space
  1

  0
ENDBLK
  5
21
330
1F
100
AcDbEntity
  8
0
100
AcDbBlockEnd
  0
BLOCK
  5
1C
330
1B
100
AcDbEntity
 67
     1
  8
0
100
AcDbBlockBegin
  2
*Paper_Space
 70
     0
 10
0.0
 20
0.0
 30
0.0
  3
*Paper_Space
  1

  0
ENDBLK
  5
1D
330
1B
100
AcDbEntity
 67
     1
  8
0
100
AcDbBlockEnd
  0
BLOCK
  5
24
330
23
100
AcDbEntity
  8
0
100
AcDbBlockBegin
  2
*Paper_Space0
 70
     0
 10
0.0
 20
0.0
 30
0.0
  3
*Paper_Space0
  1

  0
ENDBLK
  5
25
330
23
100
AcDbEntity
  8
0
100
AcDbBlockEnd
  0
ENDSEC
  0
SECTION
  2
ENTITIES
  0
LINE
  5
63
330
1F
100
AcDbEntity
  8
0
  6
Continuous
 62
     7
100
AcDbLine
 10
-419.6403517275
 20
-295.8674217701
 30
0.0
 11
-268.323135913
 21
150.1640795817
 31
0.0
  0
SPLINE
  5
64
330
1F
100
AcDbEntity
  8
0
  6
Continuous
 62
     7
370
    25
100
AcDbSpline
210
0.0
220
0.0
230
1.0
 70
    11
 71
     3
 72
    39
 73
    35
 74
     0
 42
0.00000001
 43
0.00000001
 40
0.0
 40
0.0
 40
0.0
 40
0.0
 40
0.0312642684588778
 40
0.0625001254249328
 40
0.0937790152964562
 40
0.1250001879746796
 40
0.1562793391719245
 40
0.1875004476566612
 40
0.2187793769484444
 40
0.2500002378275
 40
0.2812787202263279
 40
0.3124998704971147
 40
0.3437787565064144
 40
0.3750001319101589
 40
0.4062790593498985
 40
0.4375001835621412
 40
0.4687791483330844
 40
0.5000002533123092
 40
0.5312794251080641
 40
0.5625004710690978
 40
0.5937794138662732
 40
0.6250004110685575
 40
0.6562788204291901
 40
0.687499906036291
 40
0.7187788956513929
 40
0.7500001949673893
 40
0.781279166759009
 40
0.8125002413630638
 40
0.8437792470172373
 40
0.875000320032519
 40
0.9062794899327336
 40
0.9375004960357195
 40
0.9687647309183716
 40
1.0
 40
1.0
 40
1.0
 40
1.0
 10
-3.329745634600545
 20
33.86497992410474
 30
0.0
 10
-3.285572069936024
 20
33.99525137343883
 30
0.0
 10
-3.172335675795779
 20
34.24723027097721
 30
0.0
 10
-2.929946313637077
 20
34.58346060265816
 30
0.0
 10
-2.628391449474354
 20
34.86756409373159
 30
0.0
 10
-2.275812489524465
 20
35.08548731841321
 30
0.0
 10
-1.888540049531595
 20
35.23252569363877
 30
0.0
 10
-1.47940650612649
 20
35.29893767190795
 30
0.0
 10
-1.065346144430268
 20
35.28657775941146
 30
0.0
 10
-0.6619449248359
 20
35.19136962742553
 30
0.0
 10
-0.2841340663564118
 20
35.02149787376141
 30
0.0
 10
0.052126318782153
 20
34.77916157089334
 30
0.0
 10
0.3361754901073932
 20
34.47763721419594
 30
0.0
 10
0.5541022005219332
 20
34.12506313541675
 30
0.0
 10
0.7011400682402358
 20
33.73778969560159
 30
0.0
 10
0.7675538134219173
 20
33.32865758892023
 30
0.0
 10
0.7551956030487084
 20
32.91459562260756
 30
0.0
 10
0.6599854327299925
 20
32.51119052802753
 30
0.0
 10
0.4901129601341259
 20
32.13337587773646
 30
0.0
 10
0.2477723995396031
 20
31.79711475289348
 30
0.0
 10
-0.0537533985183747
 20
31.51307014635629
 30
0.0
 10
-0.4063238127273716
 20
31.29514482209395
 30
0.0
 10
-0.7935938976147416
 20
31.14810955273528
 30
0.0
 10
-1.202723557819252
 20
31.08169615256018
 30
0.0
 10
-1.616786365952583
 20
31.0940533254519
 30
0.0
 10
-2.02019160940875
 20
31.18926365885011
 30
0.0
 10
-2.398006228119698
 20
31.35913617689589
 30
0.0
 10
-2.734267747344032
 20
31.60147532509294
 30
0.0
 10
-3.018314172465508
 20
31.90300021136439
 30
0.0
 10
-3.236242424280722
 20
32.25557449578642
 30
0.0
 10
-3.383274344898046
 20
32.64284702152198
 30
0.0
 10
-3.449696988305551
 20
33.05191701984344
 30
0.0
 10
-3.437278297618584
 20
33.46596968538862
 30
0.0
 10
-3.373878225785458
 20
33.73482930890783
 30
0.0
 10
-3.329745634600545
 20
33.86497992410473
 30
0.0
  0
SPLINE
  5
67
330
1F
100
AcDbEntity
  8
0
  6
Continuous
 62
     7
370
    25
100
AcDbSpline
210
0.0
220
0.0
230
1.0
 70
    11
 71
     3
 72
    39
 73
    35
 74
     0
 42
0.00000001
 43
0.00000001
 40
0.0
 40
0.0
 40
0.0
 40
0.0
 40
0.0312642684576161
 40
0.0625001254248717
 40
0.0937790152928833
 40
0.1250001879745893
 40
0.156279339169888
 40
0.1875004476566644
 40
0.2187793769485573
 40
0.2500002378274993
 40
0.2812787202276181
 40
0.3124998704971615
 40
0.3437787565066065
 40
0.3750001319101023
 40
0.4062790593471251
 40
0.4375001835620665
 40
0.4687791483313513
 40
0.5000002533122988
 40
0.531279425110914
 40
0.5625004710691901
 40
0.5937794138717564
 40
0.6250004110686564
 40
0.6562788204324638
 40
0.6874999060363116
 40
0.7187788956519744
 40
0.75000019496738
 40
0.7812791667607588
 40
0.8125002413631291
 40
0.84377924701684
 40
0.8750003200324297
 40
0.9062794899333765
 40
0.9375004960358249
 40
0.9687647309213386
 40
1.0
 40
1.0
 40
1.0
 40
1.0
 10
-553.3572792864265
 20
220.4630896119298
 30
0.0
 10
-553.3131057217644
 20
220.5933610612585
 30
0.0
 10
-553.1998693276178
 20
220.8453399587936
 30
0.0
 10
-552.9574799654782
 20
221.1815702904687
 30
0.0
 10
-552.6559251013108
 20
221.4656737815448
 30
0.0
 10
-552.3033461413721
 20
221.6835970062268
 30
0.0
 10
-551.9160737013689
 20
221.8306353814712
 30
0.0
 10
-551.5069401579603
 20
221.8970473597309
 30
0.0
 10
-551.0928797962559
 20
221.8846874472371
 30
0.0
 10
-550.6894785766564
 20
221.7894793152477
 30
0.0
 10
-550.3116677181752
 20
221.6196075615882
 30
0.0
 10
-549.9754073330381
 20
221.3772712587145
 30
0.0
 10
-549.6913581617263
 20
221.0757469020141
 30
0.0
 10
-549.4734314513075
 20
220.7231728232527
 30
0.0
 10
-549.3263935835917
 20
220.3358993834374
 30
0.0
 10
-549.2599798384063
 20
219.926767276765
 30
0.0
 10
-549.2723380487685
 20
219.5127053104389
 30
0.0
 10
-549.3675482191009
 20
219.1093002158492
 30
0.0
 10
-549.5374206916866
 20
218.731485565544
 30
0.0
 10
-549.7797612523113
 20
218.3952244406924
 30
0.0
 10
-550.0812870503634
 20
218.1111798341668
 30
0.0
 10
-550.4338574645868
 20
217.8932545099008
 30
0.0
 10
-550.8211275494574
 20
217.7462192405658
 30
0.0
 10
-551.2302572096617
 20
217.6798058403822
 30
0.0
 10
-551.6443200177811
 20
217.6921630132801
 30
0.0
 10
-552.0477252612441
 20
217.7873733466789
 30
0.0
 10
-552.4255398799555
 20
217.957245864719
 30
0.0
 10
-552.7618013991754
 20
218.199585012921
 30
0.0
 10
-553.0458478242784
 20
218.5011098991977
 30
0.0
 10
-553.2637760761065
 20
218.8536841836124
 30
0.0
 10
-553.4108079967443
 20
219.2409567093447
 30
0.0
 10
-553.4772306401312
 20
219.6500267076845
 30
0.0
 10
-553.4648119494323
 20
220.0640793732249
 30
0.0
 10
-553.4014118776067
 20
220.3329389967454
 30
0.0
 10
-553.3572792864265
 20
220.4630896119298
 30
0.0
  0
SPLINE
  5
68
330
1F
100
AcDbEntity
  8
0
  6
Continuous
 62
     7
370
    25
100
AcDbSpline
210
0.0
220
0.0
230
1.0
 70
    11
 71
     3
 72
    35
 73
    31
 74
     0
 42
0.00000001
 43
0.00000001
 40
0.4999999999999971
 40
0.4999999999999971
 40
0.4999999999999971
 40
0.4999999999999971
 40
0.5624999229516325
 40
0.5625008586371114
 40
0.6249997795256246
 40
0.6250011032886731
 40
0.6875002283923106
 40
0.687501163582011
 40
0.7500003361653909
 40
0.8124996691577844
 40
0.8125006052642811
 40
0.8749997262420386
 40
0.8750010511306243
 40
0.9374999825318984
 40
0.9375009193408006
 40
1.0
 40
1.062499618971763
 40
1.062500554076085
 40
1.1249995916859
 40
1.125000915657191
 40
1.187499867825461
 40
1.187500803657647
 40
1.250000379259307
 40
1.31250019435096
 40
1.312501130263988
 40
1.37499949744968
 40
1.375000826442204
 40
1.43749964801076
 40
1.437500583632418
 40
1.500000321802947
 40
1.500000321802947
 40
1.500000321802947
 40
1.500000321802947
 10
-115.0080023983439
 20
-308.4004400603552
 30
0.0
 10
-115.0963233228992
 20
-308.6607782545667
 30
0.0
 10
-115.2364677604753
 20
-308.9035394236181
 30
0.0
 10
-115.5990139824041
 20
-309.3168996864931
 30
0.0
 10
-115.8214220419881
 20
-309.4875060791001
 30
0.0
 10
-116.3145778562171
 20
-309.7306121213052
 30
0.0
 10
-116.5853379359006
 20
-309.803117547607
 30
0.0
 10
-117.133980792388
 20
-309.8390475647013
 30
0.0
 10
-117.6897619527488
 20
-309.7659007248632
 30
0.0
 10
-118.175322029123
 20
-309.4857673841782
 30
0.0
 10
-118.5888467427007
 20
-309.123416688041
 30
0.0
 10
-118.7595959725634
 20
-308.9011269035343
 30
0.0
 10
-119.0030251758928
 20
-308.4081304783145
 30
0.0
 10
-119.0757113979498
 20
-308.1374117302566
 30
0.0
 10
-119.1118965088082
 20
-307.58878198108
 30
0.0
 10
-119.0388974548547
 20
-307.0329426335526
 30
0.0
 10
-118.7586128749365
 20
-306.547425215976
 30
0.0
 10
-118.3960670619863
 20
-306.1340638111444
 30
0.0
 10
-118.173658786308
 20
-305.9634567932017
 30
0.0
 10
-117.6805034801251
 20
-305.7203502399975
 30
0.0
 10
-117.4097443471996
 20
-305.6478444738289
 30
0.0
 10
-116.8611005757245
 20
-305.6119131521019
 30
0.0
 10
-116.3053152023181
 20
-305.6850601171168
 30
0.0
 10
-115.8197519990425
 20
-305.9651964543096
 30
0.0
 10
-115.4062293537593
 20
-306.3275476621487
 30
0.0
 10
-115.2354824737889
 20
-306.5498347599994
 30
0.0
 10
-114.9920542595321
 20
-307.0428273713055
 30
0.0
 10
-114.919367681759
 20
-307.3135455003277
 30
0.0
 10
-114.8831812577363
 20
-307.8621776333777
 30
0.0
 10
-114.919681280157
 20
-308.1401012953876
 30
0.0
 10
-115.0080023983439
 20
-308.4004400603552
 30
0.0
  0
SPLINE
  5
69
330
1F
100
AcDbEntity
  8
0
  6
Continuous
 62
     7
370
    25
100
AcDbSpline
210
0.0
220
0.0
230
1.0
 70
    11
 71
     3
 72
    35
 73
    31
 74
     0
 42
0.00000001
 43
0.00000001
 40
0.4999999999999967
 40
0.4999999999999967
 40
0.4999999999999967
 40
0.4999999999999967
 40
0.5624999229516268
 40
0.5625008586371079
 40
0.6249997795256172
 40
0.62500110328866
 40
0.6875002283922991
 40
0.6875011635820034
 40
0.7500003361653726
 40
0.8124996691577737
 40
0.8125006052642754
 40
0.8749997262420379
 40
0.8750010511306303
 40
0.9374999825318897
 40
0.9375009193408033
 40
1.0
 40
1.062499618971756
 40
1.062500554076085
 40
1.124999591685899
 40
1.125000915657189
 40
1.187499867825452
 40
1.187500803657632
 40
1.250000379259309
 40
1.312500194350965
 40
1.312501130263968
 40
1.374999497449679
 40
1.375000826442205
 40
1.437499648010763
 40
1.437500583632414
 40
1.500000321802936
 40
1.500000321802936
 40
1.500000321802936
 40
1.500000321802936
 10
-626.4833791547728
 20
-8.163731301999988
 30
0.0
 10
-626.5717000793283
 20
-8.424069496211551
 30
0.0
 10
-626.7118445169043
 20
-8.666830665262859
 30
0.0
 10
-627.0743907388332
 20
-9.080190928137943
 30
0.0
 10
-627.296798798417
 20
-9.250797320745185
 30
0.0
 10
-627.7899546126459
 20
-9.493903362950086
 30
0.0
 10
-628.0607146923296
 20
-9.566408789251968
 30
0.0
 10
-628.6093575488168
 20
-9.60233880634609
 30
0.0
 10
-629.1651387091777
 20
-9.529191966507922
 30
0.0
 10
-629.6506987855516
 20
-9.24905862582326
 30
0.0
 10
-630.0642234991296
 20
-8.886707929686043
 30
0.0
 10
-630.2349727289924
 20
-8.664418145179376
 30
0.0
 10
-630.4784019323221
 20
-8.171421719959437
 30
0.0
 10
-630.5510881543792
 20
-7.900702971901485
 30
0.0
 10
-630.5872732652371
 20
-7.352073222724909
 30
0.0
 10
-630.5142742112835
 20
-6.796233875197677
 30
0.0
 10
-630.2339896313651
 20
-6.310716457621046
 30
0.0
 10
-629.871443818415
 20
-5.897355052789433
 30
0.0
 10
-629.6490355427371
 20
-5.726748034846518
 30
0.0
 10
-629.1558802365543
 20
-5.483641481642265
 30
0.0
 10
-628.8851211036286
 20
-5.411135715473692
 30
0.0
 10
-628.3364773321532
 20
-5.375204393746946
 30
0.0
 10
-627.7806919587471
 20
-5.448351358761871
 30
0.0
 10
-627.2951287554713
 20
-5.728487695954576
 30
0.0
 10
-626.8816061101882
 20
-6.090838903793694
 30
0.0
 10
-626.7108592302179
 20
-6.313126001644243
 30
0.0
 10
-626.467431015961
 20
-6.806118612950329
 30
0.0
 10
-626.3947444381879
 20
-7.076836741972792
 30
0.0
 10
-626.358558014165
 20
-7.625468875022579
 30
0.0
 10
-626.3950580365859
 20
-7.90339253703265
 30
0.0
 10
-626.4833791547728
 20
-8.163731301999988
 30
0.0
  0
SPLINE
  5
6A
330
1F
100
AcDbEntity
  8
0
  6
Continuous
 62
     7
370
    25
100
AcDbSpline
210
0.0
220
0.0
230
1.0
 70
    11
 71
     3
 72
    35
 73
    31
 74
     0
 42
0.00000001
 43
0.00000001
 40
0.4999999999999958
 40
0.4999999999999958
 40
0.4999999999999958
 40
0.4999999999999958
 40
0.5624999229516243
 40
0.5625008586370972
 40
0.6249997795256272
 40
0.6250011032886607
 40
0.6875002283923135
 40
0.6875011635819999
 40
0.7500003361653758
 40
0.8124996691577782
 40
0.8125006052642769
 40
0.874999726242039
 40
0.875001051130623
 40
0.9374999825318886
 40
0.9375009193408046
 40
1.0
 40
1.062499618971761
 40
1.062500554076079
 40
1.124999591685907
 40
1.125000915657187
 40
1.187499867825465
 40
1.187500803657646
 40
1.250000379259313
 40
1.312500194350954
 40
1.312501130263981
 40
1.374999497449675
 40
1.3750008264422
 40
1.437499648010759
 40
1.437500583632414
 40
1.500000321802927
 40
1.500000321802927
 40
1.500000321802927
 40
1.500000321802927
 10
-76.45584550294684
 20
-194.761840989825
 30
0.0
 10
-76.54416642750218
 20
-195.0221791840366
 30
0.0
 10
-76.68431086507799
 20
-195.264940353088
 30
0.0
 10
-77.04685708700676
 20
-195.6783006159631
 30
0.0
 10
-77.26926514659088
 20
-195.8489070085702
 30
0.0
 10
-77.76242096082004
 20
-196.0920130507751
 30
0.0
 10
-78.03318104050346
 20
-196.1645184770769
 30
0.0
 10
-78.58182389699081
 20
-196.2004484941712
 30
0.0
 10
-79.13760505735154
 20
-196.1273016543331
 30
0.0
 10
-79.62316513372569
 20
-195.8471683136482
 30
0.0
 10
-80.03668984730355
 20
-195.484817617511
 30
0.0
 10
-80.20743907716627
 20
-195.2625278330043
 30
0.0
 10
-80.45086828049585
 20
-194.7695314077845
 30
0.0
 10
-80.52355450255305
 20
-194.4988126597265
 30
0.0
 10
-80.55973961341117
 20
-193.95018291055
 30
0.0
 10
-80.48674055945737
 20
-193.3943435630226
 30
0.0
 10
-80.20645597953934
 20
-192.9088261454461
 30
0.0
 10
-79.84391016658921
 20
-192.4954647406145
 30
0.0
 10
-79.62150189091093
 20
-192.3248577226716
 30
0.0
 10
-79.128346584728
 20
-192.0817511694673
 30
0.0
 10
-78.85758745180249
 20
-192.0092454032989
 30
0.0
 10
-78.30894368032735
 20
-191.973314081572
 30
0.0
 10
-77.75315830692098
 20
-192.0464610465867
 30
0.0
 10
-77.2675951036455
 20
-192.3265973837796
 30
0.0
 10
-76.85407245836218
 20
-192.6889485916188
 30
0.0
 10
-76.68332557839186
 20
-192.9112356894694
 30
0.0
 10
-76.43989736413471
 20
-193.4042283007755
 30
0.0
 10
-76.36721078636174
 20
-193.6749464297978
 30
0.0
 10
-76.33102436233918
 20
-194.2235785628476
 30
0.0
 10
-76.36752438475999
 20
-194.5015022248575
 30
0.0
 10
-76.45584550294684
 20
-194.761840989825
 30
0.0
  0
SPLINE
  5
6B
330
1F
100
AcDbEntity
  8
0
  6
Continuous
 62
     7
370
    25
100
AcDbSpline
210
0.0
220
0.0
230
1.0
 70
    11
 71
     3
 72
    35
 73
    31
 74
     0
 42
0.00000001
 43
0.00000001
 40
0.4999999999999993
 40
0.4999999999999993
 40
0.4999999999999993
 40
0.4999999999999993
 40
0.5624999229516265
 40
0.5625008586370979
 40
0.624999779525617
 40
0.625001103288652
 40
0.6875002283923108
 40
0.6875011635820023
 40
0.7500003361653818
 40
0.8124996691577702
 40
0.8125006052642771
 40
0.8749997262420373
 40
0.875001051130621
 40
0.9374999825318924
 40
0.9375009193408048
 40
1.0
 40
1.062499618971761
 40
1.062500554076085
 40
1.124999591685905
 40
1.125000915657172
 40
1.18749986782545
 40
1.187500803657646
 40
1.250000379259303
 40
1.312500194350949
 40
1.31250113026397
 40
1.374999497449679
 40
1.375000826442191
 40
1.437499648010751
 40
1.437500583632415
 40
1.500000321802926
 40
1.500000321802926
 40
1.500000321802926
 40
1.500000321802926
 10
-587.9312222593755
 20
105.47486776853
 30
0.0
 10
-588.0195431839308
 20
105.2145295743184
 30
0.0
 10
-588.1596876215069
 20
104.9717684052671
 30
0.0
 10
-588.5222338434357
 20
104.558408142392
 30
0.0
 10
-588.7446419030197
 20
104.3878017497849
 30
0.0
 10
-589.2377977172488
 20
104.14469570758
 30
0.0
 10
-589.5085577969323
 20
104.0721902812781
 30
0.0
 10
-590.0572006534197
 20
104.0362602641839
 30
0.0
 10
-590.6129818137804
 20
104.1094071040219
 30
0.0
 10
-591.0985418901546
 20
104.3895404447068
 30
0.0
 10
-591.5120666037324
 20
104.7518911408442
 30
0.0
 10
-591.682815833595
 20
104.9741809253508
 30
0.0
 10
-591.9262450369247
 20
105.4671773505708
 30
0.0
 10
-591.9989312589819
 20
105.7378960986287
 30
0.0
 10
-592.0351163698402
 20
106.2865258478053
 30
0.0
 10
-591.9621173158864
 20
106.8423651953326
 30
0.0
 10
-591.681832735968
 20
107.3278826129089
 30
0.0
 10
-591.3192869230177
 20
107.7412440177405
 30
0.0
 10
-591.0968786473394
 20
107.9118510356834
 30
0.0
 10
-590.6037233411568
 20
108.1549575888877
 30
0.0
 10
-590.3329642082314
 20
108.2274633550564
 30
0.0
 10
-589.7843204367562
 20
108.2633946767832
 30
0.0
 10
-589.2285350633497
 20
108.1902477117682
 30
0.0
 10
-588.742971860074
 20
107.9101113745755
 30
0.0
 10
-588.3294492147907
 20
107.5477601667364
 30
0.0
 10
-588.1587023348206
 20
107.3254730688858
 30
0.0
 10
-587.9152741205638
 20
106.8324804575798
 30
0.0
 10
-587.8425875427905
 20
106.5617623285573
 30
0.0
 10
-587.8064011187679
 20
106.0131301955075
 30
0.0
 10
-587.8429011411886
 20
105.7352065334974
 30
0.0
 10
-587.9312222593755
 20
105.47486776853
 30
0.0
  0
SPLINE
  5
6C
330
1F
100
AcDbEntity
  8
0
  6
Continuous
 62
     7
370
    25
100
AcDbSpline
210
0.0
220
0.0
230
1.0
 70
    11
 71
     3
 72
    35
 73
    31
 74
     0
 42
0.00000001
 43
0.00000001
 40
0.5000000000000016
 40
0.5000000000000016
 40
0.5000000000000016
 40
0.5000000000000016
 40
0.5624999229516321
 40
0.5625008586370965
 40
0.624999779525631
 40
0.6250011032886658
 40
0.6875002283923104
 40
0.6875011635820025
 40
0.7500003361653758
 40
0.8124996691577786
 40
0.8125006052642807
 40
0.874999726242035
 40
0.8750010511306217
 40
0.9374999825318906
 40
0.9375009193408015
 40
1.0
 40
1.062499618971761
 40
1.06250055407608
 40
1.124999591685903
 40
1.125000915657186
 40
1.187499867825466
 40
1.187500803657646
 40
1.250000379259309
 40
1.31250019435095
 40
1.31250113026399
 40
1.374999497449667
 40
1.375000826442208
 40
1.437499648010752
 40
1.437500583632418
 40
1.500000321802927
 40
1.500000321802927
 40
1.500000321802927
 40
1.500000321802927
 10
-37.90368860754955
 20
-81.12324191929487
 30
0.0
 10
-37.99200953210482
 20
-81.38358011350655
 30
0.0
 10
-38.13215396968084
 20
-81.62634128255797
 30
0.0
 10
-38.49470019160989
 20
-82.03970154543299
 30
0.0
 10
-38.71710825119376
 20
-82.21030793804007
 30
0.0
 10
-39.21026406542286
 20
-82.45341398024497
 30
0.0
 10
-39.48102414510635
 20
-82.52591940654685
 30
0.0
 10
-40.02966700159366
 20
-82.56184942364115
 30
0.0
 10
-40.58544816195459
 20
-82.48870258380303
 30
0.0
 10
-41.07100823832871
 20
-82.20856924311809
 30
0.0
 10
-41.48453295190649
 20
-81.84621854698082
 30
0.0
 10
-41.65528218176915
 20
-81.62392876247421
 30
0.0
 10
-41.89871138509843
 20
-81.13093233725444
 30
0.0
 10
-41.97139760715552
 20
-80.86021358919638
 30
0.0
 10
-42.00758271801377
 20
-80.31158384001985
 30
0.0
 10
-41.93458366406019
 20
-79.75574449249257
 30
0.0
 10
-41.65429908414215
 20
-79.270227074916
 30
0.0
 10
-41.29175327119192
 20
-78.85686567008432
 30
0.0
 10
-41.06934499551382
 20
-78.68625865214146
 30
0.0
 10
-40.57618968933075
 20
-78.4431520989372
 30
0.0
 10
-40.3054305564054
 20
-78.37064633276869
 30
0.0
 10
-39.75678678493003
 20
-78.33471501104184
 30
0.0
 10
-39.20100141152388
 20
-78.40786197605665
 30
0.0
 10
-38.71543820824819
 20
-78.68799831324952
 30
0.0
 10
-38.30191556296484
 20
-79.05034952108852
 30
0.0
 10
-38.13116868299438
 20
-79.27263661893925
 30
0.0
 10
-37.88774046873763
 20
-79.76562923024521
 30
0.0
 10
-37.81505389096479
 20
-80.03634735926762
 30
0.0
 10
-37.77886746694212
 20
-80.58497949231747
 30
0.0
 10
-37.81536748936265
 20
-80.86290315432748
 30
0.0
 10
-37.90368860754955
 20
-81.12324191929487
 30
0.0
  0
SPLINE
  5
6D
330
1F
100
AcDbEntity
  8
0
  6
Continuous
 62
     7
370
    25
100
AcDbSpline
210
0.0
220
0.0
230
1.0
 70
    11
 71
     3
 72
    35
 73
    31
 74
     0
 42
0.00000001
 43
0.00000001
 40
0.4999999999999972
 40
0.4999999999999972
 40
0.4999999999999972
 40
0.4999999999999972
 40
0.5624999229516348
 40
0.5625008586371112
 40
0.6249997795256341
 40
0.6250011032886602
 40
0.6875002283923131
 40
0.6875011635819959
 40
0.7500003361653731
 40
0.8124996691577726
 40
0.8125006052642847
 40
0.874999726242039
 40
0.8750010511306254
 40
0.9374999825318953
 40
0.9375009193408117
 40
1.0
 40
1.06249961897176
 40
1.062500554076085
 40
1.124999591685918
 40
1.125000915657189
 40
1.187499867825458
 40
1.187500803657648
 40
1.250000379259312
 40
1.312500194350963
 40
1.312501130263983
 40
1.374999497449675
 40
1.375000826442198
 40
1.43749964801076
 40
1.43750058363241
 40
1.500000321802928
 40
1.500000321802928
 40
1.500000321802928
 40
1.500000321802928
 10
-665.0355360501696
 20
-121.8023303725301
 30
0.0
 10
-665.123856974725
 20
-122.0626685667417
 30
0.0
 10
-665.2640014123012
 20
-122.305429735793
 30
0.0
 10
-665.6265476342304
 20
-122.7187899986681
 30
0.0
 10
-665.8489556938141
 20
-122.8893963912753
 30
0.0
 10
-666.342111508043
 20
-123.1325024334801
 30
0.0
 10
-666.6128715877264
 20
-123.2050078597821
 30
0.0
 10
-667.1615144442139
 20
-123.2409378768762
 30
0.0
 10
-667.7172956045747
 20
-123.1677910370381
 30
0.0
 10
-668.2028556809489
 20
-122.8876576963532
 30
0.0
 10
-668.6163803945265
 20
-122.525307000216
 30
0.0
 10
-668.7871296243894
 20
-122.3030172157091
 30
0.0
 10
-669.030558827719
 20
-121.8100207904894
 30
0.0
 10
-669.1032450497762
 20
-121.5393020424314
 30
0.0
 10
-669.1394301606344
 20
-120.9906722932549
 30
0.0
 10
-669.0664311066806
 20
-120.4348329457276
 30
0.0
 10
-668.7861465267625
 20
-119.949315528151
 30
0.0
 10
-668.4236007138122
 20
-119.5359541233194
 30
0.0
 10
-668.201192438134
 20
-119.3653471053767
 30
0.0
 10
-667.7080371319511
 20
-119.1222405521724
 30
0.0
 10
-667.4372779990256
 20
-119.0497347860038
 30
0.0
 10
-666.8886342275504
 20
-119.0138034642768
 30
0.0
 10
-666.3328488541441
 20
-119.086950429292
 30
0.0
 10
-665.8472856508686
 20
-119.3670867664847
 30
0.0
 10
-665.4337630055853
 20
-119.7294379743237
 30
0.0
 10
-665.2630161256149
 20
-119.9517250721744
 30
0.0
 10
-665.019587911358
 20
-120.4447176834804
 30
0.0
 10
-664.9469013335854
 20
-120.7154358125028
 30
0.0
 10
-664.9107149095623
 20
-121.2640679455526
 30
0.0
 10
-664.9472149319827
 20
-121.5419916075627
 30
0.0
 10
-665.0355360501696
 20
-121.8023303725301
 30
0.0
  0
LINE
  5
76
330
1F
100
AcDbEntity
  8
0
  6
Continuous
 62
     7
370
    25
100
AcDbLine
 10
-133.3262092632
 20
-393.0001551189
 30
0.0
 11
17.9910065512
 21
53.0313462329
 31
0.0
  0
LINE
  5
77
330
1F
100
AcDbEntity
  8
0
  6
Continuous
 62
     7
370
    25
100
AcDbLine
 10
-554.6372783772
 20
247.2968129306
 30
0.0
 11
-705.9544941917
 21
-198.7346884213
 31
0.0
  0
LINE
  5
78
330
1F
100
AcDbEntity
  8
0
  6
Continuous
 62
     7
370
    25
100
AcDbLine
 10
17.9910065512
 20
53.0313462329
 30
0.0
 11
-554.6372783772
 21
247.2968129306
 31
0.0
  0
LINE
  5
79
330
1F
100
AcDbEntity
  8
0
  6
Continuous
 62
     7
370
    25
100
AcDbLine
 10
-705.9544941917
 20
-198.7346884213
 30
0.0
 11
-133.3262092632
 21
-393.0001551189
 31
0.0
  0
LINE
  5
7A
330
1F
100
AcDbEntity
  8
0
  6
Continuous
 62
     7
370
    25
100
AcDbLine
 10
-115.2848660163
 20
-308.9086135573
 30
0.0
 11
-115.0097220901
 21
-308.3998521655
 31
0.0
  0
LINE
  5
7B
330
1F
100
AcDbEntity
  8
0
  6
Continuous
 62
     7
370
    25
100
AcDbLine
 10
-665.3123996681
 20
-122.3105038695
 30
0.0
 11
-665.0372557419
 21
-121.8017424777
 31
0.0
  0
LINE
  5
7C
330
1F
100
AcDbEntity
  8
0
  6
Continuous
 62
     7
370
    25
100
AcDbLine
 10
-76.7327091209
 20
-195.2700144868
 30
0.0
 11
-76.4575651947
 21
-194.761253095
 31
0.0
  0
LINE
  5
7D
330
1F
100
AcDbEntity
  8
0
  6
Continuous
 62
     7
370
    25
100
AcDbLine
 10
-38.1805522255
 20
-81.6314154163
 30
0.0
 11
-37.9054082993
 21
-81.1226540244
 31
0.0
  0
LINE
  5
7E
330
1F
100
AcDbEntity
  8
0
  6
Continuous
 62
     7
370
    25
100
AcDbLine
 10
-588.2080858773
 20
104.9666942716
 30
0.0
 11
-587.9329419512
 21
105.4754556634
 31
0.0
  0
LINE
  5
7F
330
1F
100
AcDbEntity
  8
0
  6
Continuous
 62
     7
370
    25
100
AcDbLine
 10
-626.7602427727
 20
-8.671904799
 30
0.0
 11
-626.4850988466
 21
-8.1631434071
 31
0.0
  0
ENDSEC
  0
SECTION
  2
OBJECTS
  0
DICTIONARY
  5
C
330
0
100
AcDbDictionary
281
     1
  3
ACAD_GROUP
350
D
  3
ACAD_LAYOUT
350
1A
  3
ACAD_MLINESTYLE
350
17
  3
ACAD_PLOTSETTINGS
350
19
  3
ACAD_PLOTSTYLENAME
350
E
  3
ACAD_SCALELIST
350
47
  3
DWGPROPS
350
80
  0
DICTIONARY
  5
D
102
{ACAD_REACTORS
330
C
102
}
330
C
100
AcDbDictionary
281
     1
  0
DICTIONARY
  5
1A
102
{ACAD_REACTORS
330
C
102
}
330
C
100
AcDbDictionary
281
     1
  3
Layout1
350
1E
  3
Layout2
350
26
  3
Model
350
22
  0
DICTIONARY
  5
17
102
{ACAD_REACTORS
330
C
102
}
330
C
100
AcDbDictionary
281
     1
  3
Standard
350
18
  0
DICTIONARY
  5
19
102
{ACAD_REACTORS
330
C
102
}
330
C
100
AcDbDictionary
281
     1
  0
ACDBDICTIONARYWDFLT
  5
E
102
{ACAD_REACTORS
330
C
102
}
330
C
100
AcDbDictionary
281
     1
  3
Normal
350
F
100
AcDbDictionaryWithDefault
340
F
  0
DICTIONARY
  5
47
102
{ACAD_REACTORS
330
C
102
}
330
C
100
AcDbDictionary
281
     1
  3
A0
350
48
  3
A1
350
49
  3
A2
350
4A
  3
A3
350
4B
  3
A4
350
4C
  3
A5
350
4D
  3
A6
350
4E
  3
A7
350
4F
  3
A8
350
50
  3
A9
350
51
  3
B0
350
52
  3
B1
350
53
  3
B2
350
54
  3
B3
350
55
  3
B4
350
56
  3
B5
350
57
  3
B6
350
58
  0
XRECORD
  5
80
102
{ACAD_REACTORS
330
C
102
}
330
C
100
AcDbXrecord
280
     1
  1
DWGPROPS COOKIE
  2

  3

  4

  6

  7

  8
ttranle
  9

300
=
301
=
302
=
303
=
304
=
305
=
306
=
307
=
308
=
309
=
 40
0.0
 41
2459780.552410937
 42
2459780.552422813
  1

 90
        0
  0
LAYOUT
  5
1E
102
{ACAD_REACTORS
330
1A
102
}
330
1A
100
AcDbPlotSettings
  1

  2
none_device
  4

  6

 40
0.0
 41
0.0
 42
0.0
 43
0.0
 44
0.0
 45
0.0
 46
0.0
 47
0.0
 48
0.0
 49
0.0
140
0.0
141
0.0
142
1.0
143
1.0
 70
   688
 72
     1
 73
     0
 74
     5
  7

 75
    16
147
1.0
148
0.0
149
0.0
100
AcDbLayout
  1
Layout1
 70
     1
 71
     1
 10
0.0
 20
0.0
 11
420.0
 21
297.0
 12
0.0
 22
0.0
 32
0.0
 14
1.0000000000E+20
 24
1.0000000000E+20
 34
1.0000000000E+20
 15
-1.0000000000E+20
 25
-1.0000000000E+20
 35
-1.0000000000E+20
146
0.0
 13
0.0
 23
0.0
 33
0.0
 16
1.0
 26
0.0
 36
0.0
 17
0.0
 27
1.0
 37
0.0
 76
     0
330
1B
  0
LAYOUT
  5
26
102
{ACAD_REACTORS
330
1A
102
}
330
1A
100
AcDbPlotSettings
  1

  2
none_device
  4

  6

 40
0.0
 41
0.0
 42
0.0
 43
0.0
 44
0.0
 45
0.0
 46
0.0
 47
0.0
 48
0.0
 49
0.0
140
0.0
141
0.0
142
1.0
143
1.0
 70
   688
 72
     1
 73
     0
 74
     5
  7

 75
    16
147
1.0
148
0.0
149
0.0
100
AcDbLayout
  1
Layout2
 70
     1
 71
     2
 10
0.0
 20
0.0
 11
0.0
 21
0.0
 12
0.0
 22
0.0
 32
0.0
 14
0.0
 24
0.0
 34
0.0
 15
0.0
 25
0.0
 35
0.0
146
0.0
 13
0.0
 23
0.0
 33
0.0
 16
1.0
 26
0.0
 36
0.0
 17
0.0
 27
1.0
 37
0.0
 76
     0
330
23
  0
LAYOUT
  5
22
102
{ACAD_REACTORS
330
1A
102
}
330
1A
100
AcDbPlotSettings
  1

  2
none_device
  4
ANSI_A_(11.00_x_8.50_Inches)
  6

 40
6.35
 41
19.05
 42
6.35000508
 43
19.05000254
 44
279.4
 45
215.9
 46
248.1764070397
 47
113.2190097645
 48
0.0
 49
0.0
140
0.0
141
0.0
142
0.0131423393
143
1.0
 70
  1696
 72
     0
 73
     0
 74
     0
  7

 75
     0
147
0.0179189148
148
-1300.4909072572
149
0.0
100
AcDbLayout
  1
Model
 70
     1
 71
     0
 10
0.0
 20
0.0
 11
420.0
 21
297.0
 12
0.0
 22
0.0
 32
0.0
 14
-705.9544941917
 24
-393.0001551189
 34
0.0
 15
17.9910065512
 25
247.2968129306
 35
0.0
146
0.0
 13
0.0
 23
0.0
 33
0.0
 16
1.0
 26
0.0
 36
0.0
 17
0.0
 27
1.0
 37
0.0
 76
     0
330
1F
331
29
  0
MLINESTYLE
  5
18
102
{ACAD_REACTORS
330
17
102
}
330
17
100
AcDbMlineStyle
  2
Standard
 70
     0
  3

 62
   256
 51
90.0
 52
90.0
 71
     2
 49
0.5
 62
   256
  6
BYLAYER
 49
-0.5
 62
   256
  6
BYLAYER
  0
ACDBPLACEHOLDER
  5
F
102
{ACAD_REACTORS
330
E
102
}
330
E
  0
SCALE
  5
48
102
{ACAD_REACTORS
330
47
102
}
330
47
100
AcDbScale
 70
     0
300
1:1
140
1.0
141
1.0
290
     1
  0
SCALE
  5
49
102
{ACAD_REACTORS
330
47
102
}
330
47
100
AcDbScale
 70
     0
300
1:2
140
1.0
141
2.0
290
     0
  0
SCALE
  5
4A
102
{ACAD_REACTORS
330
47
102
}
330
47
100
AcDbScale
 70
     0
300
1:4
140
1.0
141
4.0
290
     0
  0
SCALE
  5
4B
102
{ACAD_REACTORS
330
47
102
}
330
47
100
AcDbScale
 70
     0
300
1:5
140
1.0
141
5.0
290
     0
  0
SCALE
  5
4C
102
{ACAD_REACTORS
330
47
102
}
330
47
100
AcDbScale
 70
     0
300
1:8
140
1.0
141
8.0
290
     0
  0
SCALE
  5
4D
102
{ACAD_REACTORS
330
47
102
}
330
47
100
AcDbScale
 70
     0
300
1:10
140
1.0
141
10.0
290
     0
  0
SCALE
  5
4E
102
{ACAD_REACTORS
330
47
102
}
330
47
100
AcDbScale
 70
     0
300
1:16
140
1.0
141
16.0
290
     0
  0
SCALE
  5
4F
102
{ACAD_REACTORS
330
47
102
}
330
47
100
AcDbScale
 70
     0
300
1:20
140
1.0
141
20.0
290
     0
  0
SCALE
  5
50
102
{ACAD_REACTORS
330
47
102
}
330
47
100
AcDbScale
 70
     0
300
1:30
140
1.0
141
30.0
290
     0
  0
SCALE
  5
51
102
{ACAD_REACTORS
330
47
102
}
330
47
100
AcDbScale
 70
     0
300
1:40
140
1.0
141
40.0
290
     0
  0
SCALE
  5
52
102
{ACAD_REACTORS
330
47
102
}
330
47
100
AcDbScale
 70
     0
300
1:50
140
1.0
141
50.0
290
     0
  0
SCALE
  5
53
102
{ACAD_REACTORS
330
47
102
}
330
47
100
AcDbScale
 70
     0
300
1:100
140
1.0
141
100.0
290
     0
  0
SCALE
  5
54
102
{ACAD_REACTORS
330
47
102
}
330
47
100
AcDbScale
 70
     0
300
2:1
140
2.0
141
1.0
290
     0
  0
SCALE
  5
55
102
{ACAD_REACTORS
330
47
102
}
330
47
100
AcDbScale
 70
     0
300
4:1
140
4.0
141
1.0
290
     0
  0
SCALE
  5
56
102
{ACAD_REACTORS
330
47
102
}
330
47
100
AcDbScale
 70
     0
300
8:1
140
8.0
141
1.0
290
     0
  0
SCALE
  5
57
102
{ACAD_REACTORS
330
47
102
}
330
47
100
AcDbScale
 70
     0
300
10:1
140
10.0
141
1.0
290
     0
  0
SCALE
  5
58
102
{ACAD_REACTORS
330
47
102
}
330
47
100
AcDbScale
 70
     0
300
100:1
140
100.0
141
1.0
290
     0
  0
ENDSEC
  0
EOF
