  0
SECTION
  2
HEADER
  9
$ACADVER
  1
AC1015
  9
$ACADMAINTVER
 70
     6
  9
$DWGCODEPAGE
  3
ANSI_1252
  9
$INSBASE
 10
0.0
 20
0.0
 30
0.0
  9
$EXTMIN
 10
-956.2222460376
 20
-1130.7040607518
 30
0.0
  9
$EXTMAX
 10
-335.0824970158
 20
-793.4433568904
 30
0.0
  9
$LIMMIN
 10
0.0
 20
0.0
  9
$LIMMAX
 10
420.0
 20
297.0
  9
$ORTHOMODE
 70
     0
  9
$REGENMODE
 70
     1
  9
$FILLMODE
 70
     1
  9
$QTEXTMODE
 70
     0
  9
$MIRRTEXT
 70
     1
  9
$LTSCALE
 40
1.0
  9
$ATTMODE
 70
     1
  9
$TEXTSIZE
 40
3.5
  9
$TRACEWID
 40
1.0
  9
$TEXTSTYLE
  7
Standard
  9
$CLAYER
  8
0
  9
$CELTYPE
  6
ByLayer
  9
$CECOLOR
 62
   256
  9
$CELTSCALE
 40
1.0
  9
$DISPSILH
 70
     0
  9
$DIMSCALE
 40
1.0
  9
$DIMASZ
 40
3.556
  9
$DIMEXO
 40
0.0
  9
$DIMDLI
 40
3.75
  9
$DIMRND
 40
0.0
  9
$DIMDLE
 40
0.0
  9
$DIMEXE
 40
1.0
  9
$DIMTP
 40
0.0
  9
$DIMTM
 40
0.0
  9
$DIMTXT
 40
3.5
  9
$DIMCEN
 40
2.5
  9
$DIMTSZ
 40
0.0
  9
$DIMTOL
 70
     0
  9
$DIMLIM
 70
     0
  9
$DIMTIH
 70
     1
  9
$DIMTOH
 70
     1
  9
$DIMSE1
 70
     0
  9
$DIMSE2
 70
     0
  9
$DIMTAD
 70
     1
  9
$DIMZIN
 70
     0
  9
$DIMBLK
  1

  9
$DIMASO
 70
     1
  9
$DIMSHO
 70
     1
  9
$DIMPOST
  1

  9
$DIMAPOST
  1

  9
$DIMALT
 70
     0
  9
$DIMALTD
 70
     3
  9
$DIMALTF
 40
0.0393700787
  9
$DIMLFAC
 40
1.0
  9
$DIMTOFL
 70
     1
  9
$DIMTVP
 40
0.0
  9
$DIMTIX
 70
     0
  9
$DIMSOXD
 70
     0
  9
$DIMSAH
 70
     0
  9
$DIMBLK1
  1

  9
$DIMBLK2
  1

  9
$DIMSTYLE
  2
ISO-25
  9
$DIMCLRD
 70
     0
  9
$DIMCLRE
 70
     0
  9
$DIMCLRT
 70
     0
  9
$DIMTFAC
 40
1.0
  9
$DIMGAP
 40
1.524
  9
$DIMJUST
 70
     0
  9
$DIMSD1
 70
     0
  9
$DIMSD2
 70
     0
  9
$DIMTOLJ
 70
     0
  9
$DIMTZIN
 70
     0
  9
$DIMALTZ
 70
     0
  9
$DIMALTTZ
 70
     0
  9
$DIMUPT
 70
     0
  9
$DIMDEC
 70
     2
  9
$DIMTDEC
 70
     2
  9
$DIMALTU
 70
     2
  9
$DIMALTTD
 70
     3
  9
$DIMTXSTY
  7
Standard
  9
$DIMAUNIT
 70
     0
  9
$DIMADEC
 70
     0
  9
$DIMALTRND
 40
0.0
  9
$DIMAZIN
 70
     0
  9
$DIMDSEP
 70
    44
  9
$DIMATFIT
 70
     3
  9
$DIMFRAC
 70
     0
  9
$DIMLDRBLK
  1

  9
$DIMLUNIT
 70
     2
  9
$DIMLWD
 70
    -2
  9
$DIMLWE
 70
    -2
  9
$DIMTMOVE
 70
     0
  9
$LUNITS
 70
     2
  9
$LUPREC
 70
     0
  9
$SKETCHINC
 40
1.0
  9
$FILLETRAD
 40
0.0
  9
$AUNITS
 70
     0
  9
$AUPREC
 70
     0
  9
$MENU
  1
.
  9
$ELEVATION
 40
0.0
  9
$PELEVATION
 40
0.0
  9
$THICKNESS
 40
0.0
  9
$LIMCHECK
 70
     0
  9
$CHAMFERA
 40
0.0
  9
$CHAMFERB
 40
0.0
  9
$CHAMFERC
 40
0.0
  9
$CHAMFERD
 40
0.0
  9
$SKPOLY
 70
     0
  9
$TDCREATE
 40
2459780.635997234
  9
$TDUCREATE
 40
2459780.5526639
  9
$TDUPDATE
 40
2459780.636008067
  9
$TDUUPDATE
 40
2459780.552674734
  9
$TDINDWG
 40
0.0000000116
  9
$TDUSRTIMER
 40
0.0000000116
  9
$USRTIMER
 70
     1
  9
$ANGBASE
 50
0.0
  9
$ANGDIR
 70
     0
  9
$PDMODE
 70
     0
  9
$PDSIZE
 40
-1.0
  9
$PLINEWID
 40
0.0
  9
$SPLFRAME
 70
     0
  9
$SPLINETYPE
 70
     6
  9
$SPLINESEGS
 70
     8
  9
$HANDSEED
  5
7B
  9
$SURFTAB1
 70
     6
  9
$SURFTAB2
 70
     6
  9
$SURFTYPE
 70
     6
  9
$SURFU
 70
     6
  9
$SURFV
 70
     6
  9
$UCSBASE
  2

  9
$UCSNAME
  2

  9
$UCSORG
 10
0.0
 20
0.0
 30
0.0
  9
$UCSXDIR
 10
1.0
 20
0.0
 30
0.0
  9
$UCSYDIR
 10
0.0
 20
1.0
 30
0.0
  9
$UCSORTHOREF
  2

  9
$UCSORTHOVIEW
 70
     0
  9
$UCSORGTOP
 10
0.0
 20
0.0
 30
0.0
  9
$UCSORGBOTTOM
 10
0.0
 20
0.0
 30
0.0
  9
$UCSORGLEFT
 10
0.0
 20
0.0
 30
0.0
  9
$UCSORGRIGHT
 10
0.0
 20
0.0
 30
0.0
  9
$UCSORGFRONT
 10
0.0
 20
0.0
 30
0.0
  9
$UCSORGBACK
 10
0.0
 20
0.0
 30
0.0
  9
$PUCSBASE
  2

  9
$PUCSNAME
  2

  9
$PUCSORG
 10
0.0
 20
0.0
 30
0.0
  9
$PUCSXDIR
 10
1.0
 20
0.0
 30
0.0
  9
$PUCSYDIR
 10
0.0
 20
1.0
 30
0.0
  9
$PUCSORTHOREF
  2

  9
$PUCSORTHOVIEW
 70
     0
  9
$PUCSORGTOP
 10
0.0
 20
0.0
 30
0.0
  9
$PUCSORGBOTTOM
 10
0.0
 20
0.0
 30
0.0
  9
$PUCSORGLEFT
 10
0.0
 20
0.0
 30
0.0
  9
$PUCSORGRIGHT
 10
0.0
 20
0.0
 30
0.0
  9
$PUCSORGFRONT
 10
0.0
 20
0.0
 30
0.0
  9
$PUCSORGBACK
 10
0.0
 20
0.0
 30
0.0
  9
$USERI1
 70
     0
  9
$USERI2
 70
     0
  9
$USERI3
 70
     0
  9
$USERI4
 70
     0
  9
$USERI5
 70
     0
  9
$USERR1
 40
0.0
  9
$USERR2
 40
0.0
  9
$USERR3
 40
0.0
  9
$USERR4
 40
0.0
  9
$USERR5
 40
0.0
  9
$WORLDVIEW
 70
     1
  9
$SHADEDGE
 70
     3
  9
$SHADEDIF
 70
    70
  9
$TILEMODE
 70
     1
  9
$MAXACTVP
 70
    64
  9
$PINSBASE
 10
0.0
 20
0.0
 30
0.0
  9
$PLIMCHECK
 70
     0
  9
$PEXTMIN
 10
1.0000000000E+20
 20
1.0000000000E+20
 30
1.0000000000E+20
  9
$PEXTMAX
 10
-1.0000000000E+20
 20
-1.0000000000E+20
 30
-1.0000000000E+20
  9
$PLIMMIN
 10
0.0
 20
0.0
  9
$PLIMMAX
 10
420.0
 20
297.0
  9
$UNITMODE
 70
     0
  9
$VISRETAIN
 70
     1
  9
$PLINEGEN
 70
     0
  9
$PSLTSCALE
 70
     1
  9
$TREEDEPTH
 70
  3020
  9
$CMLSTYLE
  2
Standard
  9
$CMLJUST
 70
     0
  9
$CMLSCALE
 40
20.0
  9
$PROXYGRAPHICS
 70
     1
  9
$MEASUREMENT
 70
     1
  9
$CELWEIGHT
370
    -1
  9
$ENDCAPS
280
     0
  9
$JOINSTYLE
280
     0
  9
$LWDISPLAY
290
     1
  9
$INSUNITS
 70
     4
  9
$HYPERLINKBASE
  1

  9
$STYLESHEET
  1

  9
$XEDIT
290
     1
  9
$CEPSNTYPE
380
     0
  9
$PSTYLEMODE
290
     1
  9
$FINGERPRINTGUID
  2
{dd336060-f9ff-47e2-8e24-d11d1e9f85e7}
  9
$VERSIONGUID
  2
{FAEB1C32-E019-11D5-929B-00C0DF256EC4}
  9
$EXTNAMES
290
     1
  9
$PSVPSCALE
 40
0.0
  9
$OLESTARTUP
290
     0
  0
ENDSEC
  0
SECTION
  2
CLASSES
  0
CLASS
  1
ACDBDICTIONARYWDFLT
  2
AcDbDictionaryWithDefault
  3
ObjectDBX Classes
 90
        0
280
     0
281
     0
  0
CLASS
  1
VISUALSTYLE
  2
AcDbVisualStyle
  3
ObjectDBX Classes
 90
     4095
280
     0
281
     0
  0
CLASS
  1
MATERIAL
  2
AcDbMaterial
  3
ObjectDBX Classes
 90
     1153
280
     0
281
     0
  0
CLASS
  1
SCALE
  2
AcDbScale
  3
ObjectDBX Classes
 90
     1153
280
     0
281
     0
  0
CLASS
  1
TABLESTYLE
  2
AcDbTableStyle
  3
ObjectDBX Classes
 90
     4095
280
     0
281
     0
  0
CLASS
  1
MLEADERSTYLE
  2
AcDbMLeaderStyle
  3
ACDB_MLEADERSTYLE_CLASS
 90
     4095
280
     0
281
     0
  0
CLASS
  1
SUN
  2
AcDbSun
  3
SCENEOE
 90
     1153
280
     0
281
     0
  0
CLASS
  1
ACDBPLACEHOLDER
  2
AcDbPlaceHolder
  3
ObjectDBX Classes
 90
        0
280
     0
281
     0
  0
CLASS
  1
LAYOUT
  2
AcDbLayout
  3
ObjectDBX Classes
 90
        0
280
     0
281
     0
  0
ENDSEC
  0
SECTION
  2
TABLES
  0
TABLE
  2
VPORT
  5
8
330
0
100
AcDbSymbolTable
 70
     1
  0
VPORT
  5
29
330
8
100
AcDbSymbolTableRecord
100
AcDbViewportTableRecord
  2
*Active
 70
     0
 10
0.0
 20
0.0
 11
1.0
 21
1.0
 12
-645.6523715267
 22
-962.0737088211
 13
0.0
 23
0.0
 14
10.0
 24
10.0
 15
10.0
 25
10.0
 16
0.0
 26
0.0
 36
1.0
 17
0.0
 27
0.0
 37
0.0
 40
344.0059179386
 41
1.8417198977
 42
50.0
 43
0.0
 44
0.0
 50
0.0
 51
0.0
 71
     0
 72
   100
 73
     1
 74
     3
 75
     0
 76
     0
 77
     0
 78
     0
281
     0
 65
     1
110
0.0
120
0.0
130
0.0
111
1.0
121
0.0
131
0.0
112
0.0
122
1.0
132
0.0
 79
     0
146
0.0
  0
ENDTAB
  0
TABLE
  2
LTYPE
  5
5
330
0
100
AcDbSymbolTable
 70
     6
  0
LTYPE
  5
14
330
5
100
AcDbSymbolTableRecord
100
AcDbLinetypeTableRecord
  2
ByBlock
 70
     0
  3

 72
    65
 73
     0
 40
0.0
  0
LTYPE
  5
15
330
5
100
AcDbSymbolTableRecord
100
AcDbLinetypeTableRecord
  2
ByLayer
 70
     0
  3

 72
    65
 73
     0
 40
0.0
  0
LTYPE
  5
16
330
5
100
AcDbSymbolTableRecord
100
AcDbLinetypeTableRecord
  2
Continuous
 70
     0
  3
Solid line
 72
    65
 73
     0
 40
0.0
  0
LTYPE
  5
5E
330
5
100
AcDbSymbolTableRecord
100
AcDbLinetypeTableRecord
  2
HIDDEN
 70
     0
  3
Hidden __ __ __ __ __ __ __ __ __ __ __ __ __ __
 72
    65
 73
     2
 40
1.905
 49
1.27
 74
     0
 49
-0.635
 74
     0
  0
LTYPE
  5
5F
330
5
100
AcDbSymbolTableRecord
100
AcDbLinetypeTableRecord
  2
PHANTOM
 70
     0
  3
Phantom ______  __  __  ______  __  __  ______
 72
    65
 73
     6
 40
12.7
 49
6.35
 74
     0
 49
-1.27
 74
     0
 49
1.27
 74
     0
 49
-1.27
 74
     0
 49
1.27
 74
     0
 49
-1.27
 74
     0
  0
LTYPE
  5
60
330
5
100
AcDbSymbolTableRecord
100
AcDbLinetypeTableRecord
  2
CENTER
 70
     0
  3
Center ____ _ ____ _ ____ _ ____ _ ____ _ ____
 72
    65
 73
     4
 40
10.16
 49
6.35
 74
     0
 49
-1.27
 74
     0
 49
1.27
 74
     0
 49
-1.27
 74
     0
  0
LTYPE
  5
61
330
5
100
AcDbSymbolTableRecord
100
AcDbLinetypeTableRecord
  2
CENTERX2
 70
     0
  3
Center (2x) ________  __  ________  __  _____
 72
    65
 73
     4
 40
20.32
 49
12.7
 74
     0
 49
-2.54
 74
     0
 49
2.54
 74
     0
 49
-2.54
 74
     0
  0
LTYPE
  5
62
330
5
100
AcDbSymbolTableRecord
100
AcDbLinetypeTableRecord
  2
DOT2
 70
     0
  3
Dot (.5x) ........................................
 72
    65
 73
     2
 40
0.635
 49
0.0
 74
     0
 49
-0.635
 74
     0
  0
ENDTAB
  0
TABLE
  2
LAYER
  5
2
330
0
100
AcDbSymbolTable
 70
     1
  0
LAYER
  5
10
330
2
100
AcDbSymbolTableRecord
100
AcDbLayerTableRecord
  2
0
 70
     0
 62
     7
  6
Continuous
370
    -3
390
F
  0
ENDTAB
  0
TABLE
  2
STYLE
  5
3
330
0
100
AcDbSymbolTable
 70
     1
  0
STYLE
  5
11
330
3
100
AcDbSymbolTableRecord
100
AcDbTextStyleTableRecord
  2
Standard
 70
     0
 40
0.0
 41
1.0
 50
0.0
 71
     0
 42
3.5
  3
txt
  4

  0
ENDTAB
  0
TABLE
  2
VIEW
  5
6
330
0
100
AcDbSymbolTable
 70
     0
  0
ENDTAB
  0
TABLE
  2
UCS
  5
7
330
0
100
AcDbSymbolTable
 70
     0
  0
ENDTAB
  0
TABLE
  2
APPID
  5
9
330
0
100
AcDbSymbolTable
 70
     1
  0
APPID
  5
12
330
9
100
AcDbSymbolTableRecord
100
AcDbRegAppTableRecord
  2
ACAD
 70
     0
  0
ENDTAB
  0
TABLE
  2
DIMSTYLE
  5
A
330
0
100
AcDbSymbolTable
 70
     1
100
AcDbDimStyleTable
  0
DIMSTYLE
105
27
330
A
100
AcDbSymbolTableRecord
100
AcDbDimStyleTableRecord
  2
ISO-25
 70
     0
 41
2.5
 42
0.625
 43
3.75
 44
1.25
 73
     0
 74
     0
 77
     1
 78
     8
140
2.5
141
2.5
143
0.0393700787
147
0.625
171
     3
172
     1
178
     0
271
     2
272
     2
274
     3
278
    44
283
     0
284
     8
340
11
  0
ENDTAB
  0
TABLE
  2
BLOCK_RECORD
  5
1
330
0
100
AcDbSymbolTable
 70
     1
  0
BLOCK_RECORD
  5
1F
330
1
100
AcDbSymbolTableRecord
100
AcDbBlockTableRecord
  2
*Model_Space
340
22
  0
BLOCK_RECORD
  5
1B
330
1
100
AcDbSymbolTableRecord
100
AcDbBlockTableRecord
  2
*Paper_Space
340
1E
  0
BLOCK_RECORD
  5
23
330
1
100
AcDbSymbolTableRecord
100
AcDbBlockTableRecord
  2
*Paper_Space0
340
26
  0
ENDTAB
  0
ENDSEC
  0
SECTION
  2
BLOCKS
  0
BLOCK
  5
20
330
1F
100
AcDbEntity
  8
0
100
AcDbBlockBegin
  2
*Model_Space
 70
     0
 10
0.0
 20
0.0
 30
0.0
  3
*Model_Space
  1

  0
ENDBLK
  5
21
330
1F
100
AcDbEntity
  8
0
100
AcDbBlockEnd
  0
BLOCK
  5
1C
330
1B
100
AcDbEntity
 67
     1
  8
0
100
AcDbBlockBegin
  2
*Paper_Space
 70
     0
 10
0.0
 20
0.0
 30
0.0
  3
*Paper_Space
  1

  0
ENDBLK
  5
1D
330
1B
100
AcDbEntity
 67
     1
  8
0
100
AcDbBlockEnd
  0
BLOCK
  5
24
330
23
100
AcDbEntity
  8
0
100
AcDbBlockBegin
  2
*Paper_Space0
 70
     0
 10
0.0
 20
0.0
 30
0.0
  3
*Paper_Space0
  1

  0
ENDBLK
  5
25
330
23
100
AcDbEntity
  8
0
100
AcDbBlockEnd
  0
ENDSEC
  0
SECTION
  2
ENTITIES
  0
LINE
  5
63
330
1F
100
AcDbEntity
  8
0
  6
CENTERX2
 62
     7
100
AcDbLine
 10
-669.9081035734
 20
-1033.571327403
 30
0.0
 11
-628.4966617279
 21
-911.5045322925
 31
0.0
  0
LINE
  5
64
330
1F
100
AcDbEntity
  8
0
  6
CENTERX2
 62
     7
100
AcDbLine
 10
-627.1473362134
 20
-907.5271812569
 30
0.0
 11
-621.39663948
 21
-890.5760902392
 31
0.0
  0
SPLINE
  5
65
330
1F
100
AcDbEntity
  8
0
  6
Continuous
 62
     7
370
    25
100
AcDbSpline
210
0.0
220
0.0
230
1.0
 70
    11
 71
     3
 72
    39
 73
    35
 74
     0
 42
0.00000001
 43
0.00000001
 40
0.0
 40
0.0
 40
0.0
 40
0.0
 40
0.0312352690843388
 40
0.0624995039643532
 40
0.0937205100737486
 40
0.1249996799675978
 40
0.1562207529842134
 40
0.1874997586368201
 40
0.218720833237725
 40
0.2499998050325423
 40
0.2812211043474604
 40
0.3125000939636717
 40
0.3437211795667989
 40
0.3749995889312575
 40
0.406220586127219
 40
0.4374995289307705
 40
0.4687205748866226
 40
0.499999746687599
 40
0.53122085166604
 40
0.5624998164378989
 40
0.5937209406501263
 40
0.6249998680897796
 40
0.6562212434928476
 40
0.6875001295029015
 40
0.718721279779129
 40
0.7499997621726502
 40
0.7812206230564448
 40
0.8124995523433264
 40
0.8437206608285237
 40
0.8749998120252871
 40
0.9062209847042402
 40
0.9374998745750669
 40
0.9687357315417895
 40
1.0
 40
1.0
 40
1.0
 40
1.0
 10
-629.8106761568748
 20
-908.8411934249848
 30
0.0
 10
-629.766505353107
 20
-908.7110557734819
 30
0.0
 10
-629.6532238858263
 20
-908.4591185284415
 30
0.0
 10
-629.4111387341663
 20
-908.1229807395919
 30
0.0
 10
-629.1095189908835
 20
-907.838769970029
 30
0.0
 10
-628.7571930351994
 20
-907.6209057558293
 30
0.0
 10
-628.3697185893116
 20
-907.473715733298
 30
0.0
 10
-627.9608367284924
 20
-907.4072683665754
 30
0.0
 10
-627.5465313234425
 20
-907.41956077897
 30
0.0
 10
-627.1433445316042
 20
-907.5146447912031
 30
0.0
 10
-626.7652796922565
 20
-907.6845499862202
 30
0.0
 10
-626.4291712865196
 20
-907.9266901282471
 30
0.0
 10
-626.1449075465821
 20
-908.2283388390691
 30
0.0
 10
-625.9270473069927
 20
-908.5806659669868
 30
0.0
 10
-625.7798585743637
 20
-908.9681357347516
 30
0.0
 10
-625.7134093775371
 20
-909.3770167071875
 30
0.0
 10
-625.7257004291134
 20
-909.7913226587066
 30
0.0
 10
-625.8207844966284
 20
-910.1945094479527
 30
0.0
 10
-625.9906897304605
 20
-910.5725740699439
 30
0.0
 10
-626.2328285369717
 20
-910.9086824389175
 30
0.0
 10
-626.5344790101989
 20
-911.1929479103871
 30
0.0
 10
-626.8868102415179
 20
-911.4108092313297
 30
0.0
 10
-627.274283339077
 20
-911.5580000286259
 30
0.0
 10
-627.683167057027
 20
-911.6244453040576
 30
0.0
 10
-628.0974698307969
 20
-911.6121513237572
 30
0.0
 10
-628.5006531735297
 20
-911.5170689929089
 30
0.0
 10
-628.8787134800975
 20
-911.347164499315
 30
0.0
 10
-629.2148216114044
 20
-911.1050280199602
 30
0.0
 10
-629.4990892981286
 20
-910.8033780747188
 30
0.0
 10
-629.7169495168273
 20
-910.4510470490092
 30
0.0
 10
-629.8641463086597
 20
-910.0635737475701
 30
0.0
 10
-629.93058274187
 20
-909.6546283599143
 30
0.0
 10
-629.9183491547624
 20
-909.2403171505866
 30
0.0
 10
-629.8548879695948
 20
-908.9714518985749
 30
0.0
 10
-629.8106761568749
 20
-908.8411934249847
 30
0.0
  0
SPLINE
  5
6A
330
1F
100
AcDbEntity
  8
0
  6
Continuous
 62
     7
370
    25
100
AcDbSpline
210
0.0
220
0.0
230
1.0
 70
    11
 71
     3
 72
    35
 73
    31
 74
     0
 42
0.00000001
 43
0.00000001
 40
0.5000000000000288
 40
0.5000000000000288
 40
0.5000000000000288
 40
0.5000000000000288
 40
0.5624999229516473
 40
0.562500858637088
 40
0.6249997795256249
 40
0.6250011032886366
 40
0.687500228392301
 40
0.6875011635819844
 40
0.7500003361653608
 40
0.8124996691577658
 40
0.8125006052642768
 40
0.874999726242024
 40
0.8750010511306033
 40
0.9374999825318627
 40
0.9375009193408036
 40
0.9999999999999999
 40
1.062499618971747
 40
1.062500554076043
 40
1.124999591685883
 40
1.125000915657155
 40
1.187499867825447
 40
1.187500803657619
 40
1.250000379259298
 40
1.312500194350939
 40
1.312501130263978
 40
1.374999497449666
 40
1.375000826442204
 40
1.437499648010746
 40
1.437500583632421
 40
1.50000032180289
 40
1.50000032180289
 40
1.50000032180289
 40
1.50000032180289
 10
-384.8731006661235
 20
-1103.870633554066
 30
0.0
 10
-384.961421590679
 20
-1104.130971748277
 30
0.0
 10
-385.101566028255
 20
-1104.373732917329
 30
0.0
 10
-385.464112250184
 20
-1104.787093180204
 30
0.0
 10
-385.6865203097678
 20
-1104.957699572811
 30
0.0
 10
-386.1796761239967
 20
-1105.200805615016
 30
0.0
 10
-386.4504362036803
 20
-1105.273311041318
 30
0.0
 10
-386.9990790601675
 20
-1105.309241058412
 30
0.0
 10
-387.5548602205283
 20
-1105.236094218574
 30
0.0
 10
-388.0404202969027
 20
-1104.955960877889
 30
0.0
 10
-388.4539450104807
 20
-1104.593610181752
 30
0.0
 10
-388.6246942403434
 20
-1104.371320397246
 30
0.0
 10
-388.8681234436729
 20
-1103.878323972026
 30
0.0
 10
-388.9408096657298
 20
-1103.607605223968
 30
0.0
 10
-388.9769947765879
 20
-1103.058975474791
 30
0.0
 10
-388.9039957226345
 20
-1102.503136127263
 30
0.0
 10
-388.6237111427162
 20
-1102.017618709687
 30
0.0
 10
-388.2611653297661
 20
-1101.604257304856
 30
0.0
 10
-388.0387570540879
 20
-1101.433650286912
 30
0.0
 10
-387.545601747905
 20
-1101.190543733709
 30
0.0
 10
-387.2748426149795
 20
-1101.11803796754
 30
0.0
 10
-386.7261988435042
 20
-1101.082106645813
 30
0.0
 10
-386.1704134700979
 20
-1101.155253610827
 30
0.0
 10
-385.6848502668221
 20
-1101.43538994802
 30
0.0
 10
-385.2713276215389
 20
-1101.79774115586
 30
0.0
 10
-385.1005807415684
 20
-1102.020028253711
 30
0.0
 10
-384.8571525273117
 20
-1102.513020865016
 30
0.0
 10
-384.7844659495387
 20
-1102.783738994039
 30
0.0
 10
-384.748279525516
 20
-1103.332371127089
 30
0.0
 10
-384.7847795479368
 20
-1103.610294789099
 30
0.0
 10
-384.8731006661235
 20
-1103.870633554066
 30
0.0
  0
SPLINE
  5
6B
330
1F
100
AcDbEntity
  8
0
  6
Continuous
 62
     7
370
    25
100
AcDbSpline
210
0.0
220
0.0
230
1.0
 70
    11
 71
     3
 72
    35
 73
    31
 74
     0
 42
0.00000001
 43
0.00000001
 40
0.4999999999999858
 40
0.4999999999999858
 40
0.4999999999999858
 40
0.4999999999999858
 40
0.5624999229516363
 40
0.5625008586371041
 40
0.6249997795256155
 40
0.6250011032886806
 40
0.6875002283923133
 40
0.687501163582033
 40
0.7500003361653949
 40
0.8124996691577897
 40
0.8125006052642902
 40
0.8749997262420481
 40
0.875001051130641
 40
0.9374999825319048
 40
0.9375009193408197
 40
1.0
 40
1.062499618971783
 40
1.062500554076114
 40
1.124999591685927
 40
1.125000915657221
 40
1.187499867825498
 40
1.187500803657676
 40
1.250000379259328
 40
1.312500194350978
 40
1.312501130264014
 40
1.374999497449692
 40
1.375000826442217
 40
1.437499648010773
 40
1.437500583632453
 40
1.500000321802938
 40
1.500000321802938
 40
1.500000321802938
 40
1.500000321802938
 10
-896.3484774225531
 20
-803.6339247957112
 30
0.0
 10
-896.4367983471083
 20
-803.8942629899225
 30
0.0
 10
-896.5769427846843
 20
-804.1370241589738
 30
0.0
 10
-896.9394890066131
 20
-804.5503844218488
 30
0.0
 10
-897.1618970661971
 20
-804.7209908144558
 30
0.0
 10
-897.6550528804263
 20
-804.9640968566608
 30
0.0
 10
-897.9258129601101
 20
-805.0366022829631
 30
0.0
 10
-898.4744558165974
 20
-805.0725323000573
 30
0.0
 10
-899.0302369769578
 20
-804.9993854602191
 30
0.0
 10
-899.5157970533321
 20
-804.7192521195338
 30
0.0
 10
-899.9293217669095
 20
-804.3569014233967
 30
0.0
 10
-900.1000709967725
 20
-804.13461163889
 30
0.0
 10
-900.3435002001019
 20
-803.6416152136702
 30
0.0
 10
-900.4161864221593
 20
-803.3708964656123
 30
0.0
 10
-900.4523715330178
 20
-802.8222667164359
 30
0.0
 10
-900.3793724790637
 20
-802.2664273689084
 30
0.0
 10
-900.0990878991453
 20
-801.7809099513319
 30
0.0
 10
-899.736542086195
 20
-801.3675485465
 30
0.0
 10
-899.5141338105168
 20
-801.1969415285573
 30
0.0
 10
-899.0209785043342
 20
-800.9538349753532
 30
0.0
 10
-898.7502193714087
 20
-800.8813292091842
 30
0.0
 10
-898.2015755999336
 20
-800.8453978874575
 30
0.0
 10
-897.6457902265272
 20
-800.9185448524728
 30
0.0
 10
-897.1602270232519
 20
-801.1986811896661
 30
0.0
 10
-896.7467043779685
 20
-801.5610323975047
 30
0.0
 10
-896.5759574979982
 20
-801.7833194953556
 30
0.0
 10
-896.3325292837413
 20
-802.2763121066613
 30
0.0
 10
-896.2598427059685
 20
-802.547030235684
 30
0.0
 10
-896.2236562819459
 20
-803.095662368734
 30
0.0
 10
-896.2601563043662
 20
-803.3735860307439
 30
0.0
 10
-896.3484774225531
 20
-803.6339247957112
 30
0.0
  0
SPLINE
  5
6C
330
1F
100
AcDbEntity
  8
0
  6
Continuous
 62
     7
370
    25
100
AcDbSpline
210
0.0
220
0.0
230
1.0
 70
    11
 71
     3
 72
    35
 73
    31
 74
     0
 42
0.00000001
 43
0.00000001
 40
0.4999999999999968
 40
0.4999999999999968
 40
0.4999999999999968
 40
0.4999999999999968
 40
0.56249992295166
 40
0.5625008586370813
 40
0.6249997795256389
 40
0.6250011032886572
 40
0.6875002283923165
 40
0.6875011635820129
 40
0.7500003361653814
 40
0.8124996691577818
 40
0.8125006052642888
 40
0.8749997262420294
 40
0.8750010511306167
 40
0.9374999825318809
 40
0.9375009193408185
 40
0.9999999999999999
 40
1.062499618971765
 40
1.062500554076075
 40
1.124999591685902
 40
1.125000915657172
 40
1.187499867825468
 40
1.187500803657643
 40
1.250000379259321
 40
1.312500194350964
 40
1.312501130263999
 40
1.37499949744968
 40
1.375000826442226
 40
1.437499648010759
 40
1.437500583632431
 40
1.500000321802935
 40
1.500000321802935
 40
1.500000321802935
 40
1.500000321802935
 10
-346.3209437707263
 20
-990.2320344835358
 30
0.0
 10
-346.4092646952817
 20
-990.4923726777474
 30
0.0
 10
-346.5494091328579
 20
-990.735133846799
 30
0.0
 10
-346.9119553547868
 20
-991.1484941096738
 30
0.0
 10
-347.1343634143705
 20
-991.3191005022805
 30
0.0
 10
-347.6275192285996
 20
-991.5622065444853
 30
0.0
 10
-347.8982793082831
 20
-991.6347119707871
 30
0.0
 10
-348.4469221647705
 20
-991.6706419878817
 30
0.0
 10
-349.0027033251313
 20
-991.5974951480441
 30
0.0
 10
-349.4882634015055
 20
-991.317361807359
 30
0.0
 10
-349.9017881150833
 20
-990.9550111112213
 30
0.0
 10
-350.0725373449462
 20
-990.7327213267151
 30
0.0
 10
-350.3159665482757
 20
-990.2397249014958
 30
0.0
 10
-350.3886527703327
 20
-989.9690061534377
 30
0.0
 10
-350.4248378811911
 20
-989.4203764042614
 30
0.0
 10
-350.3518388272374
 20
-988.8645370567339
 30
0.0
 10
-350.0715542473193
 20
-988.3790196391573
 30
0.0
 10
-349.709008434369
 20
-987.9656582343256
 30
0.0
 10
-349.486600158691
 20
-987.7950512163831
 30
0.0
 10
-348.993444852508
 20
-987.5519446631783
 30
0.0
 10
-348.7226857195827
 20
-987.4794388970097
 30
0.0
 10
-348.1740419481071
 20
-987.4435075752826
 30
0.0
 10
-347.6182565747009
 20
-987.516654540298
 30
0.0
 10
-347.132693371425
 20
-987.7967908774904
 30
0.0
 10
-346.7191707261419
 20
-988.1591420853297
 30
0.0
 10
-346.5484238461715
 20
-988.3814291831801
 30
0.0
 10
-346.3049956319146
 20
-988.8744217944864
 30
0.0
 10
-346.2323090541416
 20
-989.1451399235086
 30
0.0
 10
-346.1961226301188
 20
-989.6937720565584
 30
0.0
 10
-346.2326226525394
 20
-989.9716957185684
 30
0.0
 10
-346.3209437707263
 20
-990.2320344835358
 30
0.0
  0
SPLINE
  5
6D
330
1F
100
AcDbEntity
  8
0
  6
Continuous
 62
     7
370
    25
100
AcDbSpline
210
0.0
220
0.0
230
1.0
 70
    11
 71
     3
 72
    35
 73
    31
 74
     0
 42
0.00000001
 43
0.00000001
 40
0.500000000000023
 40
0.500000000000023
 40
0.500000000000023
 40
0.500000000000023
 40
0.5624999229516291
 40
0.5625008586370729
 40
0.62499977952562
 40
0.6250011032886768
 40
0.6875002283923063
 40
0.6875011635820186
 40
0.7500003361653794
 40
0.8124996691577765
 40
0.8125006052642855
 40
0.8749997262420056
 40
0.8750010511306151
 40
0.9374999825318894
 40
0.9375009193408056
 40
1.0
 40
1.062499618971765
 40
1.062500554076079
 40
1.124999591685921
 40
1.125000915657214
 40
1.187499867825488
 40
1.187500803657658
 40
1.250000379259313
 40
1.312500194350965
 40
1.312501130264004
 40
1.374999497449678
 40
1.375000826442214
 40
1.437499648010744
 40
1.437500583632433
 40
1.500000321802941
 40
1.500000321802941
 40
1.500000321802941
 40
1.500000321802941
 10
-934.9006343179502
 20
-917.2725238662414
 30
0.0
 10
-934.9889552425054
 20
-917.5328620604525
 30
0.0
 10
-935.1290996800815
 20
-917.7756232295039
 30
0.0
 10
-935.4916459020104
 20
-918.1889834923786
 30
0.0
 10
-935.7140539615942
 20
-918.359589884986
 30
0.0
 10
-936.2072097758233
 20
-918.6026959271909
 30
0.0
 10
-936.4779698555069
 20
-918.6752013534925
 30
0.0
 10
-937.0266127119942
 20
-918.7111313705869
 30
0.0
 10
-937.5823938723553
 20
-918.6379845307497
 30
0.0
 10
-938.0679539487294
 20
-918.3578511900644
 30
0.0
 10
-938.481478662307
 20
-917.9955004939272
 30
0.0
 10
-938.6522278921697
 20
-917.7732107094201
 30
0.0
 10
-938.8956570954991
 20
-917.2802142842006
 30
0.0
 10
-938.9683433175564
 20
-917.0094955361429
 30
0.0
 10
-939.0045284284148
 20
-916.460865786966
 30
0.0
 10
-938.9315293744611
 20
-915.9050264394383
 30
0.0
 10
-938.6512447945423
 20
-915.4195090218617
 30
0.0
 10
-938.288698981592
 20
-915.0061476170303
 30
0.0
 10
-938.0662907059141
 20
-914.8355405990874
 30
0.0
 10
-937.5731353997314
 20
-914.5924340458834
 30
0.0
 10
-937.3023762668059
 20
-914.5199282797145
 30
0.0
 10
-936.7537324953306
 20
-914.4839969579874
 30
0.0
 10
-936.1979471219241
 20
-914.5571439230027
 30
0.0
 10
-935.7123839186489
 20
-914.8372802601956
 30
0.0
 10
-935.2988612733657
 20
-915.199631468035
 30
0.0
 10
-935.1281143933953
 20
-915.4219185658856
 30
0.0
 10
-934.8846861791385
 20
-915.9149111771912
 30
0.0
 10
-934.8119996013655
 20
-916.1856293062136
 30
0.0
 10
-934.7758131773429
 20
-916.7342614392635
 30
0.0
 10
-934.8123131997635
 20
-917.0121851012735
 30
0.0
 10
-934.9006343179502
 20
-917.2725238662414
 30
0.0
  0
LINE
  5
72
330
1F
100
AcDbEntity
  8
0
  6
Continuous
 62
     7
370
    25
100
AcDbLine
 10
-335.0824970158
 20
-987.708823588
 30
0.0
 11
-907.7107819442
 21
-793.4433568904
 31
0.0
  0
LINE
  5
73
330
1F
100
AcDbEntity
  8
0
  6
Continuous
 62
     7
370
    25
100
AcDbLine
 10
-383.5939611092
 20
-1130.7040607518
 30
0.0
 11
-335.0824970158
 21
-987.708823588
 31
0.0
  0
LINE
  5
74
330
1F
100
AcDbEntity
  8
0
  6
Continuous
 62
     7
370
    25
100
AcDbLine
 10
-956.2222460376
 20
-936.4385940541
 30
0.0
 11
-383.5939611092
 21
-1130.7040607518
 31
0.0
  0
LINE
  5
75
330
1F
100
AcDbEntity
  8
0
  6
Continuous
 62
     7
370
    25
100
AcDbLine
 10
-907.7107819442
 20
-793.4433568904
 30
0.0
 11
-956.2222460376
 21
-936.4385940541
 31
0.0
  0
LINE
  5
76
330
1F
100
AcDbEntity
  8
0
  6
Continuous
 62
     7
370
    25
100
AcDbLine
 10
-385.1499642841
 20
-1104.378807051
 30
0.0
 11
-384.8748203579
 21
-1103.8700456592
 31
0.0
  0
LINE
  5
77
330
1F
100
AcDbEntity
  8
0
  6
Continuous
 62
     7
370
    25
100
AcDbLine
 10
-896.6253410405
 20
-804.1420982927
 30
0.0
 11
-896.3501971143
 21
-803.6333369009
 31
0.0
  0
LINE
  5
78
330
1F
100
AcDbEntity
  8
0
  6
Continuous
 62
     7
370
    25
100
AcDbLine
 10
-346.5978073887
 20
-990.7402079805
 30
0.0
 11
-346.3226634625
 21
-990.2314465887
 31
0.0
  0
LINE
  5
79
330
1F
100
AcDbEntity
  8
0
  6
Continuous
 62
     7
370
    25
100
AcDbLine
 10
-935.1774979359
 20
-917.7806973632
 30
0.0
 11
-934.9023540097
 21
-917.2719359714
 31
0.0
  0
ENDSEC
  0
SECTION
  2
OBJECTS
  0
DICTIONARY
  5
C
330
0
100
AcDbDictionary
281
     1
  3
ACAD_GROUP
350
D
  3
ACAD_LAYOUT
350
1A
  3
ACAD_MLINESTYLE
350
17
  3
ACAD_PLOTSETTINGS
350
19
  3
ACAD_PLOTSTYLENAME
350
E
  3
ACAD_SCALELIST
350
47
  3
DWGPROPS
350
7A
  0
DICTIONARY
  5
D
102
{ACAD_REACTORS
330
C
102
}
330
C
100
AcDbDictionary
281
     1
  0
DICTIONARY
  5
1A
102
{ACAD_REACTORS
330
C
102
}
330
C
100
AcDbDictionary
281
     1
  3
Layout1
350
1E
  3
Layout2
350
26
  3
Model
350
22
  0
DICTIONARY
  5
17
102
{ACAD_REACTORS
330
C
102
}
330
C
100
AcDbDictionary
281
     1
  3
Standard
350
18
  0
DICTIONARY
  5
19
102
{ACAD_REACTORS
330
C
102
}
330
C
100
AcDbDictionary
281
     1
  0
ACDBDICTIONARYWDFLT
  5
E
102
{ACAD_REACTORS
330
C
102
}
330
C
100
AcDbDictionary
281
     1
  3
Normal
350
F
100
AcDbDictionaryWithDefault
340
F
  0
DICTIONARY
  5
47
102
{ACAD_REACTORS
330
C
102
}
330
C
100
AcDbDictionary
281
     1
  3
A0
350
48
  3
A1
350
49
  3
A2
350
4A
  3
A3
350
4B
  3
A4
350
4C
  3
A5
350
4D
  3
A6
350
4E
  3
A7
350
4F
  3
A8
350
50
  3
A9
350
51
  3
B0
350
52
  3
B1
350
53
  3
B2
350
54
  3
B3
350
55
  3
B4
350
56
  3
B5
350
57
  3
B6
350
58
  0
XRECORD
  5
7A
102
{ACAD_REACTORS
330
C
102
}
330
C
100
AcDbXrecord
280
     1
  1
DWGPROPS COOKIE
  2

  3

  4

  6

  7

  8
ttranle
  9

300
=
301
=
302
=
303
=
304
=
305
=
306
=
307
=
308
=
309
=
 40
0.0
 41
2459780.5526639
 42
2459780.552674734
  1

 90
        0
  0
LAYOUT
  5
1E
102
{ACAD_REACTORS
330
1A
102
}
330
1A
100
AcDbPlotSettings
  1

  2
none_device
  4

  6

 40
0.0
 41
0.0
 42
0.0
 43
0.0
 44
0.0
 45
0.0
 46
0.0
 47
0.0
 48
0.0
 49
0.0
140
0.0
141
0.0
142
1.0
143
1.0
 70
   688
 72
     1
 73
     0
 74
     5
  7

 75
    16
147
1.0
148
0.0
149
0.0
100
AcDbLayout
  1
Layout1
 70
     1
 71
     1
 10
0.0
 20
0.0
 11
420.0
 21
297.0
 12
0.0
 22
0.0
 32
0.0
 14
1.0000000000E+20
 24
1.0000000000E+20
 34
1.0000000000E+20
 15
-1.0000000000E+20
 25
-1.0000000000E+20
 35
-1.0000000000E+20
146
0.0
 13
0.0
 23
0.0
 33
0.0
 16
1.0
 26
0.0
 36
0.0
 17
0.0
 27
1.0
 37
0.0
 76
     0
330
1B
  0
LAYOUT
  5
26
102
{ACAD_REACTORS
330
1A
102
}
330
1A
100
AcDbPlotSettings
  1

  2
none_device
  4

  6

 40
0.0
 41
0.0
 42
0.0
 43
0.0
 44
0.0
 45
0.0
 46
0.0
 47
0.0
 48
0.0
 49
0.0
140
0.0
141
0.0
142
1.0
143
1.0
 70
   688
 72
     1
 73
     0
 74
     5
  7

 75
    16
147
1.0
148
0.0
149
0.0
100
AcDbLayout
  1
Layout2
 70
     1
 71
     2
 10
0.0
 20
0.0
 11
0.0
 21
0.0
 12
0.0
 22
0.0
 32
0.0
 14
0.0
 24
0.0
 34
0.0
 15
0.0
 25
0.0
 35
0.0
146
0.0
 13
0.0
 23
0.0
 33
0.0
 16
1.0
 26
0.0
 36
0.0
 17
0.0
 27
1.0
 37
0.0
 76
     0
330
23
  0
LAYOUT
  5
22
102
{ACAD_REACTORS
330
1A
102
}
330
1A
100
AcDbPlotSettings
  1

  2
none_device
  4
ANSI_A_(11.00_x_8.50_Inches)
  6

 40
6.35
 41
19.05
 42
6.35000508
 43
19.05000254
 44
279.4
 45
215.9
 46
420.8719603673
 47
517.3307354865
 48
0.0
 49
0.0
140
0.0
141
0.0
142
0.0175322864
143
1.0
 70
  1696
 72
     0
 73
     0
 74
     0
  7

 75
     0
147
0.0179189148
148
-1300.4909072572
149
0.0
100
AcDbLayout
  1
Model
 70
     1
 71
     0
 10
0.0
 20
0.0
 11
420.0
 21
297.0
 12
0.0
 22
0.0
 32
0.0
 14
-956.2222460376
 24
-1130.7040607518
 34
0.0
 15
-335.0824970158
 25
-793.4433568904
 35
0.0
146
0.0
 13
0.0
 23
0.0
 33
0.0
 16
1.0
 26
0.0
 36
0.0
 17
0.0
 27
1.0
 37
0.0
 76
     0
330
1F
331
29
  0
MLINESTYLE
  5
18
102
{ACAD_REACTORS
330
17
102
}
330
17
100
AcDbMlineStyle
  2
Standard
 70
     0
  3

 62
   256
 51
90.0
 52
90.0
 71
     2
 49
0.5
 62
   256
  6
BYLAYER
 49
-0.5
 62
   256
  6
BYLAYER
  0
ACDBPLACEHOLDER
  5
F
102
{ACAD_REACTORS
330
E
102
}
330
E
  0
SCALE
  5
48
102
{ACAD_REACTORS
330
47
102
}
330
47
100
AcDbScale
 70
     0
300
1:1
140
1.0
141
1.0
290
     1
  0
SCALE
  5
49
102
{ACAD_REACTORS
330
47
102
}
330
47
100
AcDbScale
 70
     0
300
1:2
140
1.0
141
2.0
290
     0
  0
SCALE
  5
4A
102
{ACAD_REACTORS
330
47
102
}
330
47
100
AcDbScale
 70
     0
300
1:4
140
1.0
141
4.0
290
     0
  0
SCALE
  5
4B
102
{ACAD_REACTORS
330
47
102
}
330
47
100
AcDbScale
 70
     0
300
1:5
140
1.0
141
5.0
290
     0
  0
SCALE
  5
4C
102
{ACAD_REACTORS
330
47
102
}
330
47
100
AcDbScale
 70
     0
300
1:8
140
1.0
141
8.0
290
     0
  0
SCALE
  5
4D
102
{ACAD_REACTORS
330
47
102
}
330
47
100
AcDbScale
 70
     0
300
1:10
140
1.0
141
10.0
290
     0
  0
SCALE
  5
4E
102
{ACAD_REACTORS
330
47
102
}
330
47
100
AcDbScale
 70
     0
300
1:16
140
1.0
141
16.0
290
     0
  0
SCALE
  5
4F
102
{ACAD_REACTORS
330
47
102
}
330
47
100
AcDbScale
 70
     0
300
1:20
140
1.0
141
20.0
290
     0
  0
SCALE
  5
50
102
{ACAD_REACTORS
330
47
102
}
330
47
100
AcDbScale
 70
     0
300
1:30
140
1.0
141
30.0
290
     0
  0
SCALE
  5
51
102
{ACAD_REACTORS
330
47
102
}
330
47
100
AcDbScale
 70
     0
300
1:40
140
1.0
141
40.0
290
     0
  0
SCALE
  5
52
102
{ACAD_REACTORS
330
47
102
}
330
47
100
AcDbScale
 70
     0
300
1:50
140
1.0
141
50.0
290
     0
  0
SCALE
  5
53
102
{ACAD_REACTORS
330
47
102
}
330
47
100
AcDbScale
 70
     0
300
1:100
140
1.0
141
100.0
290
     0
  0
SCALE
  5
54
102
{ACAD_REACTORS
330
47
102
}
330
47
100
AcDbScale
 70
     0
300
2:1
140
2.0
141
1.0
290
     0
  0
SCALE
  5
55
102
{ACAD_REACTORS
330
47
102
}
330
47
100
AcDbScale
 70
     0
300
4:1
140
4.0
141
1.0
290
     0
  0
SCALE
  5
56
102
{ACAD_REACTORS
330
47
102
}
330
47
100
AcDbScale
 70
     0
300
8:1
140
8.0
141
1.0
290
     0
  0
SCALE
  5
57
102
{ACAD_REACTORS
330
47
102
}
330
47
100
AcDbScale
 70
     0
300
10:1
140
10.0
141
1.0
290
     0
  0
SCALE
  5
58
102
{ACAD_REACTORS
330
47
102
}
330
47
100
AcDbScale
 70
     0
300
100:1
140
100.0
141
1.0
290
     0
  0
ENDSEC
  0
EOF
