  0
SECTION
  2
HEADER
  9
$ACADVER
  1
AC1015
  9
$ACADMAINTVER
 70
     6
  9
$DWGCODEPAGE
  3
ANSI_1252
  9
$INSBASE
 10
0.0
 20
0.0
 30
0.0
  9
$EXTMIN
 10
169.5712752365
 20
708.3330309099
 30
0.0
  9
$EXTMAX
 10
224.9207432582
 20
1461.4270922569
 30
0.0
  9
$LIMMIN
 10
0.0
 20
0.0
  9
$LIMMAX
 10
420.0
 20
297.0
  9
$ORTHOMODE
 70
     0
  9
$REGENMODE
 70
     1
  9
$FILLMODE
 70
     1
  9
$QTEXTMODE
 70
     0
  9
$MIRRTEXT
 70
     1
  9
$LTSCALE
 40
1.0
  9
$ATTMODE
 70
     1
  9
$TEXTSIZE
 40
3.5
  9
$TRACEWID
 40
1.0
  9
$TEXTSTYLE
  7
Standard
  9
$CLAYER
  8
0
  9
$CELTYPE
  6
ByLayer
  9
$CECOLOR
 62
   256
  9
$CELTSCALE
 40
1.0
  9
$DISPSILH
 70
     0
  9
$DIMSCALE
 40
1.0
  9
$DIMASZ
 40
3.556
  9
$DIMEXO
 40
0.0
  9
$DIMDLI
 40
3.75
  9
$DIMRND
 40
0.0
  9
$DIMDLE
 40
0.0
  9
$DIMEXE
 40
1.0
  9
$DIMTP
 40
0.0
  9
$DIMTM
 40
0.0
  9
$DIMTXT
 40
3.5
  9
$DIMCEN
 40
2.5
  9
$DIMTSZ
 40
0.0
  9
$DIMTOL
 70
     0
  9
$DIMLIM
 70
     0
  9
$DIMTIH
 70
     1
  9
$DIMTOH
 70
     1
  9
$DIMSE1
 70
     0
  9
$DIMSE2
 70
     0
  9
$DIMTAD
 70
     1
  9
$DIMZIN
 70
     0
  9
$DIMBLK
  1

  9
$DIMASO
 70
     1
  9
$DIMSHO
 70
     1
  9
$DIMPOST
  1

  9
$DIMAPOST
  1

  9
$DIMALT
 70
     0
  9
$DIMALTD
 70
     3
  9
$DIMALTF
 40
0.0393700787
  9
$DIMLFAC
 40
1.0
  9
$DIMTOFL
 70
     1
  9
$DIMTVP
 40
0.0
  9
$DIMTIX
 70
     0
  9
$DIMSOXD
 70
     0
  9
$DIMSAH
 70
     0
  9
$DIMBLK1
  1

  9
$DIMBLK2
  1

  9
$DIMSTYLE
  2
ISO-25
  9
$DIMCLRD
 70
     0
  9
$DIMCLRE
 70
     0
  9
$DIMCLRT
 70
     0
  9
$DIMTFAC
 40
1.0
  9
$DIMGAP
 40
1.524
  9
$DIMJUST
 70
     0
  9
$DIMSD1
 70
     0
  9
$DIMSD2
 70
     0
  9
$DIMTOLJ
 70
     0
  9
$DIMTZIN
 70
     0
  9
$DIMALTZ
 70
     0
  9
$DIMALTTZ
 70
     0
  9
$DIMUPT
 70
     0
  9
$DIMDEC
 70
     2
  9
$DIMTDEC
 70
     2
  9
$DIMALTU
 70
     2
  9
$DIMALTTD
 70
     3
  9
$DIMTXSTY
  7
Standard
  9
$DIMAUNIT
 70
     0
  9
$DIMADEC
 70
     2
  9
$DIMALTRND
 40
0.0
  9
$DIMAZIN
 70
     0
  9
$DIMDSEP
 70
    44
  9
$DIMATFIT
 70
     3
  9
$DIMFRAC
 70
     0
  9
$DIMLDRBLK
  1

  9
$DIMLUNIT
 70
     2
  9
$DIMLWD
 70
    -2
  9
$DIMLWE
 70
    -2
  9
$DIMTMOVE
 70
     0
  9
$LUNITS
 70
     2
  9
$LUPREC
 70
     0
  9
$SKETCHINC
 40
1.0
  9
$FILLETRAD
 40
0.0
  9
$AUNITS
 70
     0
  9
$AUPREC
 70
     0
  9
$MENU
  1
.
  9
$ELEVATION
 40
0.0
  9
$PELEVATION
 40
0.0
  9
$THICKNESS
 40
0.0
  9
$LIMCHECK
 70
     0
  9
$CHAMFERA
 40
0.0
  9
$CHAMFERB
 40
0.0
  9
$CHAMFERC
 40
0.0
  9
$CHAMFERD
 40
0.0
  9
$SKPOLY
 70
     0
  9
$TDCREATE
 40
2460038.502711863
  9
$TDUCREATE
 40
2460038.41937853
  9
$TDUPDATE
 40
2460038.502711956
  9
$TDUUPDATE
 40
2460038.419378623
  9
$TDINDWG
 40
0.0000000116
  9
$TDUSRTIMER
 40
0.0000000116
  9
$USRTIMER
 70
     1
  9
$ANGBASE
 50
0.0
  9
$ANGDIR
 70
     0
  9
$PDMODE
 70
     0
  9
$PDSIZE
 40
-1.0
  9
$PLINEWID
 40
0.0
  9
$SPLFRAME
 70
     0
  9
$SPLINETYPE
 70
     6
  9
$SPLINESEGS
 70
     8
  9
$HANDSEED
  5
6F
  9
$SURFTAB1
 70
     6
  9
$SURFTAB2
 70
     6
  9
$SURFTYPE
 70
     6
  9
$SURFU
 70
     6
  9
$SURFV
 70
     6
  9
$UCSBASE
  2

  9
$UCSNAME
  2

  9
$UCSORG
 10
0.0
 20
0.0
 30
0.0
  9
$UCSXDIR
 10
1.0
 20
0.0
 30
0.0
  9
$UCSYDIR
 10
0.0
 20
1.0
 30
0.0
  9
$UCSORTHOREF
  2

  9
$UCSORTHOVIEW
 70
     0
  9
$UCSORGTOP
 10
0.0
 20
0.0
 30
0.0
  9
$UCSORGBOTTOM
 10
0.0
 20
0.0
 30
0.0
  9
$UCSORGLEFT
 10
0.0
 20
0.0
 30
0.0
  9
$UCSORGRIGHT
 10
0.0
 20
0.0
 30
0.0
  9
$UCSORGFRONT
 10
0.0
 20
0.0
 30
0.0
  9
$UCSORGBACK
 10
0.0
 20
0.0
 30
0.0
  9
$PUCSBASE
  2

  9
$PUCSNAME
  2

  9
$PUCSORG
 10
0.0
 20
0.0
 30
0.0
  9
$PUCSXDIR
 10
1.0
 20
0.0
 30
0.0
  9
$PUCSYDIR
 10
0.0
 20
1.0
 30
0.0
  9
$PUCSORTHOREF
  2

  9
$PUCSORTHOVIEW
 70
     0
  9
$PUCSORGTOP
 10
0.0
 20
0.0
 30
0.0
  9
$PUCSORGBOTTOM
 10
0.0
 20
0.0
 30
0.0
  9
$PUCSORGLEFT
 10
0.0
 20
0.0
 30
0.0
  9
$PUCSORGRIGHT
 10
0.0
 20
0.0
 30
0.0
  9
$PUCSORGFRONT
 10
0.0
 20
0.0
 30
0.0
  9
$PUCSORGBACK
 10
0.0
 20
0.0
 30
0.0
  9
$USERI1
 70
     0
  9
$USERI2
 70
     0
  9
$USERI3
 70
     0
  9
$USERI4
 70
     0
  9
$USERI5
 70
     0
  9
$USERR1
 40
0.0
  9
$USERR2
 40
0.0
  9
$USERR3
 40
0.0
  9
$USERR4
 40
0.0
  9
$USERR5
 40
0.0
  9
$WORLDVIEW
 70
     1
  9
$SHADEDGE
 70
     3
  9
$SHADEDIF
 70
    70
  9
$TILEMODE
 70
     1
  9
$MAXACTVP
 70
    64
  9
$PINSBASE
 10
0.0
 20
0.0
 30
0.0
  9
$PLIMCHECK
 70
     0
  9
$PEXTMIN
 10
1.0000000000E+20
 20
1.0000000000E+20
 30
1.0000000000E+20
  9
$PEXTMAX
 10
-1.0000000000E+20
 20
-1.0000000000E+20
 30
-1.0000000000E+20
  9
$PLIMMIN
 10
0.0
 20
0.0
  9
$PLIMMAX
 10
420.0
 20
297.0
  9
$UNITMODE
 70
     0
  9
$VISRETAIN
 70
     1
  9
$PLINEGEN
 70
     0
  9
$PSLTSCALE
 70
     1
  9
$TREEDEPTH
 70
  3020
  9
$CMLSTYLE
  2
Standard
  9
$CMLJUST
 70
     0
  9
$CMLSCALE
 40
20.0
  9
$PROXYGRAPHICS
 70
     1
  9
$MEASUREMENT
 70
     1
  9
$CELWEIGHT
370
    -1
  9
$ENDCAPS
280
     0
  9
$JOINSTYLE
280
     0
  9
$LWDISPLAY
290
     1
  9
$INSUNITS
 70
     4
  9
$HYPERLINKBASE
  1

  9
$STYLESHEET
  1

  9
$XEDIT
290
     1
  9
$CEPSNTYPE
380
     0
  9
$PSTYLEMODE
290
     1
  9
$FINGERPRINTGUID
  2
{3991521b-d5d8-4c95-8ac1-7d6042831b26}
  9
$VERSIONGUID
  2
{FAEB1C32-E019-11D5-929B-00C0DF256EC4}
  9
$EXTNAMES
290
     1
  9
$PSVPSCALE
 40
0.0
  9
$OLESTARTUP
290
     0
  0
ENDSEC
  0
SECTION
  2
CLASSES
  0
CLASS
  1
ACDBDICTIONARYWDFLT
  2
AcDbDictionaryWithDefault
  3
ObjectDBX Classes
 90
        0
280
     0
281
     0
  0
CLASS
  1
VISUALSTYLE
  2
AcDbVisualStyle
  3
ObjectDBX Classes
 90
     4095
280
     0
281
     0
  0
CLASS
  1
MATERIAL
  2
AcDbMaterial
  3
ObjectDBX Classes
 90
     1153
280
     0
281
     0
  0
CLASS
  1
SCALE
  2
AcDbScale
  3
ObjectDBX Classes
 90
     1153
280
     0
281
     0
  0
CLASS
  1
TABLESTYLE
  2
AcDbTableStyle
  3
ObjectDBX Classes
 90
     4095
280
     0
281
     0
  0
CLASS
  1
MLEADERSTYLE
  2
AcDbMLeaderStyle
  3
ACDB_MLEADERSTYLE_CLASS
 90
     4095
280
     0
281
     0
  0
CLASS
  1
SUN
  2
AcDbSun
  3
SCENEOE
 90
     1153
280
     0
281
     0
  0
CLASS
  1
ACDBPLACEHOLDER
  2
AcDbPlaceHolder
  3
ObjectDBX Classes
 90
        0
280
     0
281
     0
  0
CLASS
  1
LAYOUT
  2
AcDbLayout
  3
ObjectDBX Classes
 90
        0
280
     0
281
     0
  0
ENDSEC
  0
SECTION
  2
TABLES
  0
TABLE
  2
VPORT
  5
8
330
0
100
AcDbSymbolTable
 70
     1
  0
VPORT
  5
29
330
8
100
AcDbSymbolTableRecord
100
AcDbViewportTableRecord
  2
*Active
 70
     0
 10
0.0
 20
0.0
 11
1.0
 21
1.0
 12
197.2460092473
 22
1084.8800615834
 13
0.0
 23
0.0
 14
10.0
 24
10.0
 15
10.0
 25
10.0
 16
0.0
 26
0.0
 36
1.0
 17
0.0
 27
0.0
 37
0.0
 40
768.1559425739
 41
0.0734960888
 42
50.0
 43
0.0
 44
0.0
 50
0.0
 51
0.0
 71
     0
 72
   100
 73
     1
 74
     3
 75
     0
 76
     0
 77
     0
 78
     0
281
     0
 65
     1
110
0.0
120
0.0
130
0.0
111
1.0
121
0.0
131
0.0
112
0.0
122
1.0
132
0.0
 79
     0
146
0.0
  0
ENDTAB
  0
TABLE
  2
LTYPE
  5
5
330
0
100
AcDbSymbolTable
 70
     6
  0
LTYPE
  5
14
330
5
100
AcDbSymbolTableRecord
100
AcDbLinetypeTableRecord
  2
ByBlock
 70
     0
  3

 72
    65
 73
     0
 40
0.0
  0
LTYPE
  5
15
330
5
100
AcDbSymbolTableRecord
100
AcDbLinetypeTableRecord
  2
ByLayer
 70
     0
  3

 72
    65
 73
     0
 40
0.0
  0
LTYPE
  5
16
330
5
100
AcDbSymbolTableRecord
100
AcDbLinetypeTableRecord
  2
Continuous
 70
     0
  3
Solid line
 72
    65
 73
     0
 40
0.0
  0
LTYPE
  5
5E
330
5
100
AcDbSymbolTableRecord
100
AcDbLinetypeTableRecord
  2
HIDDEN
 70
     0
  3
Hidden __ __ __ __ __ __ __ __ __ __ __ __ __ __
 72
    65
 73
     2
 40
1.905
 49
1.27
 74
     0
 49
-0.635
 74
     0
  0
LTYPE
  5
5F
330
5
100
AcDbSymbolTableRecord
100
AcDbLinetypeTableRecord
  2
PHANTOM
 70
     0
  3
Phantom ______  __  __  ______  __  __  ______
 72
    65
 73
     6
 40
12.7
 49
6.35
 74
     0
 49
-1.27
 74
     0
 49
1.27
 74
     0
 49
-1.27
 74
     0
 49
1.27
 74
     0
 49
-1.27
 74
     0
  0
LTYPE
  5
60
330
5
100
AcDbSymbolTableRecord
100
AcDbLinetypeTableRecord
  2
CENTER
 70
     0
  3
Center ____ _ ____ _ ____ _ ____ _ ____ _ ____
 72
    65
 73
     4
 40
10.16
 49
6.35
 74
     0
 49
-1.27
 74
     0
 49
1.27
 74
     0
 49
-1.27
 74
     0
  0
LTYPE
  5
61
330
5
100
AcDbSymbolTableRecord
100
AcDbLinetypeTableRecord
  2
CENTERX2
 70
     0
  3
Center (2x) ________  __  ________  __  _____
 72
    65
 73
     4
 40
20.32
 49
12.7
 74
     0
 49
-2.54
 74
     0
 49
2.54
 74
     0
 49
-2.54
 74
     0
  0
LTYPE
  5
62
330
5
100
AcDbSymbolTableRecord
100
AcDbLinetypeTableRecord
  2
DOT2
 70
     0
  3
Dot (.5x) ........................................
 72
    65
 73
     2
 40
0.635
 49
0.0
 74
     0
 49
-0.635
 74
     0
  0
ENDTAB
  0
TABLE
  2
LAYER
  5
2
330
0
100
AcDbSymbolTable
 70
     1
  0
LAYER
  5
10
330
2
100
AcDbSymbolTableRecord
100
AcDbLayerTableRecord
  2
0
 70
     0
 62
     7
  6
Continuous
370
    -3
390
F
  0
ENDTAB
  0
TABLE
  2
STYLE
  5
3
330
0
100
AcDbSymbolTable
 70
     1
  0
STYLE
  5
11
330
3
100
AcDbSymbolTableRecord
100
AcDbTextStyleTableRecord
  2
Standard
 70
     0
 40
0.0
 41
1.0
 50
0.0
 71
     0
 42
3.5
  3
txt
  4

  0
ENDTAB
  0
TABLE
  2
VIEW
  5
6
330
0
100
AcDbSymbolTable
 70
     0
  0
ENDTAB
  0
TABLE
  2
UCS
  5
7
330
0
100
AcDbSymbolTable
 70
     0
  0
ENDTAB
  0
TABLE
  2
APPID
  5
9
330
0
100
AcDbSymbolTable
 70
     1
  0
APPID
  5
12
330
9
100
AcDbSymbolTableRecord
100
AcDbRegAppTableRecord
  2
ACAD
 70
     0
  0
ENDTAB
  0
TABLE
  2
DIMSTYLE
  5
A
330
0
100
AcDbSymbolTable
 70
     1
100
AcDbDimStyleTable
  0
DIMSTYLE
105
27
330
A
100
AcDbSymbolTableRecord
100
AcDbDimStyleTableRecord
  2
ISO-25
 70
     0
 41
2.5
 42
0.625
 43
3.75
 44
1.25
 73
     0
 74
     0
 77
     1
 78
     8
140
2.5
141
2.5
143
0.0393700787
147
0.625
171
     3
172
     1
178
     0
271
     2
272
     2
274
     3
278
    44
283
     0
284
     8
340
11
  0
ENDTAB
  0
TABLE
  2
BLOCK_RECORD
  5
1
330
0
100
AcDbSymbolTable
 70
     1
  0
BLOCK_RECORD
  5
1F
330
1
100
AcDbSymbolTableRecord
100
AcDbBlockTableRecord
  2
*Model_Space
340
22
  0
BLOCK_RECORD
  5
1B
330
1
100
AcDbSymbolTableRecord
100
AcDbBlockTableRecord
  2
*Paper_Space
340
1E
  0
BLOCK_RECORD
  5
23
330
1
100
AcDbSymbolTableRecord
100
AcDbBlockTableRecord
  2
*Paper_Space0
340
26
  0
ENDTAB
  0
ENDSEC
  0
SECTION
  2
BLOCKS
  0
BLOCK
  5
20
330
1F
100
AcDbEntity
  8
0
100
AcDbBlockBegin
  2
*Model_Space
 70
     0
 10
0.0
 20
0.0
 30
0.0
  3
*Model_Space
  1

  0
ENDBLK
  5
21
330
1F
100
AcDbEntity
  8
0
100
AcDbBlockEnd
  0
BLOCK
  5
1C
330
1B
100
AcDbEntity
 67
     1
  8
0
100
AcDbBlockBegin
  2
*Paper_Space
 70
     0
 10
0.0
 20
0.0
 30
0.0
  3
*Paper_Space
  1

  0
ENDBLK
  5
1D
330
1B
100
AcDbEntity
 67
     1
  8
0
100
AcDbBlockEnd
  0
BLOCK
  5
24
330
23
100
AcDbEntity
  8
0
100
AcDbBlockBegin
  2
*Paper_Space0
 70
     0
 10
0.0
 20
0.0
 30
0.0
  3
*Paper_Space0
  1

  0
ENDBLK
  5
25
330
23
100
AcDbEntity
  8
0
100
AcDbBlockEnd
  0
ENDSEC
  0
SECTION
  2
ENTITIES
  0
LINE
  5
63
330
1F
100
AcDbEntity
  8
0
  6
Continuous
 62
     7
370
    25
100
AcDbLine
 10
201.5482675532
 20
1461.4270922569
 30
0.0
 11
169.5712752365
 21
1460.4172145564
 31
0.0
  0
ELLIPSE
  5
64
330
1F
100
AcDbEntity
  8
0
  6
Continuous
 62
     7
370
    25
100
AcDbEllipse
 10
11.3986469002
 20
631.883334242
 30
0.0
 11
32.06695449724359
 21
1777.629775185154
 31
0.0
210
0.0
220
0.0
230
1.0
 40
0.0911177627
 41
4.757543867925706
 42
5.198897165947903
  0
LINE
  5
65
330
1F
100
AcDbEntity
  8
0
  6
Continuous
 62
     7
370
    25
100
AcDbLine
 10
223.0388729528
 20
708.3330309099
 30
0.0
 11
174.6546815648
 21
709.2058412584
 31
0.0
  0
SPLINE
  5
66
330
1F
100
AcDbEntity
  8
0
  6
Continuous
 62
     7
370
    25
100
AcDbSpline
210
0.0
220
0.0
230
1.0
 70
     8
 71
     3
 72
    42
 73
    38
 74
     0
 42
0.00000001
 43
0.00000001
 40
0.0
 40
0.0
 40
0.0
 40
0.0
 40
0.062499999999996
 40
0.062499999999996
 40
0.1249999999999919
 40
0.1249999999999919
 40
0.1874999999999879
 40
0.1874999999999879
 40
0.2499999999999839
 40
0.2499999999999839
 40
0.2812499999999837
 40
0.2812499999999837
 40
0.3124999999999836
 40
0.3124999999999836
 40
0.3749999999999875
 40
0.3749999999999875
 40
0.4062499999999893
 40
0.4062499999999893
 40
0.4218749999999882
 40
0.4218749999999882
 40
0.4374999999999871
 40
0.4374999999999871
 40
0.4999999999999867
 40
0.4999999999999867
 40
0.6249999999999858
 40
0.6249999999999858
 40
0.7499999999999849
 40
0.7499999999999849
 40
0.8124999999999861
 40
0.8124999999999861
 40
0.8437499999999885
 40
0.8437499999999885
 40
0.8749999999999908
 40
0.8749999999999908
 40
0.9374999999999953
 40
0.9374999999999953
 40
1.0
 40
1.0
 40
1.0
 40
1.0
 10
215.1642864272258
 20
783.800628707525
 30
0.0
 10
214.2752818719268
 20
782.3573800174844
 30
0.0
 10
213.4238136950333
 20
780.8920104382561
 30
0.0
 10
211.8150908686212
 20
777.9082764951601
 30
0.0
 10
211.0617264480474
 20
776.3971653138491
 30
0.0
 10
209.6803485139671
 20
773.3276405707318
 30
0.0
 10
209.0522296659274
 20
771.7692667579331
 30
0.0
 10
207.9529477054013
 20
768.5932903632926
 30
0.0
 10
207.4816351809345
 20
766.9757441635109
 30
0.0
 10
206.9252265374345
 20
764.4926095335965
 30
0.0
 10
206.7647460684182
 20
763.652823316864
 30
0.0
 10
206.5044949179827
 20
761.9772538299712
 30
0.0
 10
206.404046030067
 20
761.1391140871824
 30
0.0
 10
206.196732371746
 20
758.6235700144266
 30
0.0
 10
206.1842518488436
 20
756.945036638433
 30
0.0
 10
206.3701321476222
 20
754.4247890893382
 30
0.0
 10
206.4661224450787
 20
753.5842994959377
 30
0.0
 10
206.6620992236318
 20
752.3229431735892
 30
0.0
 10
206.7362986375245
 20
751.9014237622594
 30
0.0
 10
206.9003203580355
 20
751.0662784315964
 30
0.0
 10
206.9902107490167
 20
750.6519441560786
 30
0.0
 10
207.4770427236134
 20
748.5956355049279
 30
0.0
 10
207.9864676067178
 20
746.9998903761809
 30
0.0
 10
209.7886428958294
 20
742.3252247701398
 30
0.0
 10
211.3577689900296
 20
739.359891287368
 30
0.0
 10
214.6886164407659
 20
733.5083785960334
 30
0.0
 10
216.4443536604067
 20
730.6259137166696
 30
0.0
 10
218.7944893429865
 20
726.1609241569179
 30
0.0
 10
219.5307471651427
 20
724.6488464161955
 30
0.0
 10
220.5132223201823
 20
722.3192888659385
 30
0.0
 10
220.8204057130414
 20
721.5325347023033
 30
0.0
 10
221.3857718312606
 20
719.9343310419408
 30
0.0
 10
221.6435658981344
 20
719.1230379244106
 30
0.0
 10
222.3223981654655
 20
716.6844690197437
 30
0.0
 10
222.6524099611199
 20
715.0410937356554
 30
0.0
 10
223.0457423670068
 20
711.7159037671464
 30
0.0
 10
223.1093156023567
 20
710.0341254947197
 30
0.0
 10
223.0388729528395
 20
708.3330309099036
 30
0.0
  0
SPLINE
  5
67
330
1F
100
AcDbEntity
  8
0
  6
Continuous
 62
     7
370
    25
100
AcDbSpline
210
0.0
220
0.0
230
1.0
 70
     8
 71
     3
 72
    55
 73
    51
 74
     0
 42
0.00000001
 43
0.00000001
 40
0.0
 40
0.0
 40
0.0
 40
0.0
 40
0.0625000000000042
 40
0.0625000000000042
 40
0.1250000000000085
 40
0.1250000000000085
 40
0.1562500000000107
 40
0.1562500000000107
 40
0.1718750000000103
 40
0.1718750000000103
 40
0.18750000000001
 40
0.18750000000001
 40
0.2500000000000087
 40
0.2500000000000087
 40
0.2656250000000083
 40
0.2656250000000083
 40
0.281250000000008
 40
0.281250000000008
 40
0.3125000000000073
 40
0.3125000000000073
 40
0.375000000000006
 40
0.375000000000006
 40
0.4062500000000068
 40
0.4062500000000068
 40
0.4375000000000075
 40
0.5000000000000068
 40
0.562500000000006
 40
0.5937500000000042
 40
0.5937500000000042
 40
0.6250000000000023
 40
0.6250000000000023
 40
0.6874999999999989
 40
0.6874999999999989
 40
0.7031249999999964
 40
0.7031249999999964
 40
0.718749999999994
 40
0.718749999999994
 40
0.7499999999999925
 40
0.7499999999999925
 40
0.8124999999999922
 40
0.8124999999999922
 40
0.8281249999999928
 40
0.8281249999999928
 40
0.8437499999999934
 40
0.8437499999999934
 40
0.8749999999999947
 40
0.8749999999999947
 40
0.9374999999999973
 40
0.9374999999999973
 40
1.0
 40
1.0
 40
1.0
 40
1.0
 10
215.8468970144993
 20
884.2223774397825
 30
0.0
 10
214.667804397799
 20
882.3055421578307
 30
0.0
 10
213.5591562022262
 20
880.3562364419453
 30
0.0
 10
211.5265550672868
 20
876.3724921491408
 30
0.0
 10
210.6021748173749
 20
874.3382505354249
 30
0.0
 10
209.4039415827899
 20
871.2000765750173
 30
0.0
 10
209.0361379367352
 20
870.1394495560514
 30
0.0
 10
208.5408009950624
 20
868.5225266926518
 30
0.0
 10
208.3848566928829
 20
867.9781732343039
 30
0.0
 10
208.0956006577508
 20
866.887889307583
 30
0.0
 10
207.9620896231837
 20
866.3414434392641
 30
0.0
 10
207.3532450656995
 20
863.6023279611643
 30
0.0
 10
207.053794917931
 20
861.3890290848858
 30
0.0
 10
206.9678325210988
 20
858.588585039319
 30
0.0
 10
206.9650655802852
 20
858.0268042665454
 30
0.0
 10
206.9896901617794
 20
856.8997054510754
 30
0.0
 10
207.017233523504
 20
856.332652676813
 30
0.0
 10
207.1457939360888
 20
854.6393584395189
 30
0.0
 10
207.2920547008876
 20
853.5256487858269
 30
0.0
 10
207.9014776120375
 20
850.2272214469265
 30
0.0
 10
208.5372372045856
 20
848.0856950667926
 30
0.0
 10
209.7579701875916
 20
844.9402438025086
 30
0.0
 10
210.2098177852642
 20
843.9012459826652
 30
0.0
 10
211.1723921982921
 20
841.8616339220858
 30
0.0
 10
212.7074406040124
 20
838.8509085546822
 30
0.0
 10
215.5688683347616
 20
833.9948388788409
 30
0.0
 10
218.426352312239
 20
829.1366632828815
 30
0.0
 10
219.9553050446923
 20
826.1226828941628
 30
0.0
 10
220.9129414370152
 20
824.0804339857817
 30
0.0
 10
221.361409229161
 20
823.0408958458926
 30
0.0
 10
222.5708249989662
 20
819.8940869323287
 30
0.0
 10
223.1986025704808
 20
817.749114156457
 30
0.0
 10
223.6948804915787
 20
814.9917873050024
 30
0.0
 10
223.7798577989739
 20
814.4365543677872
 30
0.0
 10
223.9201864982279
 20
813.3182711901305
 30
0.0
 10
223.9756395184576
 20
812.7535215462809
 30
0.0
 10
224.0954413912098
 20
811.0605368330874
 30
0.0
 10
224.1133575357528
 20
809.93745454113
 30
0.0
 10
223.9948611642672
 20
806.5837055944016
 30
0.0
 10
223.6864059269901
 20
804.3685186860405
 30
0.0
 10
223.0643796795406
 20
801.6208105656448
 30
0.0
 10
222.9278128219628
 20
801.0711938852137
 30
0.0
 10
222.6344990125018
 20
799.9820925947752
 30
0.0
 10
222.4776925292026
 20
799.4420888690523
 30
0.0
 10
221.979431087308
 20
797.8345506527425
 30
0.0
 10
221.6102185001376
 20
796.779451328964
 30
0.0
 10
220.4088301070695
 20
793.6561527935197
 30
0.0
 10
219.483742045267
 20
791.6295774330271
 30
0.0
 10
217.4508790004054
 20
787.6582688021695
 30
0.0
 10
216.3426999683905
 20
785.7137165420858
 30
0.0
 10
215.1642864272258
 20
783.800628707525
 30
0.0
  0
SPLINE
  5
68
330
1F
100
AcDbEntity
  8
0
  6
Continuous
 62
     7
370
    25
100
AcDbSpline
210
0.0
220
0.0
230
1.0
 70
     8
 71
     3
 72
    53
 73
    49
 74
     0
 42
0.00000001
 43
0.00000001
 40
0.0
 40
0.0
 40
0.0
 40
0.0
 40
0.0625000000000006
 40
0.0625000000000006
 40
0.1250000000000011
 40
0.1250000000000011
 40
0.1562500000000014
 40
0.1562500000000014
 40
0.1875000000000019
 40
0.1875000000000019
 40
0.2500000000000026
 40
0.2500000000000026
 40
0.2812500000000036
 40
0.2812500000000036
 40
0.3125000000000047
 40
0.3125000000000047
 40
0.3750000000000053
 40
0.3750000000000053
 40
0.4062500000000057
 40
0.4062500000000057
 40
0.437500000000006
 40
0.5000000000000077
 40
0.5000000000000077
 40
0.5625000000000107
 40
0.5625000000000107
 40
0.5937500000000123
 40
0.5937500000000123
 40
0.625000000000014
 40
0.625000000000014
 40
0.6875000000000169
 40
0.6875000000000169
 40
0.7031250000000183
 40
0.7031250000000183
 40
0.7187500000000198
 40
0.7187500000000198
 40
0.7500000000000226
 40
0.7500000000000226
 40
0.8125000000000253
 40
0.8125000000000253
 40
0.8281250000000244
 40
0.8281250000000244
 40
0.8437500000000235
 40
0.8437500000000235
 40
0.8750000000000188
 40
0.8750000000000188
 40
0.9375000000000094
 40
0.9375000000000094
 40
1.0
 40
1.0
 40
1.0
 40
1.0
 10
216.1014432109555
 20
984.651848095656
 30
0.0
 10
214.9216108565476
 20
982.7351858648758
 30
0.0
 10
213.8129760051556
 20
980.7861886063464
 30
0.0
 10
211.7823469375611
 20
976.8034294576306
 30
0.0
 10
210.8599248017004
 20
974.769861911255
 30
0.0
 10
209.6665185906807
 20
971.6331171813986
 30
0.0
 10
209.3006401161575
 20
970.5730371980536
 30
0.0
 10
208.644757696965
 20
968.4184180870911
 30
0.0
 10
208.3544327300415
 20
967.3207349991044
 30
0.0
 10
207.6310268900672
 20
964.0252001483536
 30
0.0
 10
207.3398478857006
 20
961.8093270419242
 30
0.0
 10
207.251891470413
 20
958.4511094595489
 30
0.0
 10
207.2807644893541
 20
957.3259633740481
 30
0.0
 10
207.4642715621219
 20
955.0632657386739
 30
0.0
 10
207.6174040695093
 20
953.9463367626466
 30
0.0
 10
208.2478098345302
 20
950.6449366010323
 30
0.0
 10
208.898233377918
 20
948.5061835666831
 30
0.0
 10
210.1384564286713
 20
945.3695376396751
 30
0.0
 10
210.5967275723166
 20
944.333455509446
 30
0.0
 10
211.5730255945117
 20
942.2974894880184
 30
0.0
 10
213.1282544938049
 20
939.2928112250188
 30
0.0
 10
214.8642932071491
 20
936.3862653203753
 30
0.0
 10
217.1777565441034
 20
932.510189673142
 30
0.0
 10
218.3339024878231
 20
930.5718339544372
 30
0.0
 10
219.9456799365097
 20
927.597846738506
 30
0.0
 10
220.462527462674
 20
926.5954395027007
 30
0.0
 10
221.4350372632508
 20
924.5574174694167
 30
0.0
 10
221.8915416599716
 20
923.5191178213207
 30
0.0
 10
223.1254824153008
 20
920.3743607120679
 30
0.0
 10
223.7695106883034
 20
918.2304586961219
 30
0.0
 10
224.2851659051533
 20
915.4737843427964
 30
0.0
 10
224.3739712806695
 20
914.9186476701602
 30
0.0
 10
224.521839545199
 20
913.8004811470637
 30
0.0
 10
224.5809967189865
 20
913.2361372433129
 30
0.0
 10
224.7118746490694
 20
911.5400276381094
 30
0.0
 10
224.7365267347285
 20
910.4148359249398
 30
0.0
 10
224.6363837673109
 20
907.0546906361088
 30
0.0
 10
224.3376893578338
 20
904.8351491974706
 30
0.0
 10
223.7252782514155
 20
902.0819080148318
 30
0.0
 10
223.5904970370441
 20
901.5311117723724
 30
0.0
 10
223.3003098632474
 20
900.4390847078083
 30
0.0
 10
223.144932324154
 20
899.8976661587017
 30
0.0
 10
222.6506027168617
 20
898.2860092372632
 30
0.0
 10
222.2835399685864
 20
897.2283310265842
 30
0.0
 10
221.0874873944494
 20
894.097682822334
 30
0.0
 10
220.1644882294915
 20
892.0667172375015
 30
0.0
 10
218.133875150267
 20
888.0872739723749
 30
0.0
 10
217.0258472553499
 20
886.1389812631969
 30
0.0
 10
215.8468970144993
 20
884.2223774397825
 30
0.0
  0
SPLINE
  5
69
330
1F
100
AcDbEntity
  8
0
  6
Continuous
 62
     7
370
    25
100
AcDbSpline
210
0.0
220
0.0
230
1.0
 70
     8
 71
     3
 72
    56
 73
    52
 74
     0
 42
0.00000001
 43
0.00000001
 40
0.0
 40
0.0
 40
0.0
 40
0.0
 40
0.0624999999999976
 40
0.0624999999999976
 40
0.1249999999999952
 40
0.1249999999999952
 40
0.1562499999999941
 40
0.1562499999999941
 40
0.1718749999999943
 40
0.1718749999999943
 40
0.1874999999999946
 40
0.1874999999999946
 40
0.2499999999999986
 40
0.2499999999999986
 40
0.2812499999999998
 40
0.2812499999999998
 40
0.2968750000000004
 40
0.2968750000000004
 40
0.3125000000000011
 40
0.3125000000000011
 40
0.3750000000000037
 40
0.3750000000000037
 40
0.4062500000000041
 40
0.4062500000000041
 40
0.4375000000000046
 40
0.4375000000000046
 40
0.5000000000000044
 40
0.5000000000000044
 40
0.5625000000000044
 40
0.5625000000000044
 40
0.5937500000000042
 40
0.5937500000000042
 40
0.6250000000000042
 40
0.6250000000000042
 40
0.6875000000000041
 40
0.6875000000000041
 40
0.718750000000004
 40
0.718750000000004
 40
0.750000000000004
 40
0.750000000000004
 40
0.8125000000000024
 40
0.8125000000000024
 40
0.8281250000000029
 40
0.8281250000000029
 40
0.8437500000000033
 40
0.8437500000000033
 40
0.8750000000000027
 40
0.8750000000000027
 40
0.9375000000000013
 40
0.9375000000000013
 40
1.0
 40
1.0
 40
1.0
 40
1.0
 10
215.9177408937282
 20
1085.089224388206
 30
0.0
 10
214.7352828753107
 20
1083.173891365408
 30
0.0
 10
213.6248400821226
 20
1081.226425268563
 30
0.0
 10
211.5927096672077
 20
1077.247270830444
 30
0.0
 10
210.67059423597
 20
1075.215773377065
 30
0.0
 10
209.4796886313575
 20
1072.082737738553
 30
0.0
 10
209.1149848532117
 20
1071.023996044781
 30
0.0
 10
208.6254100358523
 20
1069.410235644257
 30
0.0
 10
208.4718208475616
 20
1068.868030927989
 30
0.0
 10
208.1856689747958
 20
1067.774239504327
 30
0.0
 10
208.0531617331311
 20
1067.222544543209
 30
0.0
 10
207.4535703591628
 20
1064.465969323084
 30
0.0
 10
207.1696179102954
 20
1062.246139041674
 30
0.0
 10
207.0961851488119
 20
1058.890152635031
 30
0.0
 10
207.1304829651799
 20
1057.767115060215
 30
0.0
 10
207.2764340193779
 20
1056.075523476958
 30
0.0
 10
207.3410686478902
 20
1055.509431797894
 30
0.0
 10
207.500132397492
 20
1054.389512396899
 30
0.0
 10
207.5946443576696
 20
1053.833988150457
 30
0.0
 10
208.1389074429666
 20
1051.077597546485
 30
0.0
 10
208.8057719308991
 20
1048.9410162929
 30
0.0
 10
210.0679547757574
 20
1045.813686281781
 30
0.0
 10
210.5330154441742
 20
1044.781871532208
 30
0.0
 10
211.5251178926849
 20
1042.749620004595
 30
0.0
 10
212.0513373373442
 20
1041.75017515295
 30
0.0
 10
213.6900360840159
 20
1038.785038739534
 30
0.0
 10
214.8625259782394
 20
1036.852528830644
 30
0.0
 10
217.206760907071
 20
1032.987097157683
 30
0.0
 10
218.3785923167684
 20
1031.054223152986
 30
0.0
 10
220.0152677126494
 20
1028.087967968348
 30
0.0
 10
220.540638943912
 20
1027.088054114125
 30
0.0
 10
221.5306945489346
 20
1025.054670825474
 30
0.0
 10
221.9965664440401
 20
1024.017884969291
 30
0.0
 10
223.2595310730786
 20
1020.874250248546
 30
0.0
 10
223.9224006500908
 20
1018.730859105091
 30
0.0
 10
224.5674686344574
 20
1015.422890637927
 30
0.0
 10
224.7248132061129
 20
1014.304158755759
 30
0.0
 10
224.9157034306655
 20
1012.036751292317
 30
0.0
 10
224.94765307982
 20
1010.908652224323
 30
0.0
 10
224.8669236149242
 20
1007.53994137209
 30
0.0
 10
224.5778705494855
 20
1005.314897892091
 30
0.0
 10
223.9742349125231
 20
1002.554982758789
 30
0.0
 10
223.8410552633012
 20
1002.002862897909
 30
0.0
 10
223.5534765337787
 20
1000.907302936409
 30
0.0
 10
223.3992367928835
 20
1000.364191373119
 30
0.0
 10
222.9078844938795
 20
998.7476477207882
 30
0.0
 10
222.5422278381427
 20
997.6869669205099
 30
0.0
 10
221.3490453403163
 20
994.5479048155099
 30
0.0
 10
220.4261839328096
 20
992.5121120465965
 30
0.0
 10
218.3935595654078
 20
988.524019625127
 30
0.0
 10
217.2833689222428
 20
986.5719110282824
 30
0.0
 10
216.1014432109555
 20
984.6518480956557
 30
0.0
  0
SPLINE
  5
6A
330
1F
100
AcDbEntity
  8
0
  6
Continuous
 62
     7
370
    25
100
AcDbSpline
210
0.0
220
0.0
230
1.0
 70
     8
 71
     3
 72
    57
 73
    53
 74
     0
 42
0.00000001
 43
0.00000001
 40
0.0
 40
0.0
 40
0.0
 40
0.0
 40
0.0624999999999998
 40
0.0624999999999998
 40
0.1249999999999996
 40
0.1249999999999996
 40
0.1562499999999992
 40
0.1562499999999992
 40
0.171875
 40
0.171875
 40
0.1875000000000007
 40
0.1875000000000007
 40
0.2500000000000021
 40
0.2500000000000021
 40
0.2812500000000028
 40
0.2812500000000028
 40
0.2968750000000031
 40
0.2968750000000031
 40
0.3125000000000036
 40
0.3125000000000036
 40
0.3750000000000034
 40
0.3750000000000034
 40
0.4062500000000032
 40
0.4062500000000032
 40
0.4375000000000031
 40
0.4375000000000031
 40
0.5000000000000027
 40
0.5000000000000027
 40
0.5625000000000022
 40
0.5625000000000022
 40
0.5937500000000027
 40
0.6093750000000038
 40
0.6093750000000038
 40
0.6250000000000049
 40
0.6250000000000049
 40
0.6875000000000066
 40
0.6875000000000066
 40
0.7187500000000067
 40
0.7187500000000067
 40
0.7500000000000067
 40
0.7500000000000067
 40
0.8125000000000069
 40
0.8125000000000069
 40
0.8281250000000064
 40
0.8281250000000064
 40
0.843750000000006
 40
0.843750000000006
 40
0.8750000000000049
 40
0.8750000000000049
 40
0.9375000000000024
 40
0.9375000000000024
 40
1.0
 40
1.0
 40
1.0
 40
1.0
 10
215.2822596563605
 20
1185.534750394648
 30
0.0
 10
214.0927111808943
 20
1183.618027178564
 30
0.0
 10
212.9695326244278
 20
1181.657464320761
 30
0.0
 10
210.9228792778257
 20
1177.661661514348
 30
0.0
 10
209.9970703125448
 20
1175.623888449743
 30
0.0
 10
208.8064964354679
 20
1172.486216347121
 30
0.0
 10
208.4428780815856
 20
1171.426735106558
 30
0.0
 10
207.9563642229403
 20
1169.813425456566
 30
0.0
 10
207.804033177687
 20
1169.271632234668
 30
0.0
 10
207.5208515905675
 20
1168.179263146416
 30
0.0
 10
207.3897641481323
 20
1167.627556191508
 30
0.0
 10
206.7959307457246
 20
1164.858508355169
 30
0.0
 10
206.5226447247312
 20
1162.634034107812
 30
0.0
 10
206.4701001347702
 20
1159.28096440852
 30
0.0
 10
206.5121375987319
 20
1158.16054865837
 30
0.0
 10
206.6699909809402
 20
1156.475585942488
 30
0.0
 10
206.7385486866485
 20
1155.912187929452
 30
0.0
 10
206.9071699322335
 20
1154.788392389939
 30
0.0
 10
207.0066495134494
 20
1154.231457675015
 30
0.0
 10
207.5762316154047
 20
1151.470401682573
 30
0.0
 10
208.2646091788067
 20
1149.337696712951
 30
0.0
 10
209.5551110810513
 20
1146.223031889677
 30
0.0
 10
210.0281981926647
 20
1145.198197864686
 30
0.0
 10
211.0394167852734
 20
1143.17253718493
 30
0.0
 10
211.5749399420608
 20
1142.176586792434
 30
0.0
 10
213.240865580321
 20
1139.222229419312
 30
0.0
 10
214.4305732005067
 20
1137.297287448041
 30
0.0
 10
216.8088903174577
 20
1133.446783850755
 30
0.0
 10
217.9976387665988
 20
1131.521300633503
 30
0.0
 10
219.660685867075
 20
1128.565318944242
 30
0.0
 10
220.4621733755014
 20
1127.070379207122
 30
0.0
 10
221.1958334968457
 20
1125.537165482408
 30
0.0
 10
221.6672999983248
 20
1124.505068870281
 30
0.0
 10
221.8943314725896
 20
1123.983654454587
 30
0.0
 10
222.9721252458355
 20
1121.365588265036
 30
0.0
 10
223.6542673538152
 20
1119.223315228058
 30
0.0
 10
224.3256723464797
 20
1115.916490020518
 30
0.0
 10
224.4913078238888
 20
1114.798770078981
 30
0.0
 10
224.6979994223362
 20
1112.530250629182
 30
0.0
 10
224.737243177879
 20
1111.39717372686
 30
0.0
 10
224.6749952882213
 20
1108.020446587484
 30
0.0
 10
224.3945664371803
 20
1105.790546651372
 30
0.0
 10
223.7981963620575
 20
1103.025037271041
 30
0.0
 10
223.6663311653819
 20
1102.471935293756
 30
0.0
 10
223.3806944925567
 20
1101.373227763606
 30
0.0
 10
223.2272495496036
 20
1100.828632358272
 30
0.0
 10
222.73782350502
 20
1099.207872546247
 30
0.0
 10
222.3728432724189
 20
1098.144693310018
 30
0.0
 10
221.1802927141524
 20
1094.99886314132
 30
0.0
 10
220.2560140891096
 20
1092.959516049702
 30
0.0
 10
218.218222107541
 20
1088.965557000342
 30
0.0
 10
217.104265061569
 20
1087.011143716939
 30
0.0
 10
215.9177408937282
 20
1085.089224388206
 30
0.0
  0
SPLINE
  5
6B
330
1F
100
AcDbEntity
  8
0
  6
Continuous
 62
     7
370
    25
100
AcDbSpline
210
0.0
220
0.0
230
1.0
 70
     8
 71
     3
 72
    54
 73
    50
 74
     0
 42
0.00000001
 43
0.00000001
 40
0.0
 40
0.0
 40
0.0
 40
0.0
 40
0.0625000000000001
 40
0.0625000000000001
 40
0.1250000000000002
 40
0.1250000000000002
 40
0.1406250000000003
 40
0.1406250000000003
 40
0.1562500000000003
 40
0.1562500000000003
 40
0.1875000000000002
 40
0.1875000000000002
 40
0.2500000000000007
 40
0.2500000000000007
 40
0.2812500000000008
 40
0.2812500000000008
 40
0.312500000000001
 40
0.312500000000001
 40
0.3437500000000012
 40
0.3437500000000012
 40
0.3593750000000017
 40
0.3593750000000017
 40
0.3750000000000022
 40
0.3750000000000022
 40
0.5000000000000062
 40
0.5000000000000062
 40
0.5625000000000084
 40
0.5625000000000084
 40
0.5937500000000091
 40
0.6093750000000093
 40
0.6093750000000093
 40
0.6250000000000097
 40
0.6250000000000097
 40
0.6875000000000108
 40
0.6875000000000108
 40
0.7187500000000113
 40
0.7187500000000113
 40
0.7343750000000111
 40
0.7343750000000111
 40
0.7500000000000111
 40
0.8125000000000081
 40
0.8125000000000081
 40
0.843750000000007
 40
0.843750000000007
 40
0.8750000000000059
 40
0.8750000000000059
 40
0.9375000000000029
 40
0.9375000000000029
 40
1.0
 40
1.0
 40
1.0
 40
1.0
 10
214.1776314168127
 20
1285.988739420658
 30
0.0
 10
212.9746295548469
 20
1284.065339515248
 30
0.0
 10
211.8446490574074
 20
1282.106973246207
 30
0.0
 10
209.7786926213993
 20
1278.097341403991
 30
0.0
 10
208.842192968767
 20
1276.046326611891
 30
0.0
 10
207.8391638151352
 20
1273.402304867636
 30
0.0
 10
207.6470289405947
 20
1272.86944419176
 30
0.0
 10
207.2812941563828
 20
1271.794847350955
 30
0.0
 10
207.1074047035786
 20
1271.252109418903
 30
0.0
 10
206.6187093705633
 20
1269.6176967283
 30
0.0
 10
206.3369683102496
 20
1268.520907852148
 30
0.0
 10
205.6412579098126
 20
1265.206172962703
 30
0.0
 10
205.3763903185063
 20
1262.963925680199
 30
0.0
 10
205.3575641315044
 20
1259.538869177322
 30
0.0
 10
205.414846116967
 20
1258.405921233474
 30
0.0
 10
205.6545987938103
 20
1256.164340181401
 30
0.0
 10
205.8370882892995
 20
1255.054531833175
 30
0.0
 10
206.3216490625475
 20
1252.855889456774
 30
0.0
 10
206.6237433952802
 20
1251.767059472379
 30
0.0
 10
207.1590477655738
 20
1250.148225640395
 30
0.0
 10
207.3514433042439
 20
1249.610378312602
 30
0.0
 10
207.7578020187065
 20
1248.549032997568
 30
0.0
 10
207.9721373363076
 20
1248.024283180182
 30
0.0
 10
209.9900524920082
 20
1243.348731520576
 30
0.0
 10
212.4144568769521
 20
1239.52753788117
 30
0.0
 10
216.0344779293866
 20
1233.786928026881
 30
0.0
 10
217.2387436688194
 20
1231.87203387943
 30
0.0
 10
218.9232985427704
 20
1228.931000696086
 30
0.0
 10
219.7350955857892
 20
1227.4433001428
 30
0.0
 10
220.4785844133432
 20
1225.917089399844
 30
0.0
 10
220.9565129186073
 20
1224.889619509679
 30
0.0
 10
221.1869465766016
 20
1224.370038554839
 30
0.0
 10
222.2820977849557
 20
1221.758955639048
 30
0.0
 10
222.9764891561761
 20
1219.62210808982
 30
0.0
 10
223.6640541116628
 20
1216.323365963488
 30
0.0
 10
223.8347040909769
 20
1215.208329650332
 30
0.0
 10
223.9966877363499
 20
1213.510959090273
 30
0.0
 10
224.0347931791185
 20
1212.942538808143
 30
0.0
 10
224.0791937299737
 20
1211.811854045128
 30
0.0
 10
224.1115416252175
 20
1208.992277319302
 30
0.0
 10
223.7666039429161
 20
1206.206926683493
 30
0.0
 10
223.0550840855149
 20
1202.891502714192
 30
0.0
 10
222.7673366826683
 20
1201.789048435664
 30
0.0
 10
222.1155010081925
 20
1199.62953571412
 30
0.0
 10
221.750526577099
 20
1198.567357013871
 30
0.0
 10
220.5571893125814
 20
1195.42511272678
 30
0.0
 10
219.6313308525302
 20
1193.388925646949
 30
0.0
 10
217.5890594859321
 20
1189.402311689112
 30
0.0
 10
216.4721906701127
 20
1187.452089995881
 30
0.0
 10
215.2822596563605
 20
1185.534750394648
 30
0.0
  0
SPLINE
  5
6C
330
1F
100
AcDbEntity
  8
0
  6
Continuous
 62
     7
370
    25
100
AcDbSpline
210
0.0
220
0.0
230
1.0
 70
     8
 71
     3
 72
    56
 73
    52
 74
     0
 42
0.00000001
 43
0.00000001
 40
0.0
 40
0.0
 40
0.0
 40
0.0
 40
0.0625000000000001
 40
0.0625000000000001
 40
0.1250000000000002
 40
0.1250000000000002
 40
0.1562500000000006
 40
0.1562500000000006
 40
0.1875000000000008
 40
0.1875000000000008
 40
0.2500000000000013
 40
0.2500000000000013
 40
0.2656250000000018
 40
0.2656250000000018
 40
0.2812500000000022
 40
0.2812500000000022
 40
0.3125000000000027
 40
0.3125000000000027
 40
0.375000000000003
 40
0.375000000000003
 40
0.3906250000000028
 40
0.3906250000000028
 40
0.4062500000000024
 40
0.4062500000000024
 40
0.4375000000000023
 40
0.4375000000000023
 40
0.5000000000000022
 40
0.5000000000000022
 40
0.5625000000000021
 40
0.5625000000000021
 40
0.625000000000002
 40
0.625000000000002
 40
0.687500000000002
 40
0.687500000000002
 40
0.703125000000002
 40
0.703125000000002
 40
0.718750000000002
 40
0.718750000000002
 40
0.7500000000000016
 40
0.7500000000000016
 40
0.7812500000000011
 40
0.7812500000000011
 40
0.7968750000000009
 40
0.7968750000000009
 40
0.8125000000000007
 40
0.8125000000000007
 40
0.8750000000000002
 40
0.8750000000000002
 40
0.9375000000000001
 40
0.9375000000000001
 40
1.0
 40
1.0
 40
1.0
 40
1.0
 10
212.5819717694748
 20
1386.451586242611
 30
0.0
 10
211.3675086742223
 20
1384.530176114783
 30
0.0
 10
210.227667777193
 20
1382.574578700055
 30
0.0
 10
208.1459798888894
 20
1378.572675279564
 30
0.0
 10
207.2036191906679
 20
1376.526604622628
 30
0.0
 10
205.9947638272842
 20
1373.363724286316
 30
0.0
 10
205.6261796116199
 20
1372.29368573987
 30
0.0
 10
204.971418054609
 20
1370.115854901819
 30
0.0
 10
204.6846292806253
 20
1369.003396280542
 30
0.0
 10
203.9858926945023
 20
1365.663665710594
 30
0.0
 10
203.7298233505171
 20
1363.419326945814
 30
0.0
 10
203.7272544887136
 20
1360.586880356503
 30
0.0
 10
203.7426076591289
 20
1360.019040643527
 30
0.0
 10
203.8063094794812
 20
1358.880553056295
 30
0.0
 10
203.8549086620656
 20
1358.3079579751
 30
0.0
 10
204.0499385715633
 20
1356.601422238351
 30
0.0
 10
204.2447469016047
 20
1355.482228527463
 30
0.0
 10
205.0078503692768
 20
1352.175659258505
 30
0.0
 10
205.7564835641538
 20
1350.039769366327
 30
0.0
 10
206.9151577261157
 20
1347.433538953073
 30
0.0
 10
207.1581077367644
 20
1346.915103427589
 30
0.0
 10
207.6604423451458
 20
1345.890027352126
 30
0.0
 10
207.9201728517918
 20
1345.382559716207
 30
0.0
 10
208.7211290449609
 20
1343.873044000968
 30
0.0
 10
209.2840992951609
 20
1342.883871206993
 30
0.0
 10
211.0294944056621
 20
1339.949798069688
 30
0.0
 10
212.2683084818734
 20
1338.038286634778
 30
0.0
 10
214.7389671137727
 20
1334.211137006344
 30
0.0
 10
215.9710818896939
 20
1332.295658814312
 30
0.0
 10
218.2713730103285
 20
1328.367632003251
 30
0.0
 10
219.3413148873391
 20
1326.348177491038
 30
0.0
 10
221.1258988360775
 20
1322.190009296095
 30
0.0
 10
221.8433645484383
 20
1320.046557118894
 30
0.0
 10
222.4397819570321
 20
1317.256634262191
 30
0.0
 10
222.5439516989244
 20
1316.693342521317
 30
0.0
 10
222.7190364013941
 20
1315.569934589298
 30
0.0
 10
222.7903632598034
 20
1315.008044138854
 30
0.0
 10
222.956276261507
 20
1313.32181999185
 30
0.0
 10
223.002718457059
 20
1312.196932621283
 30
0.0
 10
222.972799453365
 20
1309.945745593649
 30
0.0
 10
222.8964835989502
 20
1308.819446458064
 30
0.0
 10
222.6955646885552
 20
1307.129003602296
 30
0.0
 10
222.6139959082871
 20
1306.56420644298
 30
0.0
 10
222.4239727368118
 20
1305.439449223386
 30
0.0
 10
222.3160860303255
 20
1304.882402064283
 30
0.0
 10
221.718072073044
 20
1302.121423800231
 30
0.0
 10
221.0543672321493
 20
1299.989369330941
 30
0.0
 10
219.4656531251941
 20
1295.83346377825
 30
0.0
 10
218.5398768658028
 20
1293.809930298638
 30
0.0
 10
216.4939323705534
 20
1289.843358991296
 30
0.0
 10
215.3733490450485
 20
1287.900493047778
 30
0.0
 10
214.1776314168127
 20
1285.988739420658
 30
0.0
  0
SPLINE
  5
6D
330
1F
100
AcDbEntity
  8
0
  6
Continuous
 62
     7
370
    25
100
AcDbSpline
210
0.0
220
0.0
230
1.0
 70
     8
 71
     3
 72
    42
 73
    38
 74
     0
 42
0.00000001
 43
0.00000001
 40
0.006568974691621
 40
0.006568974691621
 40
0.006568974691621
 40
0.006568974691621
 40
0.0625000000000002
 40
0.0625000000000002
 40
0.1250000000000004
 40
0.1250000000000004
 40
0.1562500000000004
 40
0.1562500000000004
 40
0.1875000000000006
 40
0.1875000000000006
 40
0.2500000000000002
 40
0.2500000000000002
 40
0.3749999999999994
 40
0.3749999999999994
 40
0.4374999999999993
 40
0.4374999999999993
 40
0.4999999999999992
 40
0.4999999999999992
 40
0.5624999999999991
 40
0.5624999999999991
 40
0.5937499999999991
 40
0.5937499999999991
 40
0.6093749999999991
 40
0.6093749999999991
 40
0.6249999999999991
 40
0.6249999999999991
 40
0.6874999999999993
 40
0.6874999999999993
 40
0.7187499999999993
 40
0.7187499999999993
 40
0.7499999999999993
 40
0.7499999999999993
 40
0.8124999999999996
 40
0.8124999999999996
 40
0.8749999999999998
 40
0.8749999999999998
 40
1.0
 40
1.0
 40
1.0
 40
1.0
 10
201.5482675532437
 20
1461.4270922569
 30
0.0
 10
201.5654507827175
 20
1459.871441914673
 30
0.0
 10
201.7053503638487
 20
1458.339294172834
 30
0.0
 10
202.251333649426
 20
1455.14288400647
 30
0.0
 10
202.6869185207252
 20
1453.484271636938
 30
0.0
 10
203.5356028324933
 20
1451.033758224052
 30
0.0
 10
203.8521138079356
 20
1450.220563587323
 30
0.0
 10
204.5331186818494
 20
1448.6275461547
 30
0.0
 10
204.8981640750331
 20
1447.84540965236
 30
0.0
 10
206.052957085483
 20
1445.533934842307
 30
0.0
 10
206.9022381993545
 20
1444.03945900771
 30
0.0
 10
209.5824211010053
 20
1439.633528788928
 30
0.0
 10
211.545530136275
 20
1436.799494208285
 30
0.0
 10
214.3519901828021
 20
1432.46751115907
 30
0.0
 10
215.2645870034513
 20
1431.010112638107
 30
0.0
 10
216.9759111007108
 20
1428.028634246284
 30
0.0
 10
217.7758384760202
 20
1426.500567874269
 30
0.0
 10
219.1738804269635
 20
1423.379451754504
 30
0.0
 10
219.7739609783131
 20
1421.78327904224
 30
0.0
 10
220.4816947123217
 20
1419.319768204394
 30
0.0
 10
220.6856299709242
 20
1418.487087830644
 30
0.0
 10
220.9389072308413
 20
1417.219124118483
 30
0.0
 10
221.0144917234637
 20
1416.793380843012
 30
0.0
 10
221.1463542911976
 20
1415.943942412498
 30
0.0
 10
221.2028565170008
 20
1415.519200301042
 30
0.0
 10
221.4387121635837
 20
1413.395376452146
 30
0.0
 10
221.4776016473263
 20
1411.695953631826
 30
0.0
 10
221.3279940300976
 20
1409.146314464604
 30
0.0
 10
221.243567283501
 20
1408.296350827522
 30
0.0
 10
221.0091555897373
 20
1406.596264361038
 30
0.0
 10
220.8585124868887
 20
1405.744391071172
 30
0.0
 10
220.3256153380896
 20
1403.235591128915
 30
0.0
 10
219.8614493230275
 20
1401.608877395249
 30
0.0
 10
218.7672506038443
 20
1398.425237363433
 30
0.0
 10
218.1369804997632
 20
1396.868410949922
 30
0.0
 10
216.0504466857678
 20
1392.280281223536
 30
0.0
 10
214.4013872618999
 20
1389.330095575283
 30
0.0
 10
212.5819717694748
 20
1386.451586242611
 30
0.0
  0
ENDSEC
  0
SECTION
  2
OBJECTS
  0
DICTIONARY
  5
C
330
0
100
AcDbDictionary
281
     1
  3
ACAD_GROUP
350
D
  3
ACAD_LAYOUT
350
1A
  3
ACAD_MLINESTYLE
350
17
  3
ACAD_PLOTSETTINGS
350
19
  3
ACAD_PLOTSTYLENAME
350
E
  3
ACAD_SCALELIST
350
47
  3
DWGPROPS
350
6E
  0
DICTIONARY
  5
D
102
{ACAD_REACTORS
330
C
102
}
330
C
100
AcDbDictionary
281
     1
  0
DICTIONARY
  5
1A
102
{ACAD_REACTORS
330
C
102
}
330
C
100
AcDbDictionary
281
     1
  3
Layout1
350
1E
  3
Layout2
350
26
  3
Model
350
22
  0
DICTIONARY
  5
17
102
{ACAD_REACTORS
330
C
102
}
330
C
100
AcDbDictionary
281
     1
  3
Standard
350
18
  0
DICTIONARY
  5
19
102
{ACAD_REACTORS
330
C
102
}
330
C
100
AcDbDictionary
281
     1
  0
ACDBDICTIONARYWDFLT
  5
E
102
{ACAD_REACTORS
330
C
102
}
330
C
100
AcDbDictionary
281
     1
  3
Normal
350
F
100
AcDbDictionaryWithDefault
340
F
  0
DICTIONARY
  5
47
102
{ACAD_REACTORS
330
C
102
}
330
C
100
AcDbDictionary
281
     1
  3
A0
350
48
  3
A1
350
49
  3
A2
350
4A
  3
A3
350
4B
  3
A4
350
4C
  3
A5
350
4D
  3
A6
350
4E
  3
A7
350
4F
  3
A8
350
50
  3
A9
350
51
  3
B0
350
52
  3
B1
350
53
  3
B2
350
54
  3
B3
350
55
  3
B4
350
56
  3
B5
350
57
  3
B6
350
58
  0
XRECORD
  5
6E
102
{ACAD_REACTORS
330
C
102
}
330
C
100
AcDbXrecord
280
     1
  1
DWGPROPS COOKIE
  2

  3

  4

  6

  7

  8
lserre
  9

300
=
301
=
302
=
303
=
304
=
305
=
306
=
307
=
308
=
309
=
 40
0.0
 41
2460038.41937853
 42
2460038.419378623
  1

 90
        0
  0
LAYOUT
  5
1E
102
{ACAD_REACTORS
330
1A
102
}
330
1A
100
AcDbPlotSettings
  1

  2
none_device
  4

  6

 40
0.0
 41
0.0
 42
0.0
 43
0.0
 44
0.0
 45
0.0
 46
0.0
 47
0.0
 48
0.0
 49
0.0
140
0.0
141
0.0
142
1.0
143
1.0
 70
   688
 72
     1
 73
     0
 74
     5
  7

 75
    16
147
1.0
148
0.0
149
0.0
100
AcDbLayout
  1
Layout1
 70
     1
 71
     1
 10
0.0
 20
0.0
 11
420.0
 21
297.0
 12
0.0
 22
0.0
 32
0.0
 14
1.0000000000E+20
 24
1.0000000000E+20
 34
1.0000000000E+20
 15
-1.0000000000E+20
 25
-1.0000000000E+20
 35
-1.0000000000E+20
146
0.0
 13
0.0
 23
0.0
 33
0.0
 16
1.0
 26
0.0
 36
0.0
 17
0.0
 27
1.0
 37
0.0
 76
     0
330
1B
  0
LAYOUT
  5
26
102
{ACAD_REACTORS
330
1A
102
}
330
1A
100
AcDbPlotSettings
  1

  2
none_device
  4

  6

 40
0.0
 41
0.0
 42
0.0
 43
0.0
 44
0.0
 45
0.0
 46
0.0
 47
0.0
 48
0.0
 49
0.0
140
0.0
141
0.0
142
1.0
143
1.0
 70
   688
 72
     1
 73
     0
 74
     5
  7

 75
    16
147
1.0
148
0.0
149
0.0
100
AcDbLayout
  1
Layout2
 70
     1
 71
     2
 10
0.0
 20
0.0
 11
0.0
 21
0.0
 12
0.0
 22
0.0
 32
0.0
 14
0.0
 24
0.0
 34
0.0
 15
0.0
 25
0.0
 35
0.0
146
0.0
 13
0.0
 23
0.0
 33
0.0
 16
1.0
 26
0.0
 36
0.0
 17
0.0
 27
1.0
 37
0.0
 76
     0
330
23
  0
LAYOUT
  5
22
102
{ACAD_REACTORS
330
1A
102
}
330
1A
100
AcDbPlotSettings
  1

  2
none_device
  4
ANSI_A_(11.00_x_8.50_Inches)
  6

 40
6.35
 41
19.05
 42
6.35000508
 43
19.05000254
 44
279.4
 45
215.9
 46
77.3681999311
 47
-219.007553785
 48
0.0
 49
0.0
140
0.0
141
0.0
142
0.011173903
143
1.0
 70
  1696
 72
     0
 73
     0
 74
     0
  7

 75
     0
147
0.0179189148
148
-1300.4909072572
149
0.0
100
AcDbLayout
  1
Model
 70
     1
 71
     0
 10
0.0
 20
0.0
 11
420.0
 21
297.0
 12
0.0
 22
0.0
 32
0.0
 14
169.5712752365
 24
708.3330309099
 34
0.0
 15
224.9207432582
 25
1461.4270922569
 35
0.0
146
0.0
 13
0.0
 23
0.0
 33
0.0
 16
1.0
 26
0.0
 36
0.0
 17
0.0
 27
1.0
 37
0.0
 76
     0
330
1F
331
29
  0
MLINESTYLE
  5
18
102
{ACAD_REACTORS
330
17
102
}
330
17
100
AcDbMlineStyle
  2
Standard
 70
     0
  3

 62
   256
 51
90.0
 52
90.0
 71
     2
 49
0.5
 62
   256
  6
BYLAYER
 49
-0.5
 62
   256
  6
BYLAYER
  0
ACDBPLACEHOLDER
  5
F
102
{ACAD_REACTORS
330
E
102
}
330
E
  0
SCALE
  5
48
102
{ACAD_REACTORS
330
47
102
}
330
47
100
AcDbScale
 70
     0
300
1:1
140
1.0
141
1.0
290
     1
  0
SCALE
  5
49
102
{ACAD_REACTORS
330
47
102
}
330
47
100
AcDbScale
 70
     0
300
1:2
140
1.0
141
2.0
290
     0
  0
SCALE
  5
4A
102
{ACAD_REACTORS
330
47
102
}
330
47
100
AcDbScale
 70
     0
300
1:4
140
1.0
141
4.0
290
     0
  0
SCALE
  5
4B
102
{ACAD_REACTORS
330
47
102
}
330
47
100
AcDbScale
 70
     0
300
1:5
140
1.0
141
5.0
290
     0
  0
SCALE
  5
4C
102
{ACAD_REACTORS
330
47
102
}
330
47
100
AcDbScale
 70
     0
300
1:8
140
1.0
141
8.0
290
     0
  0
SCALE
  5
4D
102
{ACAD_REACTORS
330
47
102
}
330
47
100
AcDbScale
 70
     0
300
1:10
140
1.0
141
10.0
290
     0
  0
SCALE
  5
4E
102
{ACAD_REACTORS
330
47
102
}
330
47
100
AcDbScale
 70
     0
300
1:16
140
1.0
141
16.0
290
     0
  0
SCALE
  5
4F
102
{ACAD_REACTORS
330
47
102
}
330
47
100
AcDbScale
 70
     0
300
1:20
140
1.0
141
20.0
290
     0
  0
SCALE
  5
50
102
{ACAD_REACTORS
330
47
102
}
330
47
100
AcDbScale
 70
     0
300
1:30
140
1.0
141
30.0
290
     0
  0
SCALE
  5
51
102
{ACAD_REACTORS
330
47
102
}
330
47
100
AcDbScale
 70
     0
300
1:40
140
1.0
141
40.0
290
     0
  0
SCALE
  5
52
102
{ACAD_REACTORS
330
47
102
}
330
47
100
AcDbScale
 70
     0
300
1:50
140
1.0
141
50.0
290
     0
  0
SCALE
  5
53
102
{ACAD_REACTORS
330
47
102
}
330
47
100
AcDbScale
 70
     0
300
1:100
140
1.0
141
100.0
290
     0
  0
SCALE
  5
54
102
{ACAD_REACTORS
330
47
102
}
330
47
100
AcDbScale
 70
     0
300
2:1
140
2.0
141
1.0
290
     0
  0
SCALE
  5
55
102
{ACAD_REACTORS
330
47
102
}
330
47
100
AcDbScale
 70
     0
300
4:1
140
4.0
141
1.0
290
     0
  0
SCALE
  5
56
102
{ACAD_REACTORS
330
47
102
}
330
47
100
AcDbScale
 70
     0
300
8:1
140
8.0
141
1.0
290
     0
  0
SCALE
  5
57
102
{ACAD_REACTORS
330
47
102
}
330
47
100
AcDbScale
 70
     0
300
10:1
140
10.0
141
1.0
290
     0
  0
SCALE
  5
58
102
{ACAD_REACTORS
330
47
102
}
330
47
100
AcDbScale
 70
     0
300
100:1
140
100.0
141
1.0
290
     0
  0
ENDSEC
  0
EOF
