  0
SECTION
  2
HEADER
  9
$ACADVER
  1
AC1015
  9
$ACADMAINTVER
 70
     6
  9
$DWGCODEPAGE
  3
ANSI_1252
  9
$INSBASE
 10
0.0
 20
0.0
 30
0.0
  9
$EXTMIN
 10
-340.6126890276
 20
-25.9693390696
 30
0.0
  9
$EXTMAX
 10
97.5281140907
 20
904.907046855
 30
0.0
  9
$LIMMIN
 10
0.0
 20
0.0
  9
$LIMMAX
 10
420.0
 20
297.0
  9
$ORTHOMODE
 70
     0
  9
$REGENMODE
 70
     1
  9
$FILLMODE
 70
     1
  9
$QTEXTMODE
 70
     0
  9
$MIRRTEXT
 70
     1
  9
$LTSCALE
 40
1.0
  9
$ATTMODE
 70
     1
  9
$TEXTSIZE
 40
3.5
  9
$TRACEWID
 40
1.0
  9
$TEXTSTYLE
  7
Standard
  9
$CLAYER
  8
0
  9
$CELTYPE
  6
ByLayer
  9
$CECOLOR
 62
   256
  9
$CELTSCALE
 40
1.0
  9
$DISPSILH
 70
     0
  9
$DIMSCALE
 40
1.0
  9
$DIMASZ
 40
3.556
  9
$DIMEXO
 40
0.0
  9
$DIMDLI
 40
3.75
  9
$DIMRND
 40
0.0
  9
$DIMDLE
 40
0.0
  9
$DIMEXE
 40
1.0
  9
$DIMTP
 40
0.0
  9
$DIMTM
 40
0.0
  9
$DIMTXT
 40
3.5
  9
$DIMCEN
 40
2.5
  9
$DIMTSZ
 40
0.0
  9
$DIMTOL
 70
     0
  9
$DIMLIM
 70
     0
  9
$DIMTIH
 70
     1
  9
$DIMTOH
 70
     1
  9
$DIMSE1
 70
     0
  9
$DIMSE2
 70
     0
  9
$DIMTAD
 70
     1
  9
$DIMZIN
 70
     0
  9
$DIMBLK
  1

  9
$DIMASO
 70
     1
  9
$DIMSHO
 70
     1
  9
$DIMPOST
  1

  9
$DIMAPOST
  1

  9
$DIMALT
 70
     0
  9
$DIMALTD
 70
     3
  9
$DIMALTF
 40
0.0393700787
  9
$DIMLFAC
 40
1.0
  9
$DIMTOFL
 70
     1
  9
$DIMTVP
 40
0.0
  9
$DIMTIX
 70
     0
  9
$DIMSOXD
 70
     0
  9
$DIMSAH
 70
     0
  9
$DIMBLK1
  1

  9
$DIMBLK2
  1

  9
$DIMSTYLE
  2
ISO-25
  9
$DIMCLRD
 70
     0
  9
$DIMCLRE
 70
     0
  9
$DIMCLRT
 70
     0
  9
$DIMTFAC
 40
1.0
  9
$DIMGAP
 40
1.524
  9
$DIMJUST
 70
     0
  9
$DIMSD1
 70
     0
  9
$DIMSD2
 70
     0
  9
$DIMTOLJ
 70
     0
  9
$DIMTZIN
 70
     0
  9
$DIMALTZ
 70
     0
  9
$DIMALTTZ
 70
     0
  9
$DIMUPT
 70
     0
  9
$DIMDEC
 70
     2
  9
$DIMTDEC
 70
     2
  9
$DIMALTU
 70
     2
  9
$DIMALTTD
 70
     3
  9
$DIMTXSTY
  7
Standard
  9
$DIMAUNIT
 70
     0
  9
$DIMADEC
 70
     0
  9
$DIMALTRND
 40
0.0
  9
$DIMAZIN
 70
     0
  9
$DIMDSEP
 70
    44
  9
$DIMATFIT
 70
     3
  9
$DIMFRAC
 70
     0
  9
$DIMLDRBLK
  1

  9
$DIMLUNIT
 70
     2
  9
$DIMLWD
 70
    -2
  9
$DIMLWE
 70
    -2
  9
$DIMTMOVE
 70
     0
  9
$LUNITS
 70
     2
  9
$LUPREC
 70
     0
  9
$SKETCHINC
 40
1.0
  9
$FILLETRAD
 40
0.0
  9
$AUNITS
 70
     0
  9
$AUPREC
 70
     0
  9
$MENU
  1
.
  9
$ELEVATION
 40
0.0
  9
$PELEVATION
 40
0.0
  9
$THICKNESS
 40
0.0
  9
$LIMCHECK
 70
     0
  9
$CHAMFERA
 40
0.0
  9
$CHAMFERB
 40
0.0
  9
$CHAMFERC
 40
0.0
  9
$CHAMFERD
 40
0.0
  9
$SKPOLY
 70
     0
  9
$TDCREATE
 40
2460118.519883762
  9
$TDUCREATE
 40
2460118.436550428
  9
$TDUPDATE
 40
2460118.519883762
  9
$TDUUPDATE
 40
2460118.436550428
  9
$TDINDWG
 40
0.0000000116
  9
$TDUSRTIMER
 40
0.0000000116
  9
$USRTIMER
 70
     1
  9
$ANGBASE
 50
0.0
  9
$ANGDIR
 70
     0
  9
$PDMODE
 70
     0
  9
$PDSIZE
 40
-1.0
  9
$PLINEWID
 40
0.0
  9
$SPLFRAME
 70
     0
  9
$SPLINETYPE
 70
     6
  9
$SPLINESEGS
 70
     8
  9
$HANDSEED
  5
2DE
  9
$SURFTAB1
 70
     6
  9
$SURFTAB2
 70
     6
  9
$SURFTYPE
 70
     6
  9
$SURFU
 70
     6
  9
$SURFV
 70
     6
  9
$UCSBASE
  2

  9
$UCSNAME
  2

  9
$UCSORG
 10
0.0
 20
0.0
 30
0.0
  9
$UCSXDIR
 10
1.0
 20
0.0
 30
0.0
  9
$UCSYDIR
 10
0.0
 20
1.0
 30
0.0
  9
$UCSORTHOREF
  2

  9
$UCSORTHOVIEW
 70
     0
  9
$UCSORGTOP
 10
0.0
 20
0.0
 30
0.0
  9
$UCSORGBOTTOM
 10
0.0
 20
0.0
 30
0.0
  9
$UCSORGLEFT
 10
0.0
 20
0.0
 30
0.0
  9
$UCSORGRIGHT
 10
0.0
 20
0.0
 30
0.0
  9
$UCSORGFRONT
 10
0.0
 20
0.0
 30
0.0
  9
$UCSORGBACK
 10
0.0
 20
0.0
 30
0.0
  9
$PUCSBASE
  2

  9
$PUCSNAME
  2

  9
$PUCSORG
 10
0.0
 20
0.0
 30
0.0
  9
$PUCSXDIR
 10
1.0
 20
0.0
 30
0.0
  9
$PUCSYDIR
 10
0.0
 20
1.0
 30
0.0
  9
$PUCSORTHOREF
  2

  9
$PUCSORTHOVIEW
 70
     0
  9
$PUCSORGTOP
 10
0.0
 20
0.0
 30
0.0
  9
$PUCSORGBOTTOM
 10
0.0
 20
0.0
 30
0.0
  9
$PUCSORGLEFT
 10
0.0
 20
0.0
 30
0.0
  9
$PUCSORGRIGHT
 10
0.0
 20
0.0
 30
0.0
  9
$PUCSORGFRONT
 10
0.0
 20
0.0
 30
0.0
  9
$PUCSORGBACK
 10
0.0
 20
0.0
 30
0.0
  9
$USERI1
 70
     0
  9
$USERI2
 70
     0
  9
$USERI3
 70
     0
  9
$USERI4
 70
     0
  9
$USERI5
 70
     0
  9
$USERR1
 40
0.0
  9
$USERR2
 40
0.0
  9
$USERR3
 40
0.0
  9
$USERR4
 40
0.0
  9
$USERR5
 40
0.0
  9
$WORLDVIEW
 70
     1
  9
$SHADEDGE
 70
     3
  9
$SHADEDIF
 70
    70
  9
$TILEMODE
 70
     1
  9
$MAXACTVP
 70
    64
  9
$PINSBASE
 10
0.0
 20
0.0
 30
0.0
  9
$PLIMCHECK
 70
     0
  9
$PEXTMIN
 10
1.0000000000E+20
 20
1.0000000000E+20
 30
1.0000000000E+20
  9
$PEXTMAX
 10
-1.0000000000E+20
 20
-1.0000000000E+20
 30
-1.0000000000E+20
  9
$PLIMMIN
 10
0.0
 20
0.0
  9
$PLIMMAX
 10
420.0
 20
297.0
  9
$UNITMODE
 70
     0
  9
$VISRETAIN
 70
     1
  9
$PLINEGEN
 70
     0
  9
$PSLTSCALE
 70
     1
  9
$TREEDEPTH
 70
  3020
  9
$CMLSTYLE
  2
Standard
  9
$CMLJUST
 70
     0
  9
$CMLSCALE
 40
20.0
  9
$PROXYGRAPHICS
 70
     1
  9
$MEASUREMENT
 70
     1
  9
$CELWEIGHT
370
    -1
  9
$ENDCAPS
280
     0
  9
$JOINSTYLE
280
     0
  9
$LWDISPLAY
290
     1
  9
$INSUNITS
 70
     4
  9
$HYPERLINKBASE
  1

  9
$STYLESHEET
  1

  9
$XEDIT
290
     1
  9
$CEPSNTYPE
380
     0
  9
$PSTYLEMODE
290
     1
  9
$FINGERPRINTGUID
  2
{8b3faf19-181f-4c10-a1b4-c39719da83e9}
  9
$VERSIONGUID
  2
{FAEB1C32-E019-11D5-929B-00C0DF256EC4}
  9
$EXTNAMES
290
     1
  9
$PSVPSCALE
 40
0.0
  9
$OLESTARTUP
290
     0
  0
ENDSEC
  0
SECTION
  2
CLASSES
  0
CLASS
  1
ACDBDICTIONARYWDFLT
  2
AcDbDictionaryWithDefault
  3
ObjectDBX Classes
 90
        0
280
     0
281
     0
  0
CLASS
  1
VISUALSTYLE
  2
AcDbVisualStyle
  3
ObjectDBX Classes
 90
     4095
280
     0
281
     0
  0
CLASS
  1
MATERIAL
  2
AcDbMaterial
  3
ObjectDBX Classes
 90
     1153
280
     0
281
     0
  0
CLASS
  1
SCALE
  2
AcDbScale
  3
ObjectDBX Classes
 90
     1153
280
     0
281
     0
  0
CLASS
  1
TABLESTYLE
  2
AcDbTableStyle
  3
ObjectDBX Classes
 90
     4095
280
     0
281
     0
  0
CLASS
  1
MLEADERSTYLE
  2
AcDbMLeaderStyle
  3
ACDB_MLEADERSTYLE_CLASS
 90
     4095
280
     0
281
     0
  0
CLASS
  1
SUN
  2
AcDbSun
  3
SCENEOE
 90
     1153
280
     0
281
     0
  0
CLASS
  1
ACDBPLACEHOLDER
  2
AcDbPlaceHolder
  3
ObjectDBX Classes
 90
        0
280
     0
281
     0
  0
CLASS
  1
LAYOUT
  2
AcDbLayout
  3
ObjectDBX Classes
 90
        0
280
     0
281
     0
  0
ENDSEC
  0
SECTION
  2
TABLES
  0
TABLE
  2
VPORT
  5
8
330
0
100
AcDbSymbolTable
 70
     1
  0
VPORT
  5
29
330
8
100
AcDbSymbolTableRecord
100
AcDbViewportTableRecord
  2
*Active
 70
     0
 10
0.0
 20
0.0
 11
1.0
 21
1.0
 12
-121.5422874684
 22
439.4688538927
 13
0.0
 23
0.0
 14
10.0
 24
10.0
 15
10.0
 25
10.0
 16
0.0
 26
0.0
 36
1.0
 17
0.0
 27
0.0
 37
0.0
 40
949.4939136432
 41
0.4706756018
 42
50.0
 43
0.0
 44
0.0
 50
0.0
 51
0.0
 71
     0
 72
   100
 73
     1
 74
     3
 75
     0
 76
     0
 77
     0
 78
     0
281
     0
 65
     1
110
0.0
120
0.0
130
0.0
111
1.0
121
0.0
131
0.0
112
0.0
122
1.0
132
0.0
 79
     0
146
0.0
  0
ENDTAB
  0
TABLE
  2
LTYPE
  5
5
330
0
100
AcDbSymbolTable
 70
     6
  0
LTYPE
  5
14
330
5
100
AcDbSymbolTableRecord
100
AcDbLinetypeTableRecord
  2
ByBlock
 70
     0
  3

 72
    65
 73
     0
 40
0.0
  0
LTYPE
  5
15
330
5
100
AcDbSymbolTableRecord
100
AcDbLinetypeTableRecord
  2
ByLayer
 70
     0
  3

 72
    65
 73
     0
 40
0.0
  0
LTYPE
  5
16
330
5
100
AcDbSymbolTableRecord
100
AcDbLinetypeTableRecord
  2
Continuous
 70
     0
  3
Solid line
 72
    65
 73
     0
 40
0.0
  0
LTYPE
  5
5E
330
5
100
AcDbSymbolTableRecord
100
AcDbLinetypeTableRecord
  2
HIDDEN
 70
     0
  3
Hidden __ __ __ __ __ __ __ __ __ __ __ __ __ __
 72
    65
 73
     2
 40
1.905
 49
1.27
 74
     0
 49
-0.635
 74
     0
  0
LTYPE
  5
5F
330
5
100
AcDbSymbolTableRecord
100
AcDbLinetypeTableRecord
  2
PHANTOM
 70
     0
  3
Phantom ______  __  __  ______  __  __  ______
 72
    65
 73
     6
 40
12.7
 49
6.35
 74
     0
 49
-1.27
 74
     0
 49
1.27
 74
     0
 49
-1.27
 74
     0
 49
1.27
 74
     0
 49
-1.27
 74
     0
  0
LTYPE
  5
60
330
5
100
AcDbSymbolTableRecord
100
AcDbLinetypeTableRecord
  2
CENTER
 70
     0
  3
Center ____ _ ____ _ ____ _ ____ _ ____ _ ____
 72
    65
 73
     4
 40
10.16
 49
6.35
 74
     0
 49
-1.27
 74
     0
 49
1.27
 74
     0
 49
-1.27
 74
     0
  0
LTYPE
  5
61
330
5
100
AcDbSymbolTableRecord
100
AcDbLinetypeTableRecord
  2
CENTERX2
 70
     0
  3
Center (2x) ________  __  ________  __  _____
 72
    65
 73
     4
 40
20.32
 49
12.7
 74
     0
 49
-2.54
 74
     0
 49
2.54
 74
     0
 49
-2.54
 74
     0
  0
LTYPE
  5
62
330
5
100
AcDbSymbolTableRecord
100
AcDbLinetypeTableRecord
  2
DOT2
 70
     0
  3
Dot (.5x) ........................................
 72
    65
 73
     2
 40
0.635
 49
0.0
 74
     0
 49
-0.635
 74
     0
  0
ENDTAB
  0
TABLE
  2
LAYER
  5
2
330
0
100
AcDbSymbolTable
 70
     1
  0
LAYER
  5
10
330
2
100
AcDbSymbolTableRecord
100
AcDbLayerTableRecord
  2
0
 70
     0
 62
     7
  6
Continuous
370
    -3
390
F
  0
ENDTAB
  0
TABLE
  2
STYLE
  5
3
330
0
100
AcDbSymbolTable
 70
     1
  0
STYLE
  5
11
330
3
100
AcDbSymbolTableRecord
100
AcDbTextStyleTableRecord
  2
Standard
 70
     0
 40
0.0
 41
1.0
 50
0.0
 71
     0
 42
3.5
  3
txt
  4

  0
ENDTAB
  0
TABLE
  2
VIEW
  5
6
330
0
100
AcDbSymbolTable
 70
     0
  0
ENDTAB
  0
TABLE
  2
UCS
  5
7
330
0
100
AcDbSymbolTable
 70
     0
  0
ENDTAB
  0
TABLE
  2
APPID
  5
9
330
0
100
AcDbSymbolTable
 70
     1
  0
APPID
  5
12
330
9
100
AcDbSymbolTableRecord
100
AcDbRegAppTableRecord
  2
ACAD
 70
     0
  0
ENDTAB
  0
TABLE
  2
DIMSTYLE
  5
A
330
0
100
AcDbSymbolTable
 70
     1
100
AcDbDimStyleTable
  0
DIMSTYLE
105
27
330
A
100
AcDbSymbolTableRecord
100
AcDbDimStyleTableRecord
  2
ISO-25
 70
     0
 41
2.5
 42
0.625
 43
3.75
 44
1.25
 73
     0
 74
     0
 77
     1
 78
     8
140
2.5
141
2.5
143
0.0393700787
147
0.625
171
     3
172
     1
178
     0
271
     2
272
     2
274
     3
278
    44
283
     0
284
     8
340
11
  0
ENDTAB
  0
TABLE
  2
BLOCK_RECORD
  5
1
330
0
100
AcDbSymbolTable
 70
     1
  0
BLOCK_RECORD
  5
1F
330
1
100
AcDbSymbolTableRecord
100
AcDbBlockTableRecord
  2
*Model_Space
340
22
  0
BLOCK_RECORD
  5
1B
330
1
100
AcDbSymbolTableRecord
100
AcDbBlockTableRecord
  2
*Paper_Space
340
1E
  0
BLOCK_RECORD
  5
23
330
1
100
AcDbSymbolTableRecord
100
AcDbBlockTableRecord
  2
*Paper_Space0
340
26
  0
ENDTAB
  0
ENDSEC
  0
SECTION
  2
BLOCKS
  0
BLOCK
  5
20
330
1F
100
AcDbEntity
  8
0
100
AcDbBlockBegin
  2
*Model_Space
 70
     0
 10
0.0
 20
0.0
 30
0.0
  3
*Model_Space
  1

  0
ENDBLK
  5
21
330
1F
100
AcDbEntity
  8
0
100
AcDbBlockEnd
  0
BLOCK
  5
1C
330
1B
100
AcDbEntity
 67
     1
  8
0
100
AcDbBlockBegin
  2
*Paper_Space
 70
     0
 10
0.0
 20
0.0
 30
0.0
  3
*Paper_Space
  1

  0
ENDBLK
  5
1D
330
1B
100
AcDbEntity
 67
     1
  8
0
100
AcDbBlockEnd
  0
BLOCK
  5
24
330
23
100
AcDbEntity
  8
0
100
AcDbBlockBegin
  2
*Paper_Space0
 70
     0
 10
0.0
 20
0.0
 30
0.0
  3
*Paper_Space0
  1

  0
ENDBLK
  5
25
330
23
100
AcDbEntity
  8
0
100
AcDbBlockEnd
  0
ENDSEC
  0
SECTION
  2
ENTITIES
  0
LINE
  5
63
330
1F
100
AcDbEntity
  8
0
  6
Continuous
 62
     7
370
    25
100
AcDbLine
 10
-24.4443709127
 20
12.4209249231
 30
0.0
 11
-4.9990193741
 21
23.2231809289
 31
0.0
  0
LINE
  5
64
330
1F
100
AcDbEntity
  8
0
  6
Continuous
 62
     7
370
    25
100
AcDbLine
 10
-19.0293584245
 20
-2.0214511361
 30
0.0
 11
-24.4443709127
 21
12.4209249231
 31
0.0
  0
LINE
  5
65
330
1F
100
AcDbEntity
  8
0
  6
Continuous
 62
     7
370
    25
100
AcDbLine
 10
2.7245977364
 20
2.6235270792
 30
0.0
 11
-19.0293584245
 21
-2.0214511361
 31
0.0
  0
LINE
  5
66
330
1F
100
AcDbEntity
  8
0
  6
Continuous
 62
     7
370
    25
100
AcDbLine
 10
3.7778182515
 20
-0.1855166276
 30
0.0
 11
2.7245977364
 21
2.6235270792
 31
0.0
  0
LINE
  5
67
330
1F
100
AcDbEntity
  8
0
  6
Continuous
 62
     7
370
    25
100
AcDbLine
 10
-15.667533287
 20
-10.9877726335
 30
0.0
 11
3.7778182515
 21
-0.1855166276
 31
0.0
  0
LINE
  5
68
330
1F
100
AcDbEntity
  8
0
  6
Continuous
 62
     7
370
    25
100
AcDbLine
 10
-10.0503572066
 20
-25.9693390696
 30
0.0
 11
-15.667533287
 21
-10.9877726335
 31
0.0
  0
LINE
  5
69
330
1F
100
AcDbEntity
  8
0
  6
Continuous
 62
     7
370
    25
100
AcDbLine
 10
13.2568028872
 20
-25.4669099887
 30
0.0
 11
-10.0503572066
 21
-25.9693390696
 31
0.0
  0
LINE
  5
6A
330
1F
100
AcDbEntity
  8
0
  6
Continuous
 62
     7
370
    25
100
AcDbLine
 10
27.3020214211
 20
-20.2008074133
 30
0.0
 11
13.2568028872
 21
-25.4669099887
 31
0.0
  0
LINE
  5
6B
330
1F
100
AcDbEntity
  8
0
  6
Continuous
 62
     7
370
    25
100
AcDbLine
 10
28.5307786887
 20
-23.4780250712
 30
0.0
 11
27.3020214211
 21
-20.2008074133
 31
0.0
  0
LINE
  5
6C
330
1F
100
AcDbEntity
  8
0
  6
Continuous
 62
     7
370
    25
100
AcDbLine
 10
28.5307786887
 20
-23.4780250712
 30
0.0
 11
31.1056215033
 21
-24.6485738657
 31
0.0
  0
LINE
  5
6D
330
1F
100
AcDbEntity
  8
0
  6
Continuous
 62
     7
370
    25
100
AcDbLine
 10
36.7237089168
 20
-22.5421328355
 30
0.0
 11
31.1056215033
 21
-24.6485738657
 31
0.0
  0
LINE
  5
6E
330
1F
100
AcDbEntity
  8
0
  6
Continuous
 62
     7
370
    25
100
AcDbLine
 10
36.7237089168
 20
-22.5421328355
 30
0.0
 11
37.8942577113
 21
-19.967290021
 31
0.0
  0
LINE
  5
6F
330
1F
100
AcDbEntity
  8
0
  6
Continuous
 62
     7
370
    25
100
AcDbLine
 10
36.6655004437
 20
-16.690072363
 30
0.0
 11
37.8942577113
 21
-19.967290021
 31
0.0
  0
LINE
  5
70
330
1F
100
AcDbEntity
  8
0
  6
Continuous
 62
     7
370
    25
100
AcDbLine
 10
55.3924584889
 20
-9.6686022625
 30
0.0
 11
36.6655004437
 21
-16.690072363
 31
0.0
  0
LINE
  5
71
330
1F
100
AcDbEntity
  8
0
  6
Continuous
 62
     7
370
    25
100
AcDbLine
 10
56.6212157565
 20
-12.9458199205
 30
0.0
 11
55.3924584889
 21
-9.6686022625
 31
0.0
  0
LINE
  5
72
330
1F
100
AcDbEntity
  8
0
  6
Continuous
 62
     7
370
    25
100
AcDbLine
 10
56.6212157565
 20
-12.9458199205
 30
0.0
 11
59.1960585711
 21
-14.1163687149
 31
0.0
  0
LINE
  5
73
330
1F
100
AcDbEntity
  8
0
  6
Continuous
 62
     7
370
    25
100
AcDbLine
 10
64.8141459847
 20
-12.0099276848
 30
0.0
 11
59.1960585711
 21
-14.1163687149
 31
0.0
  0
LINE
  5
74
330
1F
100
AcDbEntity
  8
0
  6
Continuous
 62
     7
370
    25
100
AcDbLine
 10
64.8141459847
 20
-12.0099276848
 30
0.0
 11
65.9846947791
 21
-9.4350848702
 31
0.0
  0
LINE
  5
75
330
1F
100
AcDbEntity
  8
0
  6
Continuous
 62
     7
370
    25
100
AcDbLine
 10
64.7559375116
 20
-6.1578672123
 30
0.0
 11
65.9846947791
 21
-9.4350848702
 31
0.0
  0
LINE
  5
76
330
1F
100
AcDbEntity
  8
0
  6
Continuous
 62
     7
370
    25
100
AcDbLine
 10
83.4828955568
 20
0.8636028882
 30
0.0
 11
64.7559375116
 21
-6.1578672123
 31
0.0
  0
LINE
  5
77
330
1F
100
AcDbEntity
  8
0
  6
Continuous
 62
     7
370
    25
100
AcDbLine
 10
84.7116528244
 20
-2.4136147697
 30
0.0
 11
83.4828955568
 21
0.8636028882
 31
0.0
  0
LINE
  5
78
330
1F
100
AcDbEntity
  8
0
  6
Continuous
 62
     7
370
    25
100
AcDbLine
 10
84.7116528244
 20
-2.4136147697
 30
0.0
 11
87.2864956389
 21
-3.5841635642
 31
0.0
  0
LINE
  5
79
330
1F
100
AcDbEntity
  8
0
  6
Continuous
 62
     7
370
    25
100
AcDbLine
 10
92.9045830525
 20
-1.477722534
 30
0.0
 11
87.2864956389
 21
-3.5841635642
 31
0.0
  0
LINE
  5
7A
330
1F
100
AcDbEntity
  8
0
  6
Continuous
 62
     7
370
    25
100
AcDbLine
 10
92.9045830525
 20
-1.477722534
 30
0.0
 11
94.075131847
 21
1.0971202806
 31
0.0
  0
LINE
  5
7B
330
1F
100
AcDbEntity
  8
0
  6
Continuous
 62
     7
370
    25
100
AcDbLine
 10
92.8463745794
 20
4.3743379385
 30
0.0
 11
94.075131847
 21
1.0971202806
 31
0.0
  0
LINE
  5
7C
330
1F
100
AcDbEntity
  8
0
  6
Continuous
 62
     7
370
    25
100
AcDbLine
 10
97.5281140907
 20
6.1297054636
 30
0.0
 11
92.8463745794
 21
4.3743379385
 31
0.0
  0
LINE
  5
7D
330
1F
100
AcDbEntity
  8
0
  6
Continuous
 62
     7
370
    25
100
AcDbLine
 10
-238.4492302184
 20
902.2146479278
 30
0.0
 11
97.5281140907
 21
6.1297054636
 31
0.0
  0
LINE
  5
7E
330
1F
100
AcDbEntity
  8
0
  6
Continuous
 62
     7
370
    25
100
AcDbLine
 10
-243.1309697297
 20
900.4592804026
 30
0.0
 11
-238.4492302184
 21
902.2146479278
 31
0.0
  0
LINE
  5
7F
330
1F
100
AcDbEntity
  8
0
  6
Continuous
 62
     7
370
    25
100
AcDbLine
 10
-243.1309697297
 20
900.4592804026
 30
0.0
 11
-244.3597269973
 21
903.7364980606
 31
0.0
  0
LINE
  5
80
330
1F
100
AcDbEntity
  8
0
  6
Continuous
 62
     7
370
    25
100
AcDbLine
 10
-244.3597269973
 20
903.7364980606
 30
0.0
 11
-246.9345698118
 21
904.907046855
 31
0.0
  0
LINE
  5
81
330
1F
100
AcDbEntity
  8
0
  6
Continuous
 62
     7
370
    25
100
AcDbLine
 10
-246.9345698118
 20
904.907046855
 30
0.0
 11
-252.5526572254
 21
902.8006058249
 31
0.0
  0
LINE
  5
82
330
1F
100
AcDbEntity
  8
0
  6
Continuous
 62
     7
370
    25
100
AcDbLine
 10
-252.5526572254
 20
902.8006058249
 30
0.0
 11
-253.7232060199
 21
900.2257630103
 31
0.0
  0
LINE
  5
83
330
1F
100
AcDbEntity
  8
0
  6
Continuous
 62
     7
370
    25
100
AcDbLine
 10
-253.7232060199
 20
900.2257630103
 30
0.0
 11
-252.4944487523
 21
896.9485453524
 31
0.0
  0
LINE
  5
84
330
1F
100
AcDbEntity
  8
0
  6
Continuous
 62
     7
370
    25
100
AcDbLine
 10
-271.2214067975
 20
889.9270752519
 30
0.0
 11
-252.4944487523
 21
896.9485453524
 31
0.0
  0
LINE
  5
85
330
1F
100
AcDbEntity
  8
0
  6
Continuous
 62
     7
370
    25
100
AcDbLine
 10
-271.2214067975
 20
889.9270752519
 30
0.0
 11
-272.4501640651
 21
893.2042929098
 31
0.0
  0
LINE
  5
86
330
1F
100
AcDbEntity
  8
0
  6
Continuous
 62
     7
370
    25
100
AcDbLine
 10
-272.4501640651
 20
893.2042929098
 30
0.0
 11
-275.0250068797
 21
894.3748417043
 31
0.0
  0
LINE
  5
87
330
1F
100
AcDbEntity
  8
0
  6
Continuous
 62
     7
370
    25
100
AcDbLine
 10
-275.0250068797
 20
894.3748417043
 30
0.0
 11
-280.6430942933
 21
892.2684006741
 31
0.0
  0
LINE
  5
88
330
1F
100
AcDbEntity
  8
0
  6
Continuous
 62
     7
370
    25
100
AcDbLine
 10
-280.6430942933
 20
892.2684006741
 30
0.0
 11
-281.8136430877
 21
889.6935578595
 31
0.0
  0
LINE
  5
89
330
1F
100
AcDbEntity
  8
0
  6
Continuous
 62
     7
370
    25
100
AcDbLine
 10
-281.8136430877
 20
889.6935578595
 30
0.0
 11
-280.5848858201
 21
886.4163402016
 31
0.0
  0
LINE
  5
8A
330
1F
100
AcDbEntity
  8
0
  6
Continuous
 62
     7
370
    25
100
AcDbLine
 10
-299.3118438654
 20
879.3948701011
 30
0.0
 11
-280.5848858201
 21
886.4163402016
 31
0.0
  0
LINE
  5
8B
330
1F
100
AcDbEntity
  8
0
  6
Continuous
 62
     7
370
    25
100
AcDbLine
 10
-299.3118438654
 20
879.3948701011
 30
0.0
 11
-300.540601133
 21
882.672087759
 31
0.0
  0
LINE
  5
8C
330
1F
100
AcDbEntity
  8
0
  6
Continuous
 62
     7
370
    25
100
AcDbLine
 10
-300.540601133
 20
882.672087759
 30
0.0
 11
-303.1154439475
 21
883.8426365535
 31
0.0
  0
LINE
  5
8D
330
1F
100
AcDbEntity
  8
0
  6
Continuous
 62
     7
370
    25
100
AcDbLine
 10
-303.1154439475
 20
883.8426365535
 30
0.0
 11
-308.7335313611
 21
881.7361955234
 31
0.0
  0
LINE
  5
8E
330
1F
100
AcDbEntity
  8
0
  6
Continuous
 62
     7
370
    25
100
AcDbLine
 10
-308.7335313611
 20
881.7361955234
 30
0.0
 11
-309.9040801556
 21
879.1613527088
 31
0.0
  0
LINE
  5
8F
330
1F
100
AcDbEntity
  8
0
  6
Continuous
 62
     7
370
    25
100
AcDbLine
 10
-309.9040801556
 20
879.1613527088
 30
0.0
 11
-308.675322888
 21
875.8841350509
 31
0.0
  0
LINE
  5
90
330
1F
100
AcDbEntity
  8
0
  6
Continuous
 62
     7
370
    25
100
AcDbLine
 10
-322.7205414219
 20
870.6180324755
 30
0.0
 11
-308.675322888
 21
875.8841350509
 31
0.0
  0
LINE
  5
91
330
1F
100
AcDbEntity
  8
0
  6
Continuous
 62
     7
370
    25
100
AcDbLine
 10
-340.6126890276
 20
855.6732273354
 30
0.0
 11
-322.7205414219
 21
870.6180324755
 31
0.0
  0
LINE
  5
92
330
1F
100
AcDbEntity
  8
0
  6
Continuous
 62
     7
370
    25
100
AcDbLine
 10
-334.9955129472
 20
840.6916608992
 30
0.0
 11
-340.6126890276
 21
855.6732273354
 31
0.0
  0
LINE
  5
93
330
1F
100
AcDbEntity
  8
0
  6
Continuous
 62
     7
370
    25
100
AcDbLine
 10
-313.2415567862
 20
845.3366391144
 30
0.0
 11
-334.9955129472
 21
840.6916608992
 31
0.0
  0
LINE
  5
94
330
1F
100
AcDbEntity
  8
0
  6
Continuous
 62
     7
370
    25
100
AcDbLine
 10
-312.1883362711
 20
842.5275954077
 30
0.0
 11
-313.2415567862
 21
845.3366391144
 31
0.0
  0
LINE
  5
95
330
1F
100
AcDbEntity
  8
0
  6
Continuous
 62
     7
370
    25
100
AcDbLine
 10
-331.6336878097
 20
831.7253394018
 30
0.0
 11
-312.1883362711
 21
842.5275954077
 31
0.0
  0
LINE
  5
96
330
1F
100
AcDbEntity
  8
0
  6
Continuous
 62
     7
370
    25
100
AcDbLine
 10
-326.2186753216
 20
817.2829633426
 30
0.0
 11
-331.6336878097
 21
831.7253394018
 31
0.0
  0
LINE
  5
97
330
1F
100
AcDbEntity
  8
0
  6
Continuous
 62
     7
370
    25
100
AcDbLine
 10
-304.4647191606
 20
821.9279415579
 30
0.0
 11
-326.2186753216
 21
817.2829633426
 31
0.0
  0
LINE
  5
98
330
1F
100
AcDbEntity
  8
0
  6
Continuous
 62
     7
370
    25
100
AcDbLine
 10
-303.4114986455
 20
819.1188978511
 30
0.0
 11
-304.4647191606
 21
821.9279415579
 31
0.0
  0
LINE
  5
99
330
1F
100
AcDbEntity
  8
0
  6
Continuous
 62
     7
370
    25
100
AcDbLine
 10
-322.8568501841
 20
808.3166418453
 30
0.0
 11
-303.4114986455
 21
819.1188978511
 31
0.0
  0
LINE
  5
9A
330
1F
100
AcDbEntity
  8
0
  6
Continuous
 62
     7
370
    25
100
AcDbLine
 10
-317.4418376959
 20
793.8742657861
 30
0.0
 11
-322.8568501841
 21
808.3166418453
 31
0.0
  0
LINE
  5
9B
330
1F
100
AcDbEntity
  8
0
  6
Continuous
 62
     7
370
    25
100
AcDbLine
 10
-295.687881535
 20
798.5192440014
 30
0.0
 11
-317.4418376959
 21
793.8742657861
 31
0.0
  0
LINE
  5
9C
330
1F
100
AcDbEntity
  8
0
  6
Continuous
 62
     7
370
    25
100
AcDbLine
 10
-294.6346610199
 20
795.7102002946
 30
0.0
 11
-295.687881535
 21
798.5192440014
 31
0.0
  0
LINE
  5
9D
330
1F
100
AcDbEntity
  8
0
  6
Continuous
 62
     7
370
    25
100
AcDbLine
 10
-314.0800125584
 20
784.9079442887
 30
0.0
 11
-294.6346610199
 21
795.7102002946
 31
0.0
  0
LINE
  5
9E
330
1F
100
AcDbEntity
  8
0
  6
Continuous
 62
     7
370
    25
100
AcDbLine
 10
-308.6650000703
 20
770.4655682296
 30
0.0
 11
-314.0800125584
 21
784.9079442887
 31
0.0
  0
LINE
  5
9F
330
1F
100
AcDbEntity
  8
0
  6
Continuous
 62
     7
370
    25
100
AcDbLine
 10
-286.9110439093
 20
775.1105464448
 30
0.0
 11
-308.6650000703
 21
770.4655682296
 31
0.0
  0
LINE
  5
A0
330
1F
100
AcDbEntity
  8
0
  6
Continuous
 62
     7
370
    25
100
AcDbLine
 10
-285.8578233943
 20
772.3015027381
 30
0.0
 11
-286.9110439093
 21
775.1105464448
 31
0.0
  0
LINE
  5
A1
330
1F
100
AcDbEntity
  8
0
  6
Continuous
 62
     7
370
    25
100
AcDbLine
 10
-305.3031749328
 20
761.4992467322
 30
0.0
 11
-285.8578233943
 21
772.3015027381
 31
0.0
  0
LINE
  5
A2
330
1F
100
AcDbEntity
  8
0
  6
Continuous
 62
     7
370
    25
100
AcDbLine
 10
-299.8881624447
 20
747.056870673
 30
0.0
 11
-305.3031749328
 21
761.4992467322
 31
0.0
  0
LINE
  5
A3
330
1F
100
AcDbEntity
  8
0
  6
Continuous
 62
     7
370
    25
100
AcDbLine
 10
-278.1342062837
 20
751.7018488883
 30
0.0
 11
-299.8881624447
 21
747.056870673
 31
0.0
  0
LINE
  5
A4
330
1F
100
AcDbEntity
  8
0
  6
Continuous
 62
     7
370
    25
100
AcDbLine
 10
-277.0809857686
 20
748.8928051815
 30
0.0
 11
-278.1342062837
 21
751.7018488883
 31
0.0
  0
LINE
  5
A5
330
1F
100
AcDbEntity
  8
0
  6
Continuous
 62
     7
370
    25
100
AcDbLine
 10
-296.5263373072
 20
738.0905491757
 30
0.0
 11
-277.0809857686
 21
748.8928051815
 31
0.0
  0
LINE
  5
A6
330
1F
100
AcDbEntity
  8
0
  6
Continuous
 62
     7
370
    25
100
AcDbLine
 10
-291.111324819
 20
723.6481731165
 30
0.0
 11
-296.5263373072
 21
738.0905491757
 31
0.0
  0
LINE
  5
A7
330
1F
100
AcDbEntity
  8
0
  6
Continuous
 62
     7
370
    25
100
AcDbLine
 10
-269.3573686581
 20
728.2931513318
 30
0.0
 11
-291.111324819
 21
723.6481731165
 31
0.0
  0
LINE
  5
A8
330
1F
100
AcDbEntity
  8
0
  6
Continuous
 62
     7
370
    25
100
AcDbLine
 10
-268.304148143
 20
725.484107625
 30
0.0
 11
-269.3573686581
 21
728.2931513318
 31
0.0
  0
LINE
  5
A9
330
1F
100
AcDbEntity
  8
0
  6
Continuous
 62
     7
370
    25
100
AcDbLine
 10
-287.7494996815
 20
714.6818516191
 30
0.0
 11
-268.304148143
 21
725.484107625
 31
0.0
  0
LINE
  5
AA
330
1F
100
AcDbEntity
  8
0
  6
Continuous
 62
     7
370
    25
100
AcDbLine
 10
-282.3344871934
 20
700.23947556
 30
0.0
 11
-287.7494996815
 21
714.6818516191
 31
0.0
  0
LINE
  5
AB
330
1F
100
AcDbEntity
  8
0
  6
Continuous
 62
     7
370
    25
100
AcDbLine
 10
-260.5805310324
 20
704.8844537752
 30
0.0
 11
-282.3344871934
 21
700.23947556
 31
0.0
  0
LINE
  5
AC
330
1F
100
AcDbEntity
  8
0
  6
Continuous
 62
     7
370
    25
100
AcDbLine
 10
-259.5273105174
 20
702.0754100684
 30
0.0
 11
-260.5805310324
 21
704.8844537752
 31
0.0
  0
LINE
  5
AD
330
1F
100
AcDbEntity
  8
0
  6
Continuous
 62
     7
370
    25
100
AcDbLine
 10
-278.9726620559
 20
691.2731540626
 30
0.0
 11
-259.5273105174
 21
702.0754100684
 31
0.0
  0
LINE
  5
AE
330
1F
100
AcDbEntity
  8
0
  6
Continuous
 62
     7
370
    25
100
AcDbLine
 10
-273.5576495678
 20
676.8307780034
 30
0.0
 11
-278.9726620559
 21
691.2731540626
 31
0.0
  0
LINE
  5
AF
330
1F
100
AcDbEntity
  8
0
  6
Continuous
 62
     7
370
    25
100
AcDbLine
 10
-251.8036934068
 20
681.4757562187
 30
0.0
 11
-273.5576495678
 21
676.8307780034
 31
0.0
  0
LINE
  5
B0
330
1F
100
AcDbEntity
  8
0
  6
Continuous
 62
     7
370
    25
100
AcDbLine
 10
-250.7504728917
 20
678.6667125119
 30
0.0
 11
-251.8036934068
 21
681.4757562187
 31
0.0
  0
LINE
  5
B1
330
1F
100
AcDbEntity
  8
0
  6
Continuous
 62
     7
370
    25
100
AcDbLine
 10
-270.1958244303
 20
667.8644565061
 30
0.0
 11
-250.7504728917
 21
678.6667125119
 31
0.0
  0
LINE
  5
B2
330
1F
100
AcDbEntity
  8
0
  6
Continuous
 62
     7
370
    25
100
AcDbLine
 10
-264.7808119422
 20
653.4220804469
 30
0.0
 11
-270.1958244303
 21
667.8644565061
 31
0.0
  0
LINE
  5
B3
330
1F
100
AcDbEntity
  8
0
  6
Continuous
 62
     7
370
    25
100
AcDbLine
 10
-243.0268557812
 20
658.0670586622
 30
0.0
 11
-264.7808119422
 21
653.4220804469
 31
0.0
  0
LINE
  5
B4
330
1F
100
AcDbEntity
  8
0
  6
Continuous
 62
     7
370
    25
100
AcDbLine
 10
-241.9736352661
 20
655.2580149554
 30
0.0
 11
-243.0268557812
 21
658.0670586622
 31
0.0
  0
LINE
  5
B5
330
1F
100
AcDbEntity
  8
0
  6
Continuous
 62
     7
370
    25
100
AcDbLine
 10
-261.4189868047
 20
644.4557589495
 30
0.0
 11
-241.9736352661
 21
655.2580149554
 31
0.0
  0
LINE
  5
B6
330
1F
100
AcDbEntity
  8
0
  6
Continuous
 62
     7
370
    25
100
AcDbLine
 10
-256.0039743165
 20
630.0133828904
 30
0.0
 11
-261.4189868047
 21
644.4557589495
 31
0.0
  0
LINE
  5
B7
330
1F
100
AcDbEntity
  8
0
  6
Continuous
 62
     7
370
    25
100
AcDbLine
 10
-234.2500181556
 20
634.6583611056
 30
0.0
 11
-256.0039743165
 21
630.0133828904
 31
0.0
  0
LINE
  5
B8
330
1F
100
AcDbEntity
  8
0
  6
Continuous
 62
     7
370
    25
100
AcDbLine
 10
-233.1967976405
 20
631.8493173988
 30
0.0
 11
-234.2500181556
 21
634.6583611056
 31
0.0
  0
LINE
  5
B9
330
1F
100
AcDbEntity
  8
0
  6
Continuous
 62
     7
370
    25
100
AcDbLine
 10
-252.642149179
 20
621.047061393
 30
0.0
 11
-233.1967976405
 21
631.8493173988
 31
0.0
  0
LINE
  5
BA
330
1F
100
AcDbEntity
  8
0
  6
Continuous
 62
     7
370
    25
100
AcDbLine
 10
-247.2271366909
 20
606.6046853338
 30
0.0
 11
-252.642149179
 21
621.047061393
 31
0.0
  0
LINE
  5
BB
330
1F
100
AcDbEntity
  8
0
  6
Continuous
 62
     7
370
    25
100
AcDbLine
 10
-225.4731805299
 20
611.2496635491
 30
0.0
 11
-247.2271366909
 21
606.6046853338
 31
0.0
  0
LINE
  5
BC
330
1F
100
AcDbEntity
  8
0
  6
Continuous
 62
     7
370
    25
100
AcDbLine
 10
-224.4199600149
 20
608.4406198423
 30
0.0
 11
-225.4731805299
 21
611.2496635491
 31
0.0
  0
LINE
  5
BD
330
1F
100
AcDbEntity
  8
0
  6
Continuous
 62
     7
370
    25
100
AcDbLine
 10
-243.8653115534
 20
597.6383638365
 30
0.0
 11
-224.4199600149
 21
608.4406198423
 31
0.0
  0
LINE
  5
BE
330
1F
100
AcDbEntity
  8
0
  6
Continuous
 62
     7
370
    25
100
AcDbLine
 10
-238.4502990653
 20
583.1959877773
 30
0.0
 11
-243.8653115534
 21
597.6383638365
 31
0.0
  0
LINE
  5
BF
330
1F
100
AcDbEntity
  8
0
  6
Continuous
 62
     7
370
    25
100
AcDbLine
 10
-216.6963429043
 20
587.8409659926
 30
0.0
 11
-238.4502990653
 21
583.1959877773
 31
0.0
  0
LINE
  5
C0
330
1F
100
AcDbEntity
  8
0
  6
Continuous
 62
     7
370
    25
100
AcDbLine
 10
-215.6431223892
 20
585.0319222858
 30
0.0
 11
-216.6963429043
 21
587.8409659926
 31
0.0
  0
LINE
  5
C1
330
1F
100
AcDbEntity
  8
0
  6
Continuous
 62
     7
370
    25
100
AcDbLine
 10
-235.0884739278
 20
574.2296662799
 30
0.0
 11
-215.6431223892
 21
585.0319222858
 31
0.0
  0
LINE
  5
C2
330
1F
100
AcDbEntity
  8
0
  6
Continuous
 62
     7
370
    25
100
AcDbLine
 10
-229.6734614396
 20
559.7872902208
 30
0.0
 11
-235.0884739278
 21
574.2296662799
 31
0.0
  0
LINE
  5
C3
330
1F
100
AcDbEntity
  8
0
  6
Continuous
 62
     7
370
    25
100
AcDbLine
 10
-207.9195052787
 20
564.432268436
 30
0.0
 11
-229.6734614396
 21
559.7872902208
 31
0.0
  0
LINE
  5
C4
330
1F
100
AcDbEntity
  8
0
  6
Continuous
 62
     7
370
    25
100
AcDbLine
 10
-206.8662847636
 20
561.6232247292
 30
0.0
 11
-207.9195052787
 21
564.432268436
 31
0.0
  0
LINE
  5
C5
330
1F
100
AcDbEntity
  8
0
  6
Continuous
 62
     7
370
    25
100
AcDbLine
 10
-226.3116363021
 20
550.8209687234
 30
0.0
 11
-206.8662847636
 21
561.6232247292
 31
0.0
  0
LINE
  5
C6
330
1F
100
AcDbEntity
  8
0
  6
Continuous
 62
     7
370
    25
100
AcDbLine
 10
-220.896623814
 20
536.3785926642
 30
0.0
 11
-226.3116363021
 21
550.8209687234
 31
0.0
  0
LINE
  5
C7
330
1F
100
AcDbEntity
  8
0
  6
Continuous
 62
     7
370
    25
100
AcDbLine
 10
-199.142667653
 20
541.0235708795
 30
0.0
 11
-220.896623814
 21
536.3785926642
 31
0.0
  0
LINE
  5
C8
330
1F
100
AcDbEntity
  8
0
  6
Continuous
 62
     7
370
    25
100
AcDbLine
 10
-198.089447138
 20
538.2145271727
 30
0.0
 11
-199.142667653
 21
541.0235708795
 31
0.0
  0
LINE
  5
C9
330
1F
100
AcDbEntity
  8
0
  6
Continuous
 62
     7
370
    25
100
AcDbLine
 10
-217.5347986765
 20
527.4122711669
 30
0.0
 11
-198.089447138
 21
538.2145271727
 31
0.0
  0
LINE
  5
CA
330
1F
100
AcDbEntity
  8
0
  6
Continuous
 62
     7
370
    25
100
AcDbLine
 10
-212.1197861884
 20
512.9698951077
 30
0.0
 11
-217.5347986765
 21
527.4122711669
 31
0.0
  0
LINE
  5
CB
330
1F
100
AcDbEntity
  8
0
  6
Continuous
 62
     7
370
    25
100
AcDbLine
 10
-190.3658300274
 20
517.614873323
 30
0.0
 11
-212.1197861884
 21
512.9698951077
 31
0.0
  0
LINE
  5
CC
330
1F
100
AcDbEntity
  8
0
  6
Continuous
 62
     7
370
    25
100
AcDbLine
 10
-189.3126095123
 20
514.8058296162
 30
0.0
 11
-190.3658300274
 21
517.614873323
 31
0.0
  0
LINE
  5
CD
330
1F
100
AcDbEntity
  8
0
  6
Continuous
 62
     7
370
    25
100
AcDbLine
 10
-208.7579610509
 20
504.0035736103
 30
0.0
 11
-189.3126095123
 21
514.8058296162
 31
0.0
  0
LINE
  5
CE
330
1F
100
AcDbEntity
  8
0
  6
Continuous
 62
     7
370
    25
100
AcDbLine
 10
-203.3429485627
 20
489.5611975512
 30
0.0
 11
-208.7579610509
 21
504.0035736103
 31
0.0
  0
LINE
  5
CF
330
1F
100
AcDbEntity
  8
0
  6
Continuous
 62
     7
370
    25
100
AcDbLine
 10
-181.5889924018
 20
494.2061757664
 30
0.0
 11
-203.3429485627
 21
489.5611975512
 31
0.0
  0
LINE
  5
D0
330
1F
100
AcDbEntity
  8
0
  6
Continuous
 62
     7
370
    25
100
AcDbLine
 10
-180.5357718867
 20
491.3971320596
 30
0.0
 11
-181.5889924018
 21
494.2061757664
 31
0.0
  0
LINE
  5
D1
330
1F
100
AcDbEntity
  8
0
  6
Continuous
 62
     7
370
    25
100
AcDbLine
 10
-199.9811234253
 20
480.5948760538
 30
0.0
 11
-180.5357718867
 21
491.3971320596
 31
0.0
  0
LINE
  5
D2
330
1F
100
AcDbEntity
  8
0
  6
Continuous
 62
     7
370
    25
100
AcDbLine
 10
-194.5661109371
 20
466.1524999946
 30
0.0
 11
-199.9811234253
 21
480.5948760538
 31
0.0
  0
LINE
  5
D3
330
1F
100
AcDbEntity
  8
0
  6
Continuous
 62
     7
370
    25
100
AcDbLine
 10
-172.8121547762
 20
470.7974782099
 30
0.0
 11
-194.5661109371
 21
466.1524999946
 31
0.0
  0
LINE
  5
D4
330
1F
100
AcDbEntity
  8
0
  6
Continuous
 62
     7
370
    25
100
AcDbLine
 10
-171.7589342611
 20
467.9884345031
 30
0.0
 11
-172.8121547762
 21
470.7974782099
 31
0.0
  0
LINE
  5
D5
330
1F
100
AcDbEntity
  8
0
  6
Continuous
 62
     7
370
    25
100
AcDbLine
 10
-191.2042857996
 20
457.1861784973
 30
0.0
 11
-171.7589342611
 21
467.9884345031
 31
0.0
  0
LINE
  5
D6
330
1F
100
AcDbEntity
  8
0
  6
Continuous
 62
     7
370
    25
100
AcDbLine
 10
-185.7892733115
 20
442.7438024381
 30
0.0
 11
-191.2042857996
 21
457.1861784973
 31
0.0
  0
LINE
  5
D7
330
1F
100
AcDbEntity
  8
0
  6
Continuous
 62
     7
370
    25
100
AcDbLine
 10
-164.0353171505
 20
447.3887806533
 30
0.0
 11
-185.7892733115
 21
442.7438024381
 31
0.0
  0
LINE
  5
D8
330
1F
100
AcDbEntity
  8
0
  6
Continuous
 62
     7
370
    25
100
AcDbLine
 10
-162.9820966355
 20
444.5797369466
 30
0.0
 11
-164.0353171505
 21
447.3887806533
 31
0.0
  0
LINE
  5
D9
330
1F
100
AcDbEntity
  8
0
  6
Continuous
 62
     7
370
    25
100
AcDbLine
 10
-182.427448174
 20
433.7774809407
 30
0.0
 11
-162.9820966355
 21
444.5797369466
 31
0.0
  0
LINE
  5
DA
330
1F
100
AcDbEntity
  8
0
  6
Continuous
 62
     7
370
    25
100
AcDbLine
 10
-177.0124356859
 20
419.3351048815
 30
0.0
 11
-182.427448174
 21
433.7774809407
 31
0.0
  0
LINE
  5
DB
330
1F
100
AcDbEntity
  8
0
  6
Continuous
 62
     7
370
    25
100
AcDbLine
 10
-155.2584795249
 20
423.9800830968
 30
0.0
 11
-177.0124356859
 21
419.3351048815
 31
0.0
  0
LINE
  5
DC
330
1F
100
AcDbEntity
  8
0
  6
Continuous
 62
     7
370
    25
100
AcDbLine
 10
-154.2052590098
 20
421.17103939
 30
0.0
 11
-155.2584795249
 21
423.9800830968
 31
0.0
  0
LINE
  5
DD
330
1F
100
AcDbEntity
  8
0
  6
Continuous
 62
     7
370
    25
100
AcDbLine
 10
-173.6506105484
 20
410.3687833842
 30
0.0
 11
-154.2052590098
 21
421.17103939
 31
0.0
  0
LINE
  5
DE
330
1F
100
AcDbEntity
  8
0
  6
Continuous
 62
     7
370
    25
100
AcDbLine
 10
-168.2355980602
 20
395.926407325
 30
0.0
 11
-173.6506105484
 21
410.3687833842
 31
0.0
  0
LINE
  5
DF
330
1F
100
AcDbEntity
  8
0
  6
Continuous
 62
     7
370
    25
100
AcDbLine
 10
-146.4816418993
 20
400.5713855403
 30
0.0
 11
-168.2355980602
 21
395.926407325
 31
0.0
  0
LINE
  5
E0
330
1F
100
AcDbEntity
  8
0
  6
Continuous
 62
     7
370
    25
100
AcDbLine
 10
-145.4284213842
 20
397.7623418335
 30
0.0
 11
-146.4816418993
 21
400.5713855403
 31
0.0
  0
LINE
  5
E1
330
1F
100
AcDbEntity
  8
0
  6
Continuous
 62
     7
370
    25
100
AcDbLine
 10
-164.8737729227
 20
386.9600858276
 30
0.0
 11
-145.4284213842
 21
397.7623418335
 31
0.0
  0
LINE
  5
E2
330
1F
100
AcDbEntity
  8
0
  6
Continuous
 62
     7
370
    25
100
AcDbLine
 10
-159.4587604346
 20
372.5177097685
 30
0.0
 11
-164.8737729227
 21
386.9600858276
 31
0.0
  0
LINE
  5
E3
330
1F
100
AcDbEntity
  8
0
  6
Continuous
 62
     7
370
    25
100
AcDbLine
 10
-137.7048042736
 20
377.1626879837
 30
0.0
 11
-159.4587604346
 21
372.5177097685
 31
0.0
  0
LINE
  5
E4
330
1F
100
AcDbEntity
  8
0
  6
Continuous
 62
     7
370
    25
100
AcDbLine
 10
-136.6515837586
 20
374.353644277
 30
0.0
 11
-137.7048042736
 21
377.1626879837
 31
0.0
  0
LINE
  5
E5
330
1F
100
AcDbEntity
  8
0
  6
Continuous
 62
     7
370
    25
100
AcDbLine
 10
-156.0969352971
 20
363.5513882711
 30
0.0
 11
-136.6515837586
 21
374.353644277
 31
0.0
  0
LINE
  5
E6
330
1F
100
AcDbEntity
  8
0
  6
Continuous
 62
     7
370
    25
100
AcDbLine
 10
-150.681922809
 20
349.1090122119
 30
0.0
 11
-156.0969352971
 21
363.5513882711
 31
0.0
  0
LINE
  5
E7
330
1F
100
AcDbEntity
  8
0
  6
Continuous
 62
     7
370
    25
100
AcDbLine
 10
-128.927966648
 20
353.7539904272
 30
0.0
 11
-150.681922809
 21
349.1090122119
 31
0.0
  0
LINE
  5
E8
330
1F
100
AcDbEntity
  8
0
  6
Continuous
 62
     7
370
    25
100
AcDbLine
 10
-127.8747461329
 20
350.9449467204
 30
0.0
 11
-128.927966648
 21
353.7539904272
 31
0.0
  0
LINE
  5
E9
330
1F
100
AcDbEntity
  8
0
  6
Continuous
 62
     7
370
    25
100
AcDbLine
 10
-147.3200976715
 20
340.1426907146
 30
0.0
 11
-127.8747461329
 21
350.9449467204
 31
0.0
  0
LINE
  5
EA
330
1F
100
AcDbEntity
  8
0
  6
Continuous
 62
     7
370
    25
100
AcDbLine
 10
-141.9050851833
 20
325.7003146554
 30
0.0
 11
-147.3200976715
 21
340.1426907146
 31
0.0
  0
LINE
  5
EB
330
1F
100
AcDbEntity
  8
0
  6
Continuous
 62
     7
370
    25
100
AcDbLine
 10
-120.1511290224
 20
330.3452928707
 30
0.0
 11
-141.9050851833
 21
325.7003146554
 31
0.0
  0
LINE
  5
EC
330
1F
100
AcDbEntity
  8
0
  6
Continuous
 62
     7
370
    25
100
AcDbLine
 10
-119.0979085073
 20
327.5362491639
 30
0.0
 11
-120.1511290224
 21
330.3452928707
 31
0.0
  0
LINE
  5
ED
330
1F
100
AcDbEntity
  8
0
  6
Continuous
 62
     7
370
    25
100
AcDbLine
 10
-138.5432600458
 20
316.733993158
 30
0.0
 11
-119.0979085073
 21
327.5362491639
 31
0.0
  0
LINE
  5
EE
330
1F
100
AcDbEntity
  8
0
  6
Continuous
 62
     7
370
    25
100
AcDbLine
 10
-133.1282475577
 20
302.2916170989
 30
0.0
 11
-138.5432600458
 21
316.733993158
 31
0.0
  0
LINE
  5
EF
330
1F
100
AcDbEntity
  8
0
  6
Continuous
 62
     7
370
    25
100
AcDbLine
 10
-111.3742913968
 20
306.9365953141
 30
0.0
 11
-133.1282475577
 21
302.2916170989
 31
0.0
  0
LINE
  5
F0
330
1F
100
AcDbEntity
  8
0
  6
Continuous
 62
     7
370
    25
100
AcDbLine
 10
-110.3210708817
 20
304.1275516073
 30
0.0
 11
-111.3742913968
 21
306.9365953141
 31
0.0
  0
LINE
  5
F1
330
1F
100
AcDbEntity
  8
0
  6
Continuous
 62
     7
370
    25
100
AcDbLine
 10
-129.7664224202
 20
293.3252956015
 30
0.0
 11
-110.3210708817
 21
304.1275516073
 31
0.0
  0
LINE
  5
F2
330
1F
100
AcDbEntity
  8
0
  6
Continuous
 62
     7
370
    25
100
AcDbLine
 10
-124.3514099321
 20
278.8829195423
 30
0.0
 11
-129.7664224202
 21
293.3252956015
 31
0.0
  0
LINE
  5
F3
330
1F
100
AcDbEntity
  8
0
  6
Continuous
 62
     7
370
    25
100
AcDbLine
 10
-102.5974537711
 20
283.5278977576
 30
0.0
 11
-124.3514099321
 21
278.8829195423
 31
0.0
  0
LINE
  5
F4
330
1F
100
AcDbEntity
  8
0
  6
Continuous
 62
     7
370
    25
100
AcDbLine
 10
-101.544233256
 20
280.7188540508
 30
0.0
 11
-102.5974537711
 21
283.5278977576
 31
0.0
  0
LINE
  5
F5
330
1F
100
AcDbEntity
  8
0
  6
Continuous
 62
     7
370
    25
100
AcDbLine
 10
-120.9895847946
 20
269.916598045
 30
0.0
 11
-101.544233256
 21
280.7188540508
 31
0.0
  0
LINE
  5
F6
330
1F
100
AcDbEntity
  8
0
  6
Continuous
 62
     7
370
    25
100
AcDbLine
 10
-115.5745723065
 20
255.4742219858
 30
0.0
 11
-120.9895847946
 21
269.916598045
 31
0.0
  0
LINE
  5
F7
330
1F
100
AcDbEntity
  8
0
  6
Continuous
 62
     7
370
    25
100
AcDbLine
 10
-93.8206161455
 20
260.1192002011
 30
0.0
 11
-115.5745723065
 21
255.4742219858
 31
0.0
  0
LINE
  5
F8
330
1F
100
AcDbEntity
  8
0
  6
Continuous
 62
     7
370
    25
100
AcDbLine
 10
-92.7673956304
 20
257.3101564943
 30
0.0
 11
-93.8206161455
 21
260.1192002011
 31
0.0
  0
LINE
  5
F9
330
1F
100
AcDbEntity
  8
0
  6
Continuous
 62
     7
370
    25
100
AcDbLine
 10
-112.212747169
 20
246.5079004884
 30
0.0
 11
-92.7673956304
 21
257.3101564943
 31
0.0
  0
LINE
  5
FA
330
1F
100
AcDbEntity
  8
0
  6
Continuous
 62
     7
370
    25
100
AcDbLine
 10
-106.7977346808
 20
232.0655244293
 30
0.0
 11
-112.212747169
 21
246.5079004884
 31
0.0
  0
LINE
  5
FB
330
1F
100
AcDbEntity
  8
0
  6
Continuous
 62
     7
370
    25
100
AcDbLine
 10
-85.0437785199
 20
236.7105026445
 30
0.0
 11
-106.7977346808
 21
232.0655244293
 31
0.0
  0
LINE
  5
FC
330
1F
100
AcDbEntity
  8
0
  6
Continuous
 62
     7
370
    25
100
AcDbLine
 10
-83.9905580048
 20
233.9014589377
 30
0.0
 11
-85.0437785199
 21
236.7105026445
 31
0.0
  0
LINE
  5
FD
330
1F
100
AcDbEntity
  8
0
  6
Continuous
 62
     7
370
    25
100
AcDbLine
 10
-103.4359095433
 20
223.0992029319
 30
0.0
 11
-83.9905580048
 21
233.9014589377
 31
0.0
  0
LINE
  5
FE
330
1F
100
AcDbEntity
  8
0
  6
Continuous
 62
     7
370
    25
100
AcDbLine
 10
-98.0208970552
 20
208.6568268727
 30
0.0
 11
-103.4359095433
 21
223.0992029319
 31
0.0
  0
LINE
  5
FF
330
1F
100
AcDbEntity
  8
0
  6
Continuous
 62
     7
370
    25
100
AcDbLine
 10
-76.2669408942
 20
213.301805088
 30
0.0
 11
-98.0208970552
 21
208.6568268727
 31
0.0
  0
LINE
  5
100
330
1F
100
AcDbEntity
  8
0
  6
Continuous
 62
     7
370
    25
100
AcDbLine
 10
-75.2137203792
 20
210.4927613812
 30
0.0
 11
-76.2669408942
 21
213.301805088
 31
0.0
  0
LINE
  5
101
330
1F
100
AcDbEntity
  8
0
  6
Continuous
 62
     7
370
    25
100
AcDbLine
 10
-94.6590719177
 20
199.6905053754
 30
0.0
 11
-75.2137203792
 21
210.4927613812
 31
0.0
  0
LINE
  5
102
330
1F
100
AcDbEntity
  8
0
  6
Continuous
 62
     7
370
    25
100
AcDbLine
 10
-89.2440594296
 20
185.2481293162
 30
0.0
 11
-94.6590719177
 21
199.6905053754
 31
0.0
  0
LINE
  5
103
330
1F
100
AcDbEntity
  8
0
  6
Continuous
 62
     7
370
    25
100
AcDbLine
 10
-67.4901032686
 20
189.8931075315
 30
0.0
 11
-89.2440594296
 21
185.2481293162
 31
0.0
  0
LINE
  5
104
330
1F
100
AcDbEntity
  8
0
  6
Continuous
 62
     7
370
    25
100
AcDbLine
 10
-66.4368827535
 20
187.0840638247
 30
0.0
 11
-67.4901032686
 21
189.8931075315
 31
0.0
  0
LINE
  5
105
330
1F
100
AcDbEntity
  8
0
  6
Continuous
 62
     7
370
    25
100
AcDbLine
 10
-85.8822342921
 20
176.2818078188
 30
0.0
 11
-66.4368827535
 21
187.0840638247
 31
0.0
  0
LINE
  5
106
330
1F
100
AcDbEntity
  8
0
  6
Continuous
 62
     7
370
    25
100
AcDbLine
 10
-80.4672218039
 20
161.8394317597
 30
0.0
 11
-85.8822342921
 21
176.2818078188
 31
0.0
  0
LINE
  5
107
330
1F
100
AcDbEntity
  8
0
  6
Continuous
 62
     7
370
    25
100
AcDbLine
 10
-58.713265643
 20
166.4844099749
 30
0.0
 11
-80.4672218039
 21
161.8394317597
 31
0.0
  0
LINE
  5
108
330
1F
100
AcDbEntity
  8
0
  6
Continuous
 62
     7
370
    25
100
AcDbLine
 10
-57.6600451279
 20
163.6753662681
 30
0.0
 11
-58.713265643
 21
166.4844099749
 31
0.0
  0
LINE
  5
109
330
1F
100
AcDbEntity
  8
0
  6
Continuous
 62
     7
370
    25
100
AcDbLine
 10
-77.1053966664
 20
152.8731102623
 30
0.0
 11
-57.6600451279
 21
163.6753662681
 31
0.0
  0
LINE
  5
10A
330
1F
100
AcDbEntity
  8
0
  6
Continuous
 62
     7
370
    25
100
AcDbLine
 10
-71.6903841783
 20
138.4307342031
 30
0.0
 11
-77.1053966664
 21
152.8731102623
 31
0.0
  0
LINE
  5
10B
330
1F
100
AcDbEntity
  8
0
  6
Continuous
 62
     7
370
    25
100
AcDbLine
 10
-49.9364280173
 20
143.0757124184
 30
0.0
 11
-71.6903841783
 21
138.4307342031
 31
0.0
  0
LINE
  5
10C
330
1F
100
AcDbEntity
  8
0
  6
Continuous
 62
     7
370
    25
100
AcDbLine
 10
-48.8832075023
 20
140.2666687116
 30
0.0
 11
-49.9364280173
 21
143.0757124184
 31
0.0
  0
LINE
  5
10D
330
1F
100
AcDbEntity
  8
0
  6
Continuous
 62
     7
370
    25
100
AcDbLine
 10
-68.3285590408
 20
129.4644127058
 30
0.0
 11
-48.8832075023
 21
140.2666687116
 31
0.0
  0
LINE
  5
10E
330
1F
100
AcDbEntity
  8
0
  6
Continuous
 62
     7
370
    25
100
AcDbLine
 10
-62.9135465527
 20
115.0220366466
 30
0.0
 11
-68.3285590408
 21
129.4644127058
 31
0.0
  0
LINE
  5
10F
330
1F
100
AcDbEntity
  8
0
  6
Continuous
 62
     7
370
    25
100
AcDbLine
 10
-41.1595903917
 20
119.6670148619
 30
0.0
 11
-62.9135465527
 21
115.0220366466
 31
0.0
  0
LINE
  5
110
330
1F
100
AcDbEntity
  8
0
  6
Continuous
 62
     7
370
    25
100
AcDbLine
 10
-40.1063698766
 20
116.8579711551
 30
0.0
 11
-41.1595903917
 21
119.6670148619
 31
0.0
  0
LINE
  5
111
330
1F
100
AcDbEntity
  8
0
  6
Continuous
 62
     7
370
    25
100
AcDbLine
 10
-59.5517214152
 20
106.0557151492
 30
0.0
 11
-40.1063698766
 21
116.8579711551
 31
0.0
  0
LINE
  5
112
330
1F
100
AcDbEntity
  8
0
  6
Continuous
 62
     7
370
    25
100
AcDbLine
 10
-54.1367089271
 20
91.6133390901
 30
0.0
 11
-59.5517214152
 21
106.0557151492
 31
0.0
  0
LINE
  5
113
330
1F
100
AcDbEntity
  8
0
  6
Continuous
 62
     7
370
    25
100
AcDbLine
 10
-32.3827527661
 20
96.2583173053
 30
0.0
 11
-54.1367089271
 21
91.6133390901
 31
0.0
  0
LINE
  5
114
330
1F
100
AcDbEntity
  8
0
  6
Continuous
 62
     7
370
    25
100
AcDbLine
 10
-31.329532251
 20
93.4492735985
 30
0.0
 11
-32.3827527661
 21
96.2583173053
 31
0.0
  0
LINE
  5
115
330
1F
100
AcDbEntity
  8
0
  6
Continuous
 62
     7
370
    25
100
AcDbLine
 10
-50.7748837896
 20
82.6470175927
 30
0.0
 11
-31.329532251
 21
93.4492735985
 31
0.0
  0
LINE
  5
116
330
1F
100
AcDbEntity
  8
0
  6
Continuous
 62
     7
370
    25
100
AcDbLine
 10
-45.3598713014
 20
68.2046415335
 30
0.0
 11
-50.7748837896
 21
82.6470175927
 31
0.0
  0
LINE
  5
117
330
1F
100
AcDbEntity
  8
0
  6
Continuous
 62
     7
370
    25
100
AcDbLine
 10
-23.6059151405
 20
72.8496197488
 30
0.0
 11
-45.3598713014
 21
68.2046415335
 31
0.0
  0
LINE
  5
118
330
1F
100
AcDbEntity
  8
0
  6
Continuous
 62
     7
370
    25
100
AcDbLine
 10
-22.5526946254
 20
70.040576042
 30
0.0
 11
-23.6059151405
 21
72.8496197488
 31
0.0
  0
LINE
  5
119
330
1F
100
AcDbEntity
  8
0
  6
Continuous
 62
     7
370
    25
100
AcDbLine
 10
-41.9980461639
 20
59.2383200362
 30
0.0
 11
-22.5526946254
 21
70.040576042
 31
0.0
  0
LINE
  5
11A
330
1F
100
AcDbEntity
  8
0
  6
Continuous
 62
     7
370
    25
100
AcDbLine
 10
-36.5830336758
 20
44.795943977
 30
0.0
 11
-41.9980461639
 21
59.2383200362
 31
0.0
  0
LINE
  5
11B
330
1F
100
AcDbEntity
  8
0
  6
Continuous
 62
     7
370
    25
100
AcDbLine
 10
-14.8290775148
 20
49.4409221922
 30
0.0
 11
-36.5830336758
 21
44.795943977
 31
0.0
  0
LINE
  5
11C
330
1F
100
AcDbEntity
  8
0
  6
Continuous
 62
     7
370
    25
100
AcDbLine
 10
-13.7758569998
 20
46.6318784855
 30
0.0
 11
-14.8290775148
 21
49.4409221922
 31
0.0
  0
LINE
  5
11D
330
1F
100
AcDbEntity
  8
0
  6
Continuous
 62
     7
370
    25
100
AcDbLine
 10
-33.2212085383
 20
35.8296224796
 30
0.0
 11
-13.7758569998
 21
46.6318784855
 31
0.0
  0
LINE
  5
11E
330
1F
100
AcDbEntity
  8
0
  6
Continuous
 62
     7
370
    25
100
AcDbLine
 10
-27.8061960502
 20
21.3872464204
 30
0.0
 11
-33.2212085383
 21
35.8296224796
 31
0.0
  0
LINE
  5
11F
330
1F
100
AcDbEntity
  8
0
  6
Continuous
 62
     7
370
    25
100
AcDbLine
 10
-6.0522398892
 20
26.0322246357
 30
0.0
 11
-27.8061960502
 21
21.3872464204
 31
0.0
  0
LINE
  5
120
330
1F
100
AcDbEntity
  8
0
  6
Continuous
 62
     7
370
    25
100
AcDbLine
 10
-4.9990193741
 20
23.2231809289
 30
0.0
 11
-6.0522398892
 21
26.0322246357
 31
0.0
  0
LINE
  5
121
330
1F
100
AcDbEntity
  8
0
  6
Continuous
 62
     7
370
    25
100
AcDbLine
 10
74.8421929689
 20
53.1053798372
 30
0.0
 11
65.0105399952
 21
49.4191080344
 31
0.0
  0
LINE
  5
122
330
1F
100
AcDbEntity
  8
0
  6
Continuous
 62
     7
370
    25
100
AcDbLine
 10
65.0105399952
 20
49.4191080344
 30
0.0
 11
63.8871047791
 21
52.4154213217
 31
0.0
  0
LINE
  5
123
330
1F
100
AcDbEntity
  8
0
  6
Continuous
 62
     7
370
    25
100
AcDbLine
 10
63.8871047791
 20
52.4154213217
 30
0.0
 11
73.7187577528
 21
56.1016931244
 31
0.0
  0
LINE
  5
124
330
1F
100
AcDbEntity
  8
0
  6
Continuous
 62
     7
370
    25
100
AcDbLine
 10
73.7187577528
 20
56.1016931244
 30
0.0
 11
74.8421929689
 21
53.1053798372
 31
0.0
  0
LINE
  5
125
330
1F
100
AcDbEntity
  8
0
  6
Continuous
 62
     7
370
    25
100
AcDbLine
 10
83.6190305945
 20
29.6966822807
 30
0.0
 11
73.7873776208
 21
26.0104104779
 31
0.0
  0
LINE
  5
126
330
1F
100
AcDbEntity
  8
0
  6
Continuous
 62
     7
370
    25
100
AcDbLine
 10
73.7873776208
 20
26.0104104779
 30
0.0
 11
72.6639424047
 21
29.0067237651
 31
0.0
  0
LINE
  5
127
330
1F
100
AcDbEntity
  8
0
  6
Continuous
 62
     7
370
    25
100
AcDbLine
 10
72.6639424047
 20
29.0067237651
 30
0.0
 11
82.4955953785
 21
32.6929955679
 31
0.0
  0
LINE
  5
128
330
1F
100
AcDbEntity
  8
0
  6
Continuous
 62
     7
370
    25
100
AcDbLine
 10
82.4955953785
 20
32.6929955679
 30
0.0
 11
83.6190305945
 21
29.6966822807
 31
0.0
  0
LINE
  5
129
330
1F
100
AcDbEntity
  8
0
  6
Continuous
 62
     7
370
    25
100
AcDbLine
 10
66.0653553433
 20
76.5140773937
 30
0.0
 11
56.2337023695
 21
72.827805591
 31
0.0
  0
LINE
  5
12A
330
1F
100
AcDbEntity
  8
0
  6
Continuous
 62
     7
370
    25
100
AcDbLine
 10
56.2337023695
 20
72.827805591
 30
0.0
 11
55.1102671535
 21
75.8241188782
 31
0.0
  0
LINE
  5
12B
330
1F
100
AcDbEntity
  8
0
  6
Continuous
 62
     7
370
    25
100
AcDbLine
 10
55.1102671535
 20
75.8241188782
 30
0.0
 11
64.9419201272
 21
79.510390681
 31
0.0
  0
LINE
  5
12C
330
1F
100
AcDbEntity
  8
0
  6
Continuous
 62
     7
370
    25
100
AcDbLine
 10
64.9419201272
 20
79.510390681
 30
0.0
 11
66.0653553433
 21
76.5140773937
 31
0.0
  0
LINE
  5
12D
330
1F
100
AcDbEntity
  8
0
  6
Continuous
 62
     7
370
    25
100
AcDbLine
 10
57.2885177177
 20
99.9227749503
 30
0.0
 11
47.4568647439
 21
96.2365031475
 31
0.0
  0
LINE
  5
12E
330
1F
100
AcDbEntity
  8
0
  6
Continuous
 62
     7
370
    25
100
AcDbLine
 10
47.4568647439
 20
96.2365031475
 30
0.0
 11
46.3334295278
 21
99.2328164348
 31
0.0
  0
LINE
  5
12F
330
1F
100
AcDbEntity
  8
0
  6
Continuous
 62
     7
370
    25
100
AcDbLine
 10
46.3334295278
 20
99.2328164348
 30
0.0
 11
56.1650825016
 21
102.9190882375
 31
0.0
  0
LINE
  5
130
330
1F
100
AcDbEntity
  8
0
  6
Continuous
 62
     7
370
    25
100
AcDbLine
 10
56.1650825016
 20
102.9190882375
 30
0.0
 11
57.2885177177
 21
99.9227749503
 31
0.0
  0
LINE
  5
131
330
1F
100
AcDbEntity
  8
0
  6
Continuous
 62
     7
370
    25
100
AcDbLine
 10
48.511680092
 20
123.3314725068
 30
0.0
 11
38.6800271183
 21
119.645200704
 31
0.0
  0
LINE
  5
132
330
1F
100
AcDbEntity
  8
0
  6
Continuous
 62
     7
370
    25
100
AcDbLine
 10
38.6800271183
 20
119.645200704
 30
0.0
 11
37.5565919022
 21
122.6415139913
 31
0.0
  0
LINE
  5
133
330
1F
100
AcDbEntity
  8
0
  6
Continuous
 62
     7
370
    25
100
AcDbLine
 10
37.5565919022
 20
122.6415139913
 30
0.0
 11
47.3882448759
 21
126.327785794
 31
0.0
  0
LINE
  5
134
330
1F
100
AcDbEntity
  8
0
  6
Continuous
 62
     7
370
    25
100
AcDbLine
 10
47.3882448759
 20
126.327785794
 30
0.0
 11
48.511680092
 21
123.3314725068
 31
0.0
  0
LINE
  5
135
330
1F
100
AcDbEntity
  8
0
  6
Continuous
 62
     7
370
    25
100
AcDbLine
 10
39.7348424664
 20
146.7401700633
 30
0.0
 11
29.9031894926
 21
143.0538982606
 31
0.0
  0
LINE
  5
136
330
1F
100
AcDbEntity
  8
0
  6
Continuous
 62
     7
370
    25
100
AcDbLine
 10
29.9031894926
 20
143.0538982606
 30
0.0
 11
28.7797542766
 21
146.0502115478
 31
0.0
  0
LINE
  5
137
330
1F
100
AcDbEntity
  8
0
  6
Continuous
 62
     7
370
    25
100
AcDbLine
 10
28.7797542766
 20
146.0502115478
 30
0.0
 11
38.6114072503
 21
149.7364833506
 31
0.0
  0
LINE
  5
138
330
1F
100
AcDbEntity
  8
0
  6
Continuous
 62
     7
370
    25
100
AcDbLine
 10
38.6114072503
 20
149.7364833506
 30
0.0
 11
39.7348424664
 21
146.7401700633
 31
0.0
  0
LINE
  5
139
330
1F
100
AcDbEntity
  8
0
  6
Continuous
 62
     7
370
    25
100
AcDbLine
 10
30.9580048408
 20
170.1488676199
 30
0.0
 11
21.126351867
 21
166.4625958171
 31
0.0
  0
LINE
  5
13A
330
1F
100
AcDbEntity
  8
0
  6
Continuous
 62
     7
370
    25
100
AcDbLine
 10
21.126351867
 20
166.4625958171
 30
0.0
 11
20.0029166509
 21
169.4589091044
 31
0.0
  0
LINE
  5
13B
330
1F
100
AcDbEntity
  8
0
  6
Continuous
 62
     7
370
    25
100
AcDbLine
 10
20.0029166509
 20
169.4589091044
 30
0.0
 11
29.8345696247
 21
173.1451809071
 31
0.0
  0
LINE
  5
13C
330
1F
100
AcDbEntity
  8
0
  6
Continuous
 62
     7
370
    25
100
AcDbLine
 10
29.8345696247
 20
173.1451809071
 30
0.0
 11
30.9580048408
 21
170.1488676199
 31
0.0
  0
LINE
  5
13D
330
1F
100
AcDbEntity
  8
0
  6
Continuous
 62
     7
370
    25
100
AcDbLine
 10
22.1811672151
 20
193.5575651764
 30
0.0
 11
12.3495142414
 21
189.8712933737
 31
0.0
  0
LINE
  5
13E
330
1F
100
AcDbEntity
  8
0
  6
Continuous
 62
     7
370
    25
100
AcDbLine
 10
12.3495142414
 20
189.8712933737
 30
0.0
 11
11.2260790253
 21
192.8676066609
 31
0.0
  0
LINE
  5
13F
330
1F
100
AcDbEntity
  8
0
  6
Continuous
 62
     7
370
    25
100
AcDbLine
 10
11.2260790253
 20
192.8676066609
 30
0.0
 11
21.0577319991
 21
196.5538784637
 31
0.0
  0
LINE
  5
140
330
1F
100
AcDbEntity
  8
0
  6
Continuous
 62
     7
370
    25
100
AcDbLine
 10
21.0577319991
 20
196.5538784637
 30
0.0
 11
22.1811672151
 21
193.5575651764
 31
0.0
  0
LINE
  5
141
330
1F
100
AcDbEntity
  8
0
  6
Continuous
 62
     7
370
    25
100
AcDbLine
 10
13.4043295895
 20
216.966262733
 30
0.0
 11
3.5726766158
 21
213.2799909302
 31
0.0
  0
LINE
  5
142
330
1F
100
AcDbEntity
  8
0
  6
Continuous
 62
     7
370
    25
100
AcDbLine
 10
3.5726766158
 20
213.2799909302
 30
0.0
 11
2.4492413997
 21
216.2763042174
 31
0.0
  0
LINE
  5
143
330
1F
100
AcDbEntity
  8
0
  6
Continuous
 62
     7
370
    25
100
AcDbLine
 10
2.4492413997
 20
216.2763042174
 30
0.0
 11
12.2808943734
 21
219.9625760202
 31
0.0
  0
LINE
  5
144
330
1F
100
AcDbEntity
  8
0
  6
Continuous
 62
     7
370
    25
100
AcDbLine
 10
12.2808943734
 20
219.9625760202
 30
0.0
 11
13.4043295895
 21
216.966262733
 31
0.0
  0
LINE
  5
145
330
1F
100
AcDbEntity
  8
0
  6
Continuous
 62
     7
370
    25
100
AcDbLine
 10
4.6274919639
 20
240.3749602895
 30
0.0
 11
-5.2041610099
 21
236.6886884867
 31
0.0
  0
LINE
  5
146
330
1F
100
AcDbEntity
  8
0
  6
Continuous
 62
     7
370
    25
100
AcDbLine
 10
-5.2041610099
 20
236.6886884867
 30
0.0
 11
-6.3275962259
 21
239.685001774
 31
0.0
  0
LINE
  5
147
330
1F
100
AcDbEntity
  8
0
  6
Continuous
 62
     7
370
    25
100
AcDbLine
 10
-6.3275962259
 20
239.685001774
 30
0.0
 11
3.5040567478
 21
243.3712735767
 31
0.0
  0
LINE
  5
148
330
1F
100
AcDbEntity
  8
0
  6
Continuous
 62
     7
370
    25
100
AcDbLine
 10
3.5040567478
 20
243.3712735767
 30
0.0
 11
4.6274919639
 21
240.3749602895
 31
0.0
  0
LINE
  5
149
330
1F
100
AcDbEntity
  8
0
  6
Continuous
 62
     7
370
    25
100
AcDbLine
 10
-4.1493456618
 20
263.783657846
 30
0.0
 11
-13.9809986355
 21
260.0973860433
 31
0.0
  0
LINE
  5
14A
330
1F
100
AcDbEntity
  8
0
  6
Continuous
 62
     7
370
    25
100
AcDbLine
 10
-13.9809986355
 20
260.0973860433
 30
0.0
 11
-15.1044338516
 21
263.0936993305
 31
0.0
  0
LINE
  5
14B
330
1F
100
AcDbEntity
  8
0
  6
Continuous
 62
     7
370
    25
100
AcDbLine
 10
-15.1044338516
 20
263.0936993305
 30
0.0
 11
-5.2727808778
 21
266.7799711333
 31
0.0
  0
LINE
  5
14C
330
1F
100
AcDbEntity
  8
0
  6
Continuous
 62
     7
370
    25
100
AcDbLine
 10
-5.2727808778
 20
266.7799711333
 30
0.0
 11
-4.1493456618
 21
263.783657846
 31
0.0
  0
LINE
  5
14D
330
1F
100
AcDbEntity
  8
0
  6
Continuous
 62
     7
370
    25
100
AcDbLine
 10
-12.9261832874
 20
287.1923554026
 30
0.0
 11
-22.7578362611
 21
283.5060835998
 31
0.0
  0
LINE
  5
14E
330
1F
100
AcDbEntity
  8
0
  6
Continuous
 62
     7
370
    25
100
AcDbLine
 10
-22.7578362611
 20
283.5060835998
 30
0.0
 11
-23.8812714772
 21
286.502396887
 31
0.0
  0
LINE
  5
14F
330
1F
100
AcDbEntity
  8
0
  6
Continuous
 62
     7
370
    25
100
AcDbLine
 10
-23.8812714772
 20
286.502396887
 30
0.0
 11
-14.0496185035
 21
290.1886686898
 31
0.0
  0
LINE
  5
150
330
1F
100
AcDbEntity
  8
0
  6
Continuous
 62
     7
370
    25
100
AcDbLine
 10
-14.0496185035
 20
290.1886686898
 30
0.0
 11
-12.9261832874
 21
287.1923554026
 31
0.0
  0
LINE
  5
151
330
1F
100
AcDbEntity
  8
0
  6
Continuous
 62
     7
370
    25
100
AcDbLine
 10
-21.703020913
 20
310.6010529591
 30
0.0
 11
-31.5346738868
 21
306.9147811563
 31
0.0
  0
LINE
  5
152
330
1F
100
AcDbEntity
  8
0
  6
Continuous
 62
     7
370
    25
100
AcDbLine
 10
-31.5346738868
 20
306.9147811563
 30
0.0
 11
-32.6581091028
 21
309.9110944436
 31
0.0
  0
LINE
  5
153
330
1F
100
AcDbEntity
  8
0
  6
Continuous
 62
     7
370
    25
100
AcDbLine
 10
-32.6581091028
 20
309.9110944436
 30
0.0
 11
-22.8264561291
 21
313.5973662463
 31
0.0
  0
LINE
  5
154
330
1F
100
AcDbEntity
  8
0
  6
Continuous
 62
     7
370
    25
100
AcDbLine
 10
-22.8264561291
 20
313.5973662463
 30
0.0
 11
-21.703020913
 21
310.6010529591
 31
0.0
  0
LINE
  5
155
330
1F
100
AcDbEntity
  8
0
  6
Continuous
 62
     7
370
    25
100
AcDbLine
 10
-30.4798585386
 20
334.0097505156
 30
0.0
 11
-40.3115115124
 21
330.3234787129
 31
0.0
  0
LINE
  5
156
330
1F
100
AcDbEntity
  8
0
  6
Continuous
 62
     7
370
    25
100
AcDbLine
 10
-40.3115115124
 20
330.3234787129
 30
0.0
 11
-41.4349467285
 21
333.3197920001
 31
0.0
  0
LINE
  5
157
330
1F
100
AcDbEntity
  8
0
  6
Continuous
 62
     7
370
    25
100
AcDbLine
 10
-41.4349467285
 20
333.3197920001
 30
0.0
 11
-31.6032937547
 21
337.0060638029
 31
0.0
  0
LINE
  5
158
330
1F
100
AcDbEntity
  8
0
  6
Continuous
 62
     7
370
    25
100
AcDbLine
 10
-31.6032937547
 20
337.0060638029
 30
0.0
 11
-30.4798585386
 21
334.0097505156
 31
0.0
  0
LINE
  5
159
330
1F
100
AcDbEntity
  8
0
  6
Continuous
 62
     7
370
    25
100
AcDbLine
 10
-39.2566961643
 20
357.4184480722
 30
0.0
 11
-49.088349138
 21
353.7321762694
 31
0.0
  0
LINE
  5
15A
330
1F
100
AcDbEntity
  8
0
  6
Continuous
 62
     7
370
    25
100
AcDbLine
 10
-49.088349138
 20
353.7321762694
 30
0.0
 11
-50.2117843541
 21
356.7284895566
 31
0.0
  0
LINE
  5
15B
330
1F
100
AcDbEntity
  8
0
  6
Continuous
 62
     7
370
    25
100
AcDbLine
 10
-50.2117843541
 20
356.7284895566
 30
0.0
 11
-40.3801313804
 21
360.4147613594
 31
0.0
  0
LINE
  5
15C
330
1F
100
AcDbEntity
  8
0
  6
Continuous
 62
     7
370
    25
100
AcDbLine
 10
-40.3801313804
 20
360.4147613594
 30
0.0
 11
-39.2566961643
 21
357.4184480722
 31
0.0
  0
LINE
  5
15D
330
1F
100
AcDbEntity
  8
0
  6
Continuous
 62
     7
370
    25
100
AcDbLine
 10
-48.0335337899
 20
380.8271456287
 30
0.0
 11
-57.8651867636
 21
377.1408738259
 31
0.0
  0
LINE
  5
15E
330
1F
100
AcDbEntity
  8
0
  6
Continuous
 62
     7
370
    25
100
AcDbLine
 10
-57.8651867636
 20
377.1408738259
 30
0.0
 11
-58.9886219797
 21
380.1371871132
 31
0.0
  0
LINE
  5
15F
330
1F
100
AcDbEntity
  8
0
  6
Continuous
 62
     7
370
    25
100
AcDbLine
 10
-58.9886219797
 20
380.1371871132
 30
0.0
 11
-49.156969006
 21
383.8234589159
 31
0.0
  0
LINE
  5
160
330
1F
100
AcDbEntity
  8
0
  6
Continuous
 62
     7
370
    25
100
AcDbLine
 10
-49.156969006
 20
383.8234589159
 30
0.0
 11
-48.0335337899
 21
380.8271456287
 31
0.0
  0
LINE
  5
161
330
1F
100
AcDbEntity
  8
0
  6
Continuous
 62
     7
370
    25
100
AcDbLine
 10
-56.8103714155
 20
404.2358431852
 30
0.0
 11
-66.6420243893
 21
400.5495713825
 31
0.0
  0
LINE
  5
162
330
1F
100
AcDbEntity
  8
0
  6
Continuous
 62
     7
370
    25
100
AcDbLine
 10
-66.6420243893
 20
400.5495713825
 30
0.0
 11
-67.7654596054
 21
403.5458846697
 31
0.0
  0
LINE
  5
163
330
1F
100
AcDbEntity
  8
0
  6
Continuous
 62
     7
370
    25
100
AcDbLine
 10
-67.7654596054
 20
403.5458846697
 30
0.0
 11
-57.9338066316
 21
407.2321564725
 31
0.0
  0
LINE
  5
164
330
1F
100
AcDbEntity
  8
0
  6
Continuous
 62
     7
370
    25
100
AcDbLine
 10
-57.9338066316
 20
407.2321564725
 30
0.0
 11
-56.8103714155
 21
404.2358431852
 31
0.0
  0
LINE
  5
165
330
1F
100
AcDbEntity
  8
0
  6
Continuous
 62
     7
370
    25
100
AcDbLine
 10
-65.5872090412
 20
427.6445407418
 30
0.0
 11
-75.4188620149
 21
423.958268939
 31
0.0
  0
LINE
  5
166
330
1F
100
AcDbEntity
  8
0
  6
Continuous
 62
     7
370
    25
100
AcDbLine
 10
-75.4188620149
 20
423.958268939
 30
0.0
 11
-76.542297231
 21
426.9545822262
 31
0.0
  0
LINE
  5
167
330
1F
100
AcDbEntity
  8
0
  6
Continuous
 62
     7
370
    25
100
AcDbLine
 10
-76.542297231
 20
426.9545822262
 30
0.0
 11
-66.7106442572
 21
430.640854029
 31
0.0
  0
LINE
  5
168
330
1F
100
AcDbEntity
  8
0
  6
Continuous
 62
     7
370
    25
100
AcDbLine
 10
-66.7106442572
 20
430.640854029
 30
0.0
 11
-65.5872090412
 21
427.6445407418
 31
0.0
  0
LINE
  5
169
330
1F
100
AcDbEntity
  8
0
  6
Continuous
 62
     7
370
    25
100
AcDbLine
 10
-74.3640466668
 20
451.0532382983
 30
0.0
 11
-84.1956996405
 21
447.3669664955
 31
0.0
  0
LINE
  5
16A
330
1F
100
AcDbEntity
  8
0
  6
Continuous
 62
     7
370
    25
100
AcDbLine
 10
-84.1956996405
 20
447.3669664955
 30
0.0
 11
-85.3191348566
 21
450.3632797828
 31
0.0
  0
LINE
  5
16B
330
1F
100
AcDbEntity
  8
0
  6
Continuous
 62
     7
370
    25
100
AcDbLine
 10
-85.3191348566
 20
450.3632797828
 30
0.0
 11
-75.4874818829
 21
454.0495515855
 31
0.0
  0
LINE
  5
16C
330
1F
100
AcDbEntity
  8
0
  6
Continuous
 62
     7
370
    25
100
AcDbLine
 10
-75.4874818829
 20
454.0495515855
 30
0.0
 11
-74.3640466668
 21
451.0532382983
 31
0.0
  0
LINE
  5
16D
330
1F
100
AcDbEntity
  8
0
  6
Continuous
 62
     7
370
    25
100
AcDbLine
 10
-83.1408842924
 20
474.4619358548
 30
0.0
 11
-92.9725372662
 21
470.7756640521
 31
0.0
  0
LINE
  5
16E
330
1F
100
AcDbEntity
  8
0
  6
Continuous
 62
     7
370
    25
100
AcDbLine
 10
-92.9725372662
 20
470.7756640521
 30
0.0
 11
-94.0959724822
 21
473.7719773393
 31
0.0
  0
LINE
  5
16F
330
1F
100
AcDbEntity
  8
0
  6
Continuous
 62
     7
370
    25
100
AcDbLine
 10
-94.0959724822
 20
473.7719773393
 30
0.0
 11
-84.2643195085
 21
477.4582491421
 31
0.0
  0
LINE
  5
170
330
1F
100
AcDbEntity
  8
0
  6
Continuous
 62
     7
370
    25
100
AcDbLine
 10
-84.2643195085
 20
477.4582491421
 30
0.0
 11
-83.1408842924
 21
474.4619358548
 31
0.0
  0
LINE
  5
171
330
1F
100
AcDbEntity
  8
0
  6
Continuous
 62
     7
370
    25
100
AcDbLine
 10
-91.917721918
 20
497.8706334114
 30
0.0
 11
-101.7493748918
 21
494.1843616086
 31
0.0
  0
LINE
  5
172
330
1F
100
AcDbEntity
  8
0
  6
Continuous
 62
     7
370
    25
100
AcDbLine
 10
-101.7493748918
 20
494.1843616086
 30
0.0
 11
-102.8728101079
 21
497.1806748958
 31
0.0
  0
LINE
  5
173
330
1F
100
AcDbEntity
  8
0
  6
Continuous
 62
     7
370
    25
100
AcDbLine
 10
-102.8728101079
 20
497.1806748958
 30
0.0
 11
-93.0411571341
 21
500.8669466986
 31
0.0
  0
LINE
  5
174
330
1F
100
AcDbEntity
  8
0
  6
Continuous
 62
     7
370
    25
100
AcDbLine
 10
-93.0411571341
 20
500.8669466986
 30
0.0
 11
-91.917721918
 21
497.8706334114
 31
0.0
  0
LINE
  5
175
330
1F
100
AcDbEntity
  8
0
  6
Continuous
 62
     7
370
    25
100
AcDbLine
 10
-100.6945595437
 20
521.2793309679
 30
0.0
 11
-110.5262125174
 21
517.5930591651
 31
0.0
  0
LINE
  5
176
330
1F
100
AcDbEntity
  8
0
  6
Continuous
 62
     7
370
    25
100
AcDbLine
 10
-110.5262125174
 20
517.5930591651
 30
0.0
 11
-111.6496477335
 21
520.5893724524
 31
0.0
  0
LINE
  5
177
330
1F
100
AcDbEntity
  8
0
  6
Continuous
 62
     7
370
    25
100
AcDbLine
 10
-111.6496477335
 20
520.5893724524
 30
0.0
 11
-101.8179947598
 21
524.2756442551
 31
0.0
  0
LINE
  5
178
330
1F
100
AcDbEntity
  8
0
  6
Continuous
 62
     7
370
    25
100
AcDbLine
 10
-101.8179947598
 20
524.2756442551
 30
0.0
 11
-100.6945595437
 21
521.2793309679
 31
0.0
  0
LINE
  5
179
330
1F
100
AcDbEntity
  8
0
  6
Continuous
 62
     7
370
    25
100
AcDbLine
 10
-109.4713971693
 20
544.6880285244
 30
0.0
 11
-119.303050143
 21
541.0017567217
 31
0.0
  0
LINE
  5
17A
330
1F
100
AcDbEntity
  8
0
  6
Continuous
 62
     7
370
    25
100
AcDbLine
 10
-119.303050143
 20
541.0017567217
 30
0.0
 11
-120.4264853591
 21
543.9980700089
 31
0.0
  0
LINE
  5
17B
330
1F
100
AcDbEntity
  8
0
  6
Continuous
 62
     7
370
    25
100
AcDbLine
 10
-120.4264853591
 20
543.9980700089
 30
0.0
 11
-110.5948323854
 21
547.6843418117
 31
0.0
  0
LINE
  5
17C
330
1F
100
AcDbEntity
  8
0
  6
Continuous
 62
     7
370
    25
100
AcDbLine
 10
-110.5948323854
 20
547.6843418117
 30
0.0
 11
-109.4713971693
 21
544.6880285244
 31
0.0
  0
LINE
  5
17D
330
1F
100
AcDbEntity
  8
0
  6
Continuous
 62
     7
370
    25
100
AcDbLine
 10
-118.2482347949
 20
568.096726081
 30
0.0
 11
-128.0798877687
 21
564.4104542782
 31
0.0
  0
LINE
  5
17E
330
1F
100
AcDbEntity
  8
0
  6
Continuous
 62
     7
370
    25
100
AcDbLine
 10
-128.0798877687
 20
564.4104542782
 30
0.0
 11
-129.2033229848
 21
567.4067675655
 31
0.0
  0
LINE
  5
17F
330
1F
100
AcDbEntity
  8
0
  6
Continuous
 62
     7
370
    25
100
AcDbLine
 10
-129.2033229848
 20
567.4067675655
 30
0.0
 11
-119.371670011
 21
571.0930393682
 31
0.0
  0
LINE
  5
180
330
1F
100
AcDbEntity
  8
0
  6
Continuous
 62
     7
370
    25
100
AcDbLine
 10
-119.371670011
 20
571.0930393682
 30
0.0
 11
-118.2482347949
 21
568.096726081
 31
0.0
  0
LINE
  5
181
330
1F
100
AcDbEntity
  8
0
  6
Continuous
 62
     7
370
    25
100
AcDbLine
 10
-127.0250724206
 20
591.5054236375
 30
0.0
 11
-136.8567253943
 21
587.8191518348
 31
0.0
  0
LINE
  5
182
330
1F
100
AcDbEntity
  8
0
  6
Continuous
 62
     7
370
    25
100
AcDbLine
 10
-136.8567253943
 20
587.8191518348
 30
0.0
 11
-137.9801606104
 21
590.815465122
 31
0.0
  0
LINE
  5
183
330
1F
100
AcDbEntity
  8
0
  6
Continuous
 62
     7
370
    25
100
AcDbLine
 10
-137.9801606104
 20
590.815465122
 30
0.0
 11
-128.1485076366
 21
594.5017369248
 31
0.0
  0
LINE
  5
184
330
1F
100
AcDbEntity
  8
0
  6
Continuous
 62
     7
370
    25
100
AcDbLine
 10
-128.1485076366
 20
594.5017369248
 30
0.0
 11
-127.0250724206
 21
591.5054236375
 31
0.0
  0
LINE
  5
185
330
1F
100
AcDbEntity
  8
0
  6
Continuous
 62
     7
370
    25
100
AcDbLine
 10
-135.8019100462
 20
614.9141211941
 30
0.0
 11
-145.6335630199
 21
611.2278493913
 31
0.0
  0
LINE
  5
186
330
1F
100
AcDbEntity
  8
0
  6
Continuous
 62
     7
370
    25
100
AcDbLine
 10
-145.6335630199
 20
611.2278493913
 30
0.0
 11
-146.756998236
 21
614.2241626785
 31
0.0
  0
LINE
  5
187
330
1F
100
AcDbEntity
  8
0
  6
Continuous
 62
     7
370
    25
100
AcDbLine
 10
-146.756998236
 20
614.2241626785
 30
0.0
 11
-136.9253452623
 21
617.9104344813
 31
0.0
  0
LINE
  5
188
330
1F
100
AcDbEntity
  8
0
  6
Continuous
 62
     7
370
    25
100
AcDbLine
 10
-136.9253452623
 20
617.9104344813
 30
0.0
 11
-135.8019100462
 21
614.9141211941
 31
0.0
  0
LINE
  5
189
330
1F
100
AcDbEntity
  8
0
  6
Continuous
 62
     7
370
    25
100
AcDbLine
 10
-144.5787476718
 20
638.3228187506
 30
0.0
 11
-154.4104006456
 21
634.6365469478
 31
0.0
  0
LINE
  5
18A
330
1F
100
AcDbEntity
  8
0
  6
Continuous
 62
     7
370
    25
100
AcDbLine
 10
-154.4104006456
 20
634.6365469478
 30
0.0
 11
-155.5338358616
 21
637.6328602351
 31
0.0
  0
LINE
  5
18B
330
1F
100
AcDbEntity
  8
0
  6
Continuous
 62
     7
370
    25
100
AcDbLine
 10
-155.5338358616
 20
637.6328602351
 30
0.0
 11
-145.7021828879
 21
641.3191320378
 31
0.0
  0
LINE
  5
18C
330
1F
100
AcDbEntity
  8
0
  6
Continuous
 62
     7
370
    25
100
AcDbLine
 10
-145.7021828879
 20
641.3191320378
 30
0.0
 11
-144.5787476718
 21
638.3228187506
 31
0.0
  0
LINE
  5
18D
330
1F
100
AcDbEntity
  8
0
  6
Continuous
 62
     7
370
    25
100
AcDbLine
 10
-153.3555852974
 20
661.7315163071
 30
0.0
 11
-163.1872382712
 21
658.0452445044
 31
0.0
  0
LINE
  5
18E
330
1F
100
AcDbEntity
  8
0
  6
Continuous
 62
     7
370
    25
100
AcDbLine
 10
-163.1872382712
 20
658.0452445044
 30
0.0
 11
-164.3106734873
 21
661.0415577916
 31
0.0
  0
LINE
  5
18F
330
1F
100
AcDbEntity
  8
0
  6
Continuous
 62
     7
370
    25
100
AcDbLine
 10
-164.3106734873
 20
661.0415577916
 30
0.0
 11
-154.4790205135
 21
664.7278295944
 31
0.0
  0
LINE
  5
190
330
1F
100
AcDbEntity
  8
0
  6
Continuous
 62
     7
370
    25
100
AcDbLine
 10
-154.4790205135
 20
664.7278295944
 30
0.0
 11
-153.3555852974
 21
661.7315163071
 31
0.0
  0
LINE
  5
191
330
1F
100
AcDbEntity
  8
0
  6
Continuous
 62
     7
370
    25
100
AcDbLine
 10
-162.1324229231
 20
685.1402138637
 30
0.0
 11
-171.9640758968
 21
681.4539420609
 31
0.0
  0
LINE
  5
192
330
1F
100
AcDbEntity
  8
0
  6
Continuous
 62
     7
370
    25
100
AcDbLine
 10
-171.9640758968
 20
681.4539420609
 30
0.0
 11
-173.0875111129
 21
684.4502553481
 31
0.0
  0
LINE
  5
193
330
1F
100
AcDbEntity
  8
0
  6
Continuous
 62
     7
370
    25
100
AcDbLine
 10
-173.0875111129
 20
684.4502553481
 30
0.0
 11
-163.2558581392
 21
688.1365271509
 31
0.0
  0
LINE
  5
194
330
1F
100
AcDbEntity
  8
0
  6
Continuous
 62
     7
370
    25
100
AcDbLine
 10
-163.2558581392
 20
688.1365271509
 30
0.0
 11
-162.1324229231
 21
685.1402138637
 31
0.0
  0
LINE
  5
195
330
1F
100
AcDbEntity
  8
0
  6
Continuous
 62
     7
370
    25
100
AcDbLine
 10
-170.9092605487
 20
708.5489114202
 30
0.0
 11
-180.7409135225
 21
704.8626396174
 31
0.0
  0
LINE
  5
196
330
1F
100
AcDbEntity
  8
0
  6
Continuous
 62
     7
370
    25
100
AcDbLine
 10
-180.7409135225
 20
704.8626396174
 30
0.0
 11
-181.8643487385
 21
707.8589529047
 31
0.0
  0
LINE
  5
197
330
1F
100
AcDbEntity
  8
0
  6
Continuous
 62
     7
370
    25
100
AcDbLine
 10
-181.8643487385
 20
707.8589529047
 30
0.0
 11
-172.0326957648
 21
711.5452247074
 31
0.0
  0
LINE
  5
198
330
1F
100
AcDbEntity
  8
0
  6
Continuous
 62
     7
370
    25
100
AcDbLine
 10
-172.0326957648
 20
711.5452247074
 30
0.0
 11
-170.9092605487
 21
708.5489114202
 31
0.0
  0
LINE
  5
199
330
1F
100
AcDbEntity
  8
0
  6
Continuous
 62
     7
370
    25
100
AcDbLine
 10
-179.6860981743
 20
731.9576089767
 30
0.0
 11
-189.5177511481
 21
728.271337174
 31
0.0
  0
LINE
  5
19A
330
1F
100
AcDbEntity
  8
0
  6
Continuous
 62
     7
370
    25
100
AcDbLine
 10
-189.5177511481
 20
728.271337174
 30
0.0
 11
-190.6411863642
 21
731.2676504612
 31
0.0
  0
LINE
  5
19B
330
1F
100
AcDbEntity
  8
0
  6
Continuous
 62
     7
370
    25
100
AcDbLine
 10
-190.6411863642
 20
731.2676504612
 30
0.0
 11
-180.8095333904
 21
734.953922264
 31
0.0
  0
LINE
  5
19C
330
1F
100
AcDbEntity
  8
0
  6
Continuous
 62
     7
370
    25
100
AcDbLine
 10
-180.8095333904
 20
734.953922264
 30
0.0
 11
-179.6860981743
 21
731.9576089767
 31
0.0
  0
LINE
  5
19D
330
1F
100
AcDbEntity
  8
0
  6
Continuous
 62
     7
370
    25
100
AcDbLine
 10
-188.4629358
 20
755.3663065333
 30
0.0
 11
-198.2945887737
 21
751.6800347305
 31
0.0
  0
LINE
  5
19E
330
1F
100
AcDbEntity
  8
0
  6
Continuous
 62
     7
370
    25
100
AcDbLine
 10
-198.2945887737
 20
751.6800347305
 30
0.0
 11
-199.4180239898
 21
754.6763480177
 31
0.0
  0
LINE
  5
19F
330
1F
100
AcDbEntity
  8
0
  6
Continuous
 62
     7
370
    25
100
AcDbLine
 10
-199.4180239898
 20
754.6763480177
 30
0.0
 11
-189.586371016
 21
758.3626198205
 31
0.0
  0
LINE
  5
1A0
330
1F
100
AcDbEntity
  8
0
  6
Continuous
 62
     7
370
    25
100
AcDbLine
 10
-189.586371016
 20
758.3626198205
 30
0.0
 11
-188.4629358
 21
755.3663065333
 31
0.0
  0
LINE
  5
1A1
330
1F
100
AcDbEntity
  8
0
  6
Continuous
 62
     7
370
    25
100
AcDbLine
 10
-197.2397734256
 20
778.7750040898
 30
0.0
 11
-207.0714263993
 21
775.088732287
 31
0.0
  0
LINE
  5
1A2
330
1F
100
AcDbEntity
  8
0
  6
Continuous
 62
     7
370
    25
100
AcDbLine
 10
-207.0714263993
 20
775.088732287
 30
0.0
 11
-208.1948616154
 21
778.0850455743
 31
0.0
  0
LINE
  5
1A3
330
1F
100
AcDbEntity
  8
0
  6
Continuous
 62
     7
370
    25
100
AcDbLine
 10
-208.1948616154
 20
778.0850455743
 30
0.0
 11
-198.3632086417
 21
781.771317377
 31
0.0
  0
LINE
  5
1A4
330
1F
100
AcDbEntity
  8
0
  6
Continuous
 62
     7
370
    25
100
AcDbLine
 10
-198.3632086417
 20
781.771317377
 30
0.0
 11
-197.2397734256
 21
778.7750040898
 31
0.0
  0
LINE
  5
1A5
330
1F
100
AcDbEntity
  8
0
  6
Continuous
 62
     7
370
    25
100
AcDbLine
 10
-206.0166110512
 20
802.1837016463
 30
0.0
 11
-215.848264025
 21
798.4974298436
 31
0.0
  0
LINE
  5
1A6
330
1F
100
AcDbEntity
  8
0
  6
Continuous
 62
     7
370
    25
100
AcDbLine
 10
-215.848264025
 20
798.4974298436
 30
0.0
 11
-216.971699241
 21
801.4937431308
 31
0.0
  0
LINE
  5
1A7
330
1F
100
AcDbEntity
  8
0
  6
Continuous
 62
     7
370
    25
100
AcDbLine
 10
-216.971699241
 20
801.4937431308
 30
0.0
 11
-207.1400462673
 21
805.1800149336
 31
0.0
  0
LINE
  5
1A8
330
1F
100
AcDbEntity
  8
0
  6
Continuous
 62
     7
370
    25
100
AcDbLine
 10
-207.1400462673
 20
805.1800149336
 30
0.0
 11
-206.0166110512
 21
802.1837016463
 31
0.0
  0
LINE
  5
1A9
330
1F
100
AcDbEntity
  8
0
  6
Continuous
 62
     7
370
    25
100
AcDbLine
 10
-214.7934486769
 20
825.5923992029
 30
0.0
 11
-224.6251016506
 21
821.9061274001
 31
0.0
  0
LINE
  5
1AA
330
1F
100
AcDbEntity
  8
0
  6
Continuous
 62
     7
370
    25
100
AcDbLine
 10
-224.6251016506
 20
821.9061274001
 30
0.0
 11
-225.7485368667
 21
824.9024406873
 31
0.0
  0
LINE
  5
1AB
330
1F
100
AcDbEntity
  8
0
  6
Continuous
 62
     7
370
    25
100
AcDbLine
 10
-225.7485368667
 20
824.9024406873
 30
0.0
 11
-215.9168838929
 21
828.5887124901
 31
0.0
  0
LINE
  5
1AC
330
1F
100
AcDbEntity
  8
0
  6
Continuous
 62
     7
370
    25
100
AcDbLine
 10
-215.9168838929
 20
828.5887124901
 30
0.0
 11
-214.7934486769
 21
825.5923992029
 31
0.0
  0
LINE
  5
1AD
330
1F
100
AcDbEntity
  8
0
  6
Continuous
 62
     7
370
    25
100
AcDbLine
 10
-223.5702863025
 20
849.0010967594
 30
0.0
 11
-233.4019392762
 21
845.3148249566
 31
0.0
  0
LINE
  5
1AE
330
1F
100
AcDbEntity
  8
0
  6
Continuous
 62
     7
370
    25
100
AcDbLine
 10
-233.4019392762
 20
845.3148249566
 30
0.0
 11
-234.5253744923
 21
848.3111382439
 31
0.0
  0
LINE
  5
1AF
330
1F
100
AcDbEntity
  8
0
  6
Continuous
 62
     7
370
    25
100
AcDbLine
 10
-234.5253744923
 20
848.3111382439
 30
0.0
 11
-224.6937215186
 21
851.9974100466
 31
0.0
  0
LINE
  5
1B0
330
1F
100
AcDbEntity
  8
0
  6
Continuous
 62
     7
370
    25
100
AcDbLine
 10
-224.6937215186
 20
851.9974100466
 30
0.0
 11
-223.5702863025
 21
849.0010967594
 31
0.0
  0
LINE
  5
1B1
330
1F
100
AcDbEntity
  8
0
  6
Continuous
 62
     7
370
    25
100
AcDbLine
 10
-232.3471239281
 20
872.4097943159
 30
0.0
 11
-242.1787769019
 21
868.7235225132
 31
0.0
  0
LINE
  5
1B2
330
1F
100
AcDbEntity
  8
0
  6
Continuous
 62
     7
370
    25
100
AcDbLine
 10
-242.1787769019
 20
868.7235225132
 30
0.0
 11
-243.3022121179
 21
871.7198358004
 31
0.0
  0
LINE
  5
1B3
330
1F
100
AcDbEntity
  8
0
  6
Continuous
 62
     7
370
    25
100
AcDbLine
 10
-243.3022121179
 20
871.7198358004
 30
0.0
 11
-233.4705591442
 21
875.4061076032
 31
0.0
  0
LINE
  5
1B4
330
1F
100
AcDbEntity
  8
0
  6
Continuous
 62
     7
370
    25
100
AcDbLine
 10
-233.4705591442
 20
875.4061076032
 30
0.0
 11
-232.3471239281
 21
872.4097943159
 31
0.0
  0
LINE
  5
1B5
330
1F
100
AcDbEntity
  8
0
  6
Continuous
 62
     7
370
    25
100
AcDbLine
 10
55.5285935267
 20
19.1644771299
 30
0.0
 11
45.696940553
 21
15.4782053272
 31
0.0
  0
LINE
  5
1B6
330
1F
100
AcDbEntity
  8
0
  6
Continuous
 62
     7
370
    25
100
AcDbLine
 10
45.696940553
 20
15.4782053272
 30
0.0
 11
44.5735053369
 21
18.4745186144
 31
0.0
  0
LINE
  5
1B7
330
1F
100
AcDbEntity
  8
0
  6
Continuous
 62
     7
370
    25
100
AcDbLine
 10
44.5735053369
 20
18.4745186144
 30
0.0
 11
54.4051583106
 21
22.1607904172
 31
0.0
  0
LINE
  5
1B8
330
1F
100
AcDbEntity
  8
0
  6
Continuous
 62
     7
370
    25
100
AcDbLine
 10
54.4051583106
 20
22.1607904172
 30
0.0
 11
55.5285935267
 21
19.1644771299
 31
0.0
  0
LINE
  5
1B9
330
1F
100
AcDbEntity
  8
0
  6
Continuous
 62
     7
370
    25
100
AcDbLine
 10
46.7517559011
 20
42.5731746865
 30
0.0
 11
36.9201029273
 21
38.8869028837
 31
0.0
  0
LINE
  5
1BA
330
1F
100
AcDbEntity
  8
0
  6
Continuous
 62
     7
370
    25
100
AcDbLine
 10
36.9201029273
 20
38.8869028837
 30
0.0
 11
35.7966677112
 21
41.8832161709
 31
0.0
  0
LINE
  5
1BB
330
1F
100
AcDbEntity
  8
0
  6
Continuous
 62
     7
370
    25
100
AcDbLine
 10
35.7966677112
 20
41.8832161709
 30
0.0
 11
45.628320685
 21
45.5694879737
 31
0.0
  0
LINE
  5
1BC
330
1F
100
AcDbEntity
  8
0
  6
Continuous
 62
     7
370
    25
100
AcDbLine
 10
45.628320685
 20
45.5694879737
 30
0.0
 11
46.7517559011
 21
42.5731746865
 31
0.0
  0
LINE
  5
1BD
330
1F
100
AcDbEntity
  8
0
  6
Continuous
 62
     7
370
    25
100
AcDbLine
 10
37.9749182754
 20
65.981872243
 30
0.0
 11
28.1432653017
 21
62.2956004402
 31
0.0
  0
LINE
  5
1BE
330
1F
100
AcDbEntity
  8
0
  6
Continuous
 62
     7
370
    25
100
AcDbLine
 10
28.1432653017
 20
62.2956004402
 30
0.0
 11
27.0198300856
 21
65.2919137275
 31
0.0
  0
LINE
  5
1BF
330
1F
100
AcDbEntity
  8
0
  6
Continuous
 62
     7
370
    25
100
AcDbLine
 10
27.0198300856
 20
65.2919137275
 30
0.0
 11
36.8514830594
 21
68.9781855302
 31
0.0
  0
LINE
  5
1C0
330
1F
100
AcDbEntity
  8
0
  6
Continuous
 62
     7
370
    25
100
AcDbLine
 10
36.8514830594
 20
68.9781855302
 30
0.0
 11
37.9749182754
 21
65.981872243
 31
0.0
  0
LINE
  5
1C1
330
1F
100
AcDbEntity
  8
0
  6
Continuous
 62
     7
370
    25
100
AcDbLine
 10
29.1980806498
 20
89.3905697995
 30
0.0
 11
19.3664276761
 21
85.7042979968
 31
0.0
  0
LINE
  5
1C2
330
1F
100
AcDbEntity
  8
0
  6
Continuous
 62
     7
370
    25
100
AcDbLine
 10
19.3664276761
 20
85.7042979968
 30
0.0
 11
18.24299246
 21
88.700611284
 31
0.0
  0
LINE
  5
1C3
330
1F
100
AcDbEntity
  8
0
  6
Continuous
 62
     7
370
    25
100
AcDbLine
 10
18.24299246
 20
88.700611284
 30
0.0
 11
28.0746454337
 21
92.3868830868
 31
0.0
  0
LINE
  5
1C4
330
1F
100
AcDbEntity
  8
0
  6
Continuous
 62
     7
370
    25
100
AcDbLine
 10
28.0746454337
 20
92.3868830868
 30
0.0
 11
29.1980806498
 21
89.3905697995
 31
0.0
  0
LINE
  5
1C5
330
1F
100
AcDbEntity
  8
0
  6
Continuous
 62
     7
370
    25
100
AcDbLine
 10
20.4212430242
 20
112.7992673561
 30
0.0
 11
10.5895900504
 21
109.1129955533
 31
0.0
  0
LINE
  5
1C6
330
1F
100
AcDbEntity
  8
0
  6
Continuous
 62
     7
370
    25
100
AcDbLine
 10
10.5895900504
 20
109.1129955533
 30
0.0
 11
9.4661548344
 21
112.1093088405
 31
0.0
  0
LINE
  5
1C7
330
1F
100
AcDbEntity
  8
0
  6
Continuous
 62
     7
370
    25
100
AcDbLine
 10
9.4661548344
 20
112.1093088405
 30
0.0
 11
19.2978078081
 21
115.7955806433
 31
0.0
  0
LINE
  5
1C8
330
1F
100
AcDbEntity
  8
0
  6
Continuous
 62
     7
370
    25
100
AcDbLine
 10
19.2978078081
 20
115.7955806433
 30
0.0
 11
20.4212430242
 21
112.7992673561
 31
0.0
  0
LINE
  5
1C9
330
1F
100
AcDbEntity
  8
0
  6
Continuous
 62
     7
370
    25
100
AcDbLine
 10
11.6444053985
 20
136.2079649126
 30
0.0
 11
1.8127524248
 21
132.5216931098
 31
0.0
  0
LINE
  5
1CA
330
1F
100
AcDbEntity
  8
0
  6
Continuous
 62
     7
370
    25
100
AcDbLine
 10
1.8127524248
 20
132.5216931098
 30
0.0
 11
0.6893172087
 21
135.5180063971
 31
0.0
  0
LINE
  5
1CB
330
1F
100
AcDbEntity
  8
0
  6
Continuous
 62
     7
370
    25
100
AcDbLine
 10
0.6893172087
 20
135.5180063971
 30
0.0
 11
10.5209701825
 21
139.2042781998
 31
0.0
  0
LINE
  5
1CC
330
1F
100
AcDbEntity
  8
0
  6
Continuous
 62
     7
370
    25
100
AcDbLine
 10
10.5209701825
 20
139.2042781998
 30
0.0
 11
11.6444053985
 21
136.2079649126
 31
0.0
  0
LINE
  5
1CD
330
1F
100
AcDbEntity
  8
0
  6
Continuous
 62
     7
370
    25
100
AcDbLine
 10
2.8675677729
 20
159.6166624691
 30
0.0
 11
-6.9640852008
 21
155.9303906664
 31
0.0
  0
LINE
  5
1CE
330
1F
100
AcDbEntity
  8
0
  6
Continuous
 62
     7
370
    25
100
AcDbLine
 10
-6.9640852008
 20
155.9303906664
 30
0.0
 11
-8.0875204169
 21
158.9267039536
 31
0.0
  0
LINE
  5
1CF
330
1F
100
AcDbEntity
  8
0
  6
Continuous
 62
     7
370
    25
100
AcDbLine
 10
-8.0875204169
 20
158.9267039536
 30
0.0
 11
1.7441325568
 21
162.6129757564
 31
0.0
  0
LINE
  5
1D0
330
1F
100
AcDbEntity
  8
0
  6
Continuous
 62
     7
370
    25
100
AcDbLine
 10
1.7441325568
 20
162.6129757564
 30
0.0
 11
2.8675677729
 21
159.6166624691
 31
0.0
  0
LINE
  5
1D1
330
1F
100
AcDbEntity
  8
0
  6
Continuous
 62
     7
370
    25
100
AcDbLine
 10
-5.9092698527
 20
183.0253600257
 30
0.0
 11
-15.7409228265
 21
179.3390882229
 31
0.0
  0
LINE
  5
1D2
330
1F
100
AcDbEntity
  8
0
  6
Continuous
 62
     7
370
    25
100
AcDbLine
 10
-15.7409228265
 20
179.3390882229
 30
0.0
 11
-16.8643580425
 21
182.3354015101
 31
0.0
  0
LINE
  5
1D3
330
1F
100
AcDbEntity
  8
0
  6
Continuous
 62
     7
370
    25
100
AcDbLine
 10
-16.8643580425
 20
182.3354015101
 30
0.0
 11
-7.0327050688
 21
186.0216733129
 31
0.0
  0
LINE
  5
1D4
330
1F
100
AcDbEntity
  8
0
  6
Continuous
 62
     7
370
    25
100
AcDbLine
 10
-7.0327050688
 20
186.0216733129
 30
0.0
 11
-5.9092698527
 21
183.0253600257
 31
0.0
  0
LINE
  5
1D5
330
1F
100
AcDbEntity
  8
0
  6
Continuous
 62
     7
370
    25
100
AcDbLine
 10
-14.6861074783
 20
206.4340575822
 30
0.0
 11
-24.5177604521
 21
202.7477857794
 31
0.0
  0
LINE
  5
1D6
330
1F
100
AcDbEntity
  8
0
  6
Continuous
 62
     7
370
    25
100
AcDbLine
 10
-24.5177604521
 20
202.7477857794
 30
0.0
 11
-25.6411956682
 21
205.7440990667
 31
0.0
  0
LINE
  5
1D7
330
1F
100
AcDbEntity
  8
0
  6
Continuous
 62
     7
370
    25
100
AcDbLine
 10
-25.6411956682
 20
205.7440990667
 30
0.0
 11
-15.8095426944
 21
209.4303708694
 31
0.0
  0
LINE
  5
1D8
330
1F
100
AcDbEntity
  8
0
  6
Continuous
 62
     7
370
    25
100
AcDbLine
 10
-15.8095426944
 20
209.4303708694
 30
0.0
 11
-14.6861074783
 21
206.4340575822
 31
0.0
  0
LINE
  5
1D9
330
1F
100
AcDbEntity
  8
0
  6
Continuous
 62
     7
370
    25
100
AcDbLine
 10
-23.462945104
 20
229.8427551387
 30
0.0
 11
-33.2945980777
 21
226.156483336
 31
0.0
  0
LINE
  5
1DA
330
1F
100
AcDbEntity
  8
0
  6
Continuous
 62
     7
370
    25
100
AcDbLine
 10
-33.2945980777
 20
226.156483336
 30
0.0
 11
-34.4180332938
 21
229.1527966232
 31
0.0
  0
LINE
  5
1DB
330
1F
100
AcDbEntity
  8
0
  6
Continuous
 62
     7
370
    25
100
AcDbLine
 10
-34.4180332938
 20
229.1527966232
 30
0.0
 11
-24.58638032
 21
232.839068426
 31
0.0
  0
LINE
  5
1DC
330
1F
100
AcDbEntity
  8
0
  6
Continuous
 62
     7
370
    25
100
AcDbLine
 10
-24.58638032
 20
232.839068426
 30
0.0
 11
-23.462945104
 21
229.8427551387
 31
0.0
  0
LINE
  5
1DD
330
1F
100
AcDbEntity
  8
0
  6
Continuous
 62
     7
370
    25
100
AcDbLine
 10
-32.2397827296
 20
253.2514526953
 30
0.0
 11
-42.0714357033
 21
249.5651808925
 31
0.0
  0
LINE
  5
1DE
330
1F
100
AcDbEntity
  8
0
  6
Continuous
 62
     7
370
    25
100
AcDbLine
 10
-42.0714357033
 20
249.5651808925
 30
0.0
 11
-43.1948709194
 21
252.5614941797
 31
0.0
  0
LINE
  5
1DF
330
1F
100
AcDbEntity
  8
0
  6
Continuous
 62
     7
370
    25
100
AcDbLine
 10
-43.1948709194
 20
252.5614941797
 30
0.0
 11
-33.3632179457
 21
256.2477659825
 31
0.0
  0
LINE
  5
1E0
330
1F
100
AcDbEntity
  8
0
  6
Continuous
 62
     7
370
    25
100
AcDbLine
 10
-33.3632179457
 20
256.2477659825
 30
0.0
 11
-32.2397827296
 21
253.2514526953
 31
0.0
  0
LINE
  5
1E1
330
1F
100
AcDbEntity
  8
0
  6
Continuous
 62
     7
370
    25
100
AcDbLine
 10
-41.0166203552
 20
276.6601502518
 30
0.0
 11
-50.848273329
 21
272.973878449
 31
0.0
  0
LINE
  5
1E2
330
1F
100
AcDbEntity
  8
0
  6
Continuous
 62
     7
370
    25
100
AcDbLine
 10
-50.848273329
 20
272.973878449
 30
0.0
 11
-51.9717085451
 21
275.9701917363
 31
0.0
  0
LINE
  5
1E3
330
1F
100
AcDbEntity
  8
0
  6
Continuous
 62
     7
370
    25
100
AcDbLine
 10
-51.9717085451
 20
275.9701917363
 30
0.0
 11
-42.1400555713
 21
279.656463539
 31
0.0
  0
LINE
  5
1E4
330
1F
100
AcDbEntity
  8
0
  6
Continuous
 62
     7
370
    25
100
AcDbLine
 10
-42.1400555713
 20
279.656463539
 30
0.0
 11
-41.0166203552
 21
276.6601502518
 31
0.0
  0
LINE
  5
1E5
330
1F
100
AcDbEntity
  8
0
  6
Continuous
 62
     7
370
    25
100
AcDbLine
 10
-49.7934579809
 20
300.0688478083
 30
0.0
 11
-59.6251109546
 21
296.3825760056
 31
0.0
  0
LINE
  5
1E6
330
1F
100
AcDbEntity
  8
0
  6
Continuous
 62
     7
370
    25
100
AcDbLine
 10
-59.6251109546
 20
296.3825760056
 30
0.0
 11
-60.7485461707
 21
299.3788892928
 31
0.0
  0
LINE
  5
1E7
330
1F
100
AcDbEntity
  8
0
  6
Continuous
 62
     7
370
    25
100
AcDbLine
 10
-60.7485461707
 20
299.3788892928
 30
0.0
 11
-50.9168931969
 21
303.0651610956
 31
0.0
  0
LINE
  5
1E8
330
1F
100
AcDbEntity
  8
0
  6
Continuous
 62
     7
370
    25
100
AcDbLine
 10
-50.9168931969
 20
303.0651610956
 30
0.0
 11
-49.7934579809
 21
300.0688478083
 31
0.0
  0
LINE
  5
1E9
330
1F
100
AcDbEntity
  8
0
  6
Continuous
 62
     7
370
    25
100
AcDbLine
 10
-58.5702956065
 20
323.4775453649
 30
0.0
 11
-68.4019485802
 21
319.7912735621
 31
0.0
  0
LINE
  5
1EA
330
1F
100
AcDbEntity
  8
0
  6
Continuous
 62
     7
370
    25
100
AcDbLine
 10
-68.4019485802
 20
319.7912735621
 30
0.0
 11
-69.5253837963
 21
322.7875868493
 31
0.0
  0
LINE
  5
1EB
330
1F
100
AcDbEntity
  8
0
  6
Continuous
 62
     7
370
    25
100
AcDbLine
 10
-69.5253837963
 20
322.7875868493
 30
0.0
 11
-59.6937308226
 21
326.4738586521
 31
0.0
  0
LINE
  5
1EC
330
1F
100
AcDbEntity
  8
0
  6
Continuous
 62
     7
370
    25
100
AcDbLine
 10
-59.6937308226
 20
326.4738586521
 30
0.0
 11
-58.5702956065
 21
323.4775453649
 31
0.0
  0
LINE
  5
1ED
330
1F
100
AcDbEntity
  8
0
  6
Continuous
 62
     7
370
    25
100
AcDbLine
 10
-67.3471332321
 20
346.8862429214
 30
0.0
 11
-77.1787862059
 21
343.1999711186
 31
0.0
  0
LINE
  5
1EE
330
1F
100
AcDbEntity
  8
0
  6
Continuous
 62
     7
370
    25
100
AcDbLine
 10
-77.1787862059
 20
343.1999711186
 30
0.0
 11
-78.3022214219
 21
346.1962844059
 31
0.0
  0
LINE
  5
1EF
330
1F
100
AcDbEntity
  8
0
  6
Continuous
 62
     7
370
    25
100
AcDbLine
 10
-78.3022214219
 20
346.1962844059
 30
0.0
 11
-68.4705684482
 21
349.8825562086
 31
0.0
  0
LINE
  5
1F0
330
1F
100
AcDbEntity
  8
0
  6
Continuous
 62
     7
370
    25
100
AcDbLine
 10
-68.4705684482
 20
349.8825562086
 30
0.0
 11
-67.3471332321
 21
346.8862429214
 31
0.0
  0
LINE
  5
1F1
330
1F
100
AcDbEntity
  8
0
  6
Continuous
 62
     7
370
    25
100
AcDbLine
 10
-76.1239708577
 20
370.2949404779
 30
0.0
 11
-85.9556238315
 21
366.6086686752
 31
0.0
  0
LINE
  5
1F2
330
1F
100
AcDbEntity
  8
0
  6
Continuous
 62
     7
370
    25
100
AcDbLine
 10
-85.9556238315
 20
366.6086686752
 30
0.0
 11
-87.0790590476
 21
369.6049819624
 31
0.0
  0
LINE
  5
1F3
330
1F
100
AcDbEntity
  8
0
  6
Continuous
 62
     7
370
    25
100
AcDbLine
 10
-87.0790590476
 20
369.6049819624
 30
0.0
 11
-77.2474060738
 21
373.2912537652
 31
0.0
  0
LINE
  5
1F4
330
1F
100
AcDbEntity
  8
0
  6
Continuous
 62
     7
370
    25
100
AcDbLine
 10
-77.2474060738
 20
373.2912537652
 30
0.0
 11
-76.1239708577
 21
370.2949404779
 31
0.0
  0
LINE
  5
1F5
330
1F
100
AcDbEntity
  8
0
  6
Continuous
 62
     7
370
    25
100
AcDbLine
 10
-84.9008084834
 20
393.7036380345
 30
0.0
 11
-94.7324614571
 21
390.0173662317
 31
0.0
  0
LINE
  5
1F6
330
1F
100
AcDbEntity
  8
0
  6
Continuous
 62
     7
370
    25
100
AcDbLine
 10
-94.7324614571
 20
390.0173662317
 30
0.0
 11
-95.8558966732
 21
393.013679519
 31
0.0
  0
LINE
  5
1F7
330
1F
100
AcDbEntity
  8
0
  6
Continuous
 62
     7
370
    25
100
AcDbLine
 10
-95.8558966732
 20
393.013679519
 30
0.0
 11
-86.0242436995
 21
396.6999513217
 31
0.0
  0
LINE
  5
1F8
330
1F
100
AcDbEntity
  8
0
  6
Continuous
 62
     7
370
    25
100
AcDbLine
 10
-86.0242436995
 20
396.6999513217
 30
0.0
 11
-84.9008084834
 21
393.7036380345
 31
0.0
  0
LINE
  5
1F9
330
1F
100
AcDbEntity
  8
0
  6
Continuous
 62
     7
370
    25
100
AcDbLine
 10
-93.677646109
 20
417.112335591
 30
0.0
 11
-103.5092990827
 21
413.4260637883
 31
0.0
  0
LINE
  5
1FA
330
1F
100
AcDbEntity
  8
0
  6
Continuous
 62
     7
370
    25
100
AcDbLine
 10
-103.5092990827
 20
413.4260637883
 30
0.0
 11
-104.6327342988
 21
416.4223770755
 31
0.0
  0
LINE
  5
1FB
330
1F
100
AcDbEntity
  8
0
  6
Continuous
 62
     7
370
    25
100
AcDbLine
 10
-104.6327342988
 20
416.4223770755
 30
0.0
 11
-94.8010813251
 21
420.1086488783
 31
0.0
  0
LINE
  5
1FC
330
1F
100
AcDbEntity
  8
0
  6
Continuous
 62
     7
370
    25
100
AcDbLine
 10
-94.8010813251
 20
420.1086488783
 30
0.0
 11
-93.677646109
 21
417.112335591
 31
0.0
  0
LINE
  5
1FD
330
1F
100
AcDbEntity
  8
0
  6
Continuous
 62
     7
370
    25
100
AcDbLine
 10
-102.4544837346
 20
440.5210331476
 30
0.0
 11
-112.2861367084
 21
436.8347613448
 31
0.0
  0
LINE
  5
1FE
330
1F
100
AcDbEntity
  8
0
  6
Continuous
 62
     7
370
    25
100
AcDbLine
 10
-112.2861367084
 20
436.8347613448
 30
0.0
 11
-113.4095719245
 21
439.831074632
 31
0.0
  0
LINE
  5
1FF
330
1F
100
AcDbEntity
  8
0
  6
Continuous
 62
     7
370
    25
100
AcDbLine
 10
-113.4095719245
 20
439.831074632
 30
0.0
 11
-103.5779189507
 21
443.5173464348
 31
0.0
  0
LINE
  5
200
330
1F
100
AcDbEntity
  8
0
  6
Continuous
 62
     7
370
    25
100
AcDbLine
 10
-103.5779189507
 20
443.5173464348
 30
0.0
 11
-102.4544837346
 21
440.5210331476
 31
0.0
  0
LINE
  5
201
330
1F
100
AcDbEntity
  8
0
  6
Continuous
 62
     7
370
    25
100
AcDbLine
 10
-111.2313213603
 20
463.9297307041
 30
0.0
 11
-121.062974334
 21
460.2434589013
 31
0.0
  0
LINE
  5
202
330
1F
100
AcDbEntity
  8
0
  6
Continuous
 62
     7
370
    25
100
AcDbLine
 10
-121.062974334
 20
460.2434589013
 30
0.0
 11
-122.1864095501
 21
463.2397721886
 31
0.0
  0
LINE
  5
203
330
1F
100
AcDbEntity
  8
0
  6
Continuous
 62
     7
370
    25
100
AcDbLine
 10
-122.1864095501
 20
463.2397721886
 30
0.0
 11
-112.3547565763
 21
466.9260439913
 31
0.0
  0
LINE
  5
204
330
1F
100
AcDbEntity
  8
0
  6
Continuous
 62
     7
370
    25
100
AcDbLine
 10
-112.3547565763
 20
466.9260439913
 30
0.0
 11
-111.2313213603
 21
463.9297307041
 31
0.0
  0
LINE
  5
205
330
1F
100
AcDbEntity
  8
0
  6
Continuous
 62
     7
370
    25
100
AcDbLine
 10
-120.0081589859
 20
487.3384282606
 30
0.0
 11
-129.8398119596
 21
483.6521564579
 31
0.0
  0
LINE
  5
206
330
1F
100
AcDbEntity
  8
0
  6
Continuous
 62
     7
370
    25
100
AcDbLine
 10
-129.8398119596
 20
483.6521564579
 30
0.0
 11
-130.9632471757
 21
486.6484697451
 31
0.0
  0
LINE
  5
207
330
1F
100
AcDbEntity
  8
0
  6
Continuous
 62
     7
370
    25
100
AcDbLine
 10
-130.9632471757
 20
486.6484697451
 30
0.0
 11
-121.131594202
 21
490.3347415479
 31
0.0
  0
LINE
  5
208
330
1F
100
AcDbEntity
  8
0
  6
Continuous
 62
     7
370
    25
100
AcDbLine
 10
-121.131594202
 20
490.3347415479
 30
0.0
 11
-120.0081589859
 21
487.3384282606
 31
0.0
  0
LINE
  5
209
330
1F
100
AcDbEntity
  8
0
  6
Continuous
 62
     7
370
    25
100
AcDbLine
 10
-128.7849966115
 20
510.7471258172
 30
0.0
 11
-138.6166495853
 21
507.0608540144
 31
0.0
  0
LINE
  5
20A
330
1F
100
AcDbEntity
  8
0
  6
Continuous
 62
     7
370
    25
100
AcDbLine
 10
-138.6166495853
 20
507.0608540144
 30
0.0
 11
-139.7400848013
 21
510.0571673016
 31
0.0
  0
LINE
  5
20B
330
1F
100
AcDbEntity
  8
0
  6
Continuous
 62
     7
370
    25
100
AcDbLine
 10
-139.7400848013
 20
510.0571673016
 30
0.0
 11
-129.9084318276
 21
513.7434391044
 31
0.0
  0
LINE
  5
20C
330
1F
100
AcDbEntity
  8
0
  6
Continuous
 62
     7
370
    25
100
AcDbLine
 10
-129.9084318276
 20
513.7434391044
 30
0.0
 11
-128.7849966115
 21
510.7471258172
 31
0.0
  0
LINE
  5
20D
330
1F
100
AcDbEntity
  8
0
  6
Continuous
 62
     7
370
    25
100
AcDbLine
 10
-137.5618342371
 20
534.1558233737
 30
0.0
 11
-147.3934872109
 21
530.4695515709
 31
0.0
  0
LINE
  5
20E
330
1F
100
AcDbEntity
  8
0
  6
Continuous
 62
     7
370
    25
100
AcDbLine
 10
-147.3934872109
 20
530.4695515709
 30
0.0
 11
-148.516922427
 21
533.4658648582
 31
0.0
  0
LINE
  5
20F
330
1F
100
AcDbEntity
  8
0
  6
Continuous
 62
     7
370
    25
100
AcDbLine
 10
-148.516922427
 20
533.4658648582
 30
0.0
 11
-138.6852694532
 21
537.1521366609
 31
0.0
  0
LINE
  5
210
330
1F
100
AcDbEntity
  8
0
  6
Continuous
 62
     7
370
    25
100
AcDbLine
 10
-138.6852694532
 20
537.1521366609
 30
0.0
 11
-137.5618342371
 21
534.1558233737
 31
0.0
  0
LINE
  5
211
330
1F
100
AcDbEntity
  8
0
  6
Continuous
 62
     7
370
    25
100
AcDbLine
 10
-146.3386718628
 20
557.5645209302
 30
0.0
 11
-156.1703248365
 21
553.8782491275
 31
0.0
  0
LINE
  5
212
330
1F
100
AcDbEntity
  8
0
  6
Continuous
 62
     7
370
    25
100
AcDbLine
 10
-156.1703248365
 20
553.8782491275
 30
0.0
 11
-157.2937600526
 21
556.8745624147
 31
0.0
  0
LINE
  5
213
330
1F
100
AcDbEntity
  8
0
  6
Continuous
 62
     7
370
    25
100
AcDbLine
 10
-157.2937600526
 20
556.8745624147
 30
0.0
 11
-147.4621070789
 21
560.5608342175
 31
0.0
  0
LINE
  5
214
330
1F
100
AcDbEntity
  8
0
  6
Continuous
 62
     7
370
    25
100
AcDbLine
 10
-147.4621070789
 20
560.5608342175
 30
0.0
 11
-146.3386718628
 21
557.5645209302
 31
0.0
  0
LINE
  5
215
330
1F
100
AcDbEntity
  8
0
  6
Continuous
 62
     7
370
    25
100
AcDbLine
 10
-155.1155094884
 20
580.9732184868
 30
0.0
 11
-164.9471624621
 21
577.286946684
 31
0.0
  0
LINE
  5
216
330
1F
100
AcDbEntity
  8
0
  6
Continuous
 62
     7
370
    25
100
AcDbLine
 10
-164.9471624621
 20
577.286946684
 30
0.0
 11
-166.0705976782
 21
580.2832599712
 31
0.0
  0
LINE
  5
217
330
1F
100
AcDbEntity
  8
0
  6
Continuous
 62
     7
370
    25
100
AcDbLine
 10
-166.0705976782
 20
580.2832599712
 30
0.0
 11
-156.2389447045
 21
583.969531774
 31
0.0
  0
LINE
  5
218
330
1F
100
AcDbEntity
  8
0
  6
Continuous
 62
     7
370
    25
100
AcDbLine
 10
-156.2389447045
 20
583.969531774
 30
0.0
 11
-155.1155094884
 21
580.9732184868
 31
0.0
  0
LINE
  5
219
330
1F
100
AcDbEntity
  8
0
  6
Continuous
 62
     7
370
    25
100
AcDbLine
 10
-163.892347114
 20
604.3819160433
 30
0.0
 11
-173.7240000878
 21
600.6956442405
 31
0.0
  0
LINE
  5
21A
330
1F
100
AcDbEntity
  8
0
  6
Continuous
 62
     7
370
    25
100
AcDbLine
 10
-173.7240000878
 20
600.6956442405
 30
0.0
 11
-174.8474353039
 21
603.6919575278
 31
0.0
  0
LINE
  5
21B
330
1F
100
AcDbEntity
  8
0
  6
Continuous
 62
     7
370
    25
100
AcDbLine
 10
-174.8474353039
 20
603.6919575278
 30
0.0
 11
-165.0157823301
 21
607.3782293305
 31
0.0
  0
LINE
  5
21C
330
1F
100
AcDbEntity
  8
0
  6
Continuous
 62
     7
370
    25
100
AcDbLine
 10
-165.0157823301
 20
607.3782293305
 30
0.0
 11
-163.892347114
 21
604.3819160433
 31
0.0
  0
LINE
  5
21D
330
1F
100
AcDbEntity
  8
0
  6
Continuous
 62
     7
370
    25
100
AcDbLine
 10
-172.6691847397
 20
627.7906135998
 30
0.0
 11
-182.5008377134
 21
624.1043417971
 31
0.0
  0
LINE
  5
21E
330
1F
100
AcDbEntity
  8
0
  6
Continuous
 62
     7
370
    25
100
AcDbLine
 10
-182.5008377134
 20
624.1043417971
 30
0.0
 11
-183.6242729295
 21
627.1006550843
 31
0.0
  0
LINE
  5
21F
330
1F
100
AcDbEntity
  8
0
  6
Continuous
 62
     7
370
    25
100
AcDbLine
 10
-183.6242729295
 20
627.1006550843
 30
0.0
 11
-173.7926199557
 21
630.7869268871
 31
0.0
  0
LINE
  5
220
330
1F
100
AcDbEntity
  8
0
  6
Continuous
 62
     7
370
    25
100
AcDbLine
 10
-173.7926199557
 20
630.7869268871
 30
0.0
 11
-172.6691847397
 21
627.7906135998
 31
0.0
  0
LINE
  5
221
330
1F
100
AcDbEntity
  8
0
  6
Continuous
 62
     7
370
    25
100
AcDbLine
 10
-181.4460223653
 20
651.1993111564
 30
0.0
 11
-191.277675339
 21
647.5130393536
 31
0.0
  0
LINE
  5
222
330
1F
100
AcDbEntity
  8
0
  6
Continuous
 62
     7
370
    25
100
AcDbLine
 10
-191.277675339
 20
647.5130393536
 30
0.0
 11
-192.4011105551
 21
650.5093526408
 31
0.0
  0
LINE
  5
223
330
1F
100
AcDbEntity
  8
0
  6
Continuous
 62
     7
370
    25
100
AcDbLine
 10
-192.4011105551
 20
650.5093526408
 30
0.0
 11
-182.5694575814
 21
654.1956244436
 31
0.0
  0
LINE
  5
224
330
1F
100
AcDbEntity
  8
0
  6
Continuous
 62
     7
370
    25
100
AcDbLine
 10
-182.5694575814
 20
654.1956244436
 30
0.0
 11
-181.4460223653
 21
651.1993111564
 31
0.0
  0
LINE
  5
225
330
1F
100
AcDbEntity
  8
0
  6
Continuous
 62
     7
370
    25
100
AcDbLine
 10
-190.2228599909
 20
674.6080087129
 30
0.0
 11
-200.0545129647
 21
670.9217369101
 31
0.0
  0
LINE
  5
226
330
1F
100
AcDbEntity
  8
0
  6
Continuous
 62
     7
370
    25
100
AcDbLine
 10
-200.0545129647
 20
670.9217369101
 30
0.0
 11
-201.1779481807
 21
673.9180501974
 31
0.0
  0
LINE
  5
227
330
1F
100
AcDbEntity
  8
0
  6
Continuous
 62
     7
370
    25
100
AcDbLine
 10
-201.1779481807
 20
673.9180501974
 30
0.0
 11
-191.346295207
 21
677.6043220001
 31
0.0
  0
LINE
  5
228
330
1F
100
AcDbEntity
  8
0
  6
Continuous
 62
     7
370
    25
100
AcDbLine
 10
-191.346295207
 20
677.6043220001
 30
0.0
 11
-190.2228599909
 21
674.6080087129
 31
0.0
  0
LINE
  5
229
330
1F
100
AcDbEntity
  8
0
  6
Continuous
 62
     7
370
    25
100
AcDbLine
 10
-198.9996976165
 20
698.0167062694
 30
0.0
 11
-208.8313505903
 21
694.3304344667
 31
0.0
  0
LINE
  5
22A
330
1F
100
AcDbEntity
  8
0
  6
Continuous
 62
     7
370
    25
100
AcDbLine
 10
-208.8313505903
 20
694.3304344667
 30
0.0
 11
-209.9547858064
 21
697.3267477539
 31
0.0
  0
LINE
  5
22B
330
1F
100
AcDbEntity
  8
0
  6
Continuous
 62
     7
370
    25
100
AcDbLine
 10
-209.9547858064
 20
697.3267477539
 30
0.0
 11
-200.1231328326
 21
701.0130195567
 31
0.0
  0
LINE
  5
22C
330
1F
100
AcDbEntity
  8
0
  6
Continuous
 62
     7
370
    25
100
AcDbLine
 10
-200.1231328326
 20
701.0130195567
 30
0.0
 11
-198.9996976165
 21
698.0167062694
 31
0.0
  0
LINE
  5
22D
330
1F
100
AcDbEntity
  8
0
  6
Continuous
 62
     7
370
    25
100
AcDbLine
 10
-207.7765352422
 20
721.425403826
 30
0.0
 11
-217.6081882159
 21
717.7391320232
 31
0.0
  0
LINE
  5
22E
330
1F
100
AcDbEntity
  8
0
  6
Continuous
 62
     7
370
    25
100
AcDbLine
 10
-217.6081882159
 20
717.7391320232
 30
0.0
 11
-218.731623432
 21
720.7354453104
 31
0.0
  0
LINE
  5
22F
330
1F
100
AcDbEntity
  8
0
  6
Continuous
 62
     7
370
    25
100
AcDbLine
 10
-218.731623432
 20
720.7354453104
 30
0.0
 11
-208.8999704583
 21
724.4217171132
 31
0.0
  0
LINE
  5
230
330
1F
100
AcDbEntity
  8
0
  6
Continuous
 62
     7
370
    25
100
AcDbLine
 10
-208.8999704583
 20
724.4217171132
 30
0.0
 11
-207.7765352422
 21
721.425403826
 31
0.0
  0
LINE
  5
231
330
1F
100
AcDbEntity
  8
0
  6
Continuous
 62
     7
370
    25
100
AcDbLine
 10
-216.5533728678
 20
744.8341013825
 30
0.0
 11
-226.3850258416
 21
741.1478295797
 31
0.0
  0
LINE
  5
232
330
1F
100
AcDbEntity
  8
0
  6
Continuous
 62
     7
370
    25
100
AcDbLine
 10
-226.3850258416
 20
741.1478295797
 30
0.0
 11
-227.5084610576
 21
744.144142867
 31
0.0
  0
LINE
  5
233
330
1F
100
AcDbEntity
  8
0
  6
Continuous
 62
     7
370
    25
100
AcDbLine
 10
-227.5084610576
 20
744.144142867
 30
0.0
 11
-217.6768080839
 21
747.8304146697
 31
0.0
  0
LINE
  5
234
330
1F
100
AcDbEntity
  8
0
  6
Continuous
 62
     7
370
    25
100
AcDbLine
 10
-217.6768080839
 20
747.8304146697
 30
0.0
 11
-216.5533728678
 21
744.8341013825
 31
0.0
  0
LINE
  5
235
330
1F
100
AcDbEntity
  8
0
  6
Continuous
 62
     7
370
    25
100
AcDbLine
 10
-225.3302104934
 20
768.242798939
 30
0.0
 11
-235.1618634672
 21
764.5565271363
 31
0.0
  0
LINE
  5
236
330
1F
100
AcDbEntity
  8
0
  6
Continuous
 62
     7
370
    25
100
AcDbLine
 10
-235.1618634672
 20
764.5565271363
 30
0.0
 11
-236.2852986833
 21
767.5528404235
 31
0.0
  0
LINE
  5
237
330
1F
100
AcDbEntity
  8
0
  6
Continuous
 62
     7
370
    25
100
AcDbLine
 10
-236.2852986833
 20
767.5528404235
 30
0.0
 11
-226.4536457095
 21
771.2391122263
 31
0.0
  0
LINE
  5
238
330
1F
100
AcDbEntity
  8
0
  6
Continuous
 62
     7
370
    25
100
AcDbLine
 10
-226.4536457095
 20
771.2391122263
 30
0.0
 11
-225.3302104934
 21
768.242798939
 31
0.0
  0
LINE
  5
239
330
1F
100
AcDbEntity
  8
0
  6
Continuous
 62
     7
370
    25
100
AcDbLine
 10
-234.1070481191
 20
791.6514964956
 30
0.0
 11
-243.9387010928
 21
787.9652246928
 31
0.0
  0
LINE
  5
23A
330
1F
100
AcDbEntity
  8
0
  6
Continuous
 62
     7
370
    25
100
AcDbLine
 10
-243.9387010928
 20
787.9652246928
 30
0.0
 11
-245.0621363089
 21
790.9615379801
 31
0.0
  0
LINE
  5
23B
330
1F
100
AcDbEntity
  8
0
  6
Continuous
 62
     7
370
    25
100
AcDbLine
 10
-245.0621363089
 20
790.9615379801
 30
0.0
 11
-235.2304833351
 21
794.6478097828
 31
0.0
  0
LINE
  5
23C
330
1F
100
AcDbEntity
  8
0
  6
Continuous
 62
     7
370
    25
100
AcDbLine
 10
-235.2304833351
 20
794.6478097828
 30
0.0
 11
-234.1070481191
 21
791.6514964956
 31
0.0
  0
LINE
  5
23D
330
1F
100
AcDbEntity
  8
0
  6
Continuous
 62
     7
370
    25
100
AcDbLine
 10
-242.8838857447
 20
815.0601940521
 30
0.0
 11
-252.7155387184
 21
811.3739222494
 31
0.0
  0
LINE
  5
23E
330
1F
100
AcDbEntity
  8
0
  6
Continuous
 62
     7
370
    25
100
AcDbLine
 10
-252.7155387184
 20
811.3739222494
 30
0.0
 11
-253.8389739345
 21
814.3702355366
 31
0.0
  0
LINE
  5
23F
330
1F
100
AcDbEntity
  8
0
  6
Continuous
 62
     7
370
    25
100
AcDbLine
 10
-253.8389739345
 20
814.3702355366
 30
0.0
 11
-244.0073209608
 21
818.0565073394
 31
0.0
  0
LINE
  5
240
330
1F
100
AcDbEntity
  8
0
  6
Continuous
 62
     7
370
    25
100
AcDbLine
 10
-244.0073209608
 20
818.0565073394
 30
0.0
 11
-242.8838857447
 21
815.0601940521
 31
0.0
  0
LINE
  5
241
330
1F
100
AcDbEntity
  8
0
  6
Continuous
 62
     7
370
    25
100
AcDbLine
 10
-251.6607233703
 20
838.4688916087
 30
0.0
 11
-261.4923763441
 21
834.7826198059
 31
0.0
  0
LINE
  5
242
330
1F
100
AcDbEntity
  8
0
  6
Continuous
 62
     7
370
    25
100
AcDbLine
 10
-261.4923763441
 20
834.7826198059
 30
0.0
 11
-262.6158115601
 21
837.7789330931
 31
0.0
  0
LINE
  5
243
330
1F
100
AcDbEntity
  8
0
  6
Continuous
 62
     7
370
    25
100
AcDbLine
 10
-262.6158115601
 20
837.7789330931
 30
0.0
 11
-252.7841585864
 21
841.4652048959
 31
0.0
  0
LINE
  5
244
330
1F
100
AcDbEntity
  8
0
  6
Continuous
 62
     7
370
    25
100
AcDbLine
 10
-252.7841585864
 20
841.4652048959
 30
0.0
 11
-251.6607233703
 21
838.4688916087
 31
0.0
  0
LINE
  5
245
330
1F
100
AcDbEntity
  8
0
  6
Continuous
 62
     7
370
    25
100
AcDbLine
 10
-260.437560996
 20
861.8775891652
 30
0.0
 11
-270.2692139697
 21
858.1913173624
 31
0.0
  0
LINE
  5
246
330
1F
100
AcDbEntity
  8
0
  6
Continuous
 62
     7
370
    25
100
AcDbLine
 10
-270.2692139697
 20
858.1913173624
 30
0.0
 11
-271.3926491858
 21
861.1876306497
 31
0.0
  0
LINE
  5
247
330
1F
100
AcDbEntity
  8
0
  6
Continuous
 62
     7
370
    25
100
AcDbLine
 10
-271.3926491858
 20
861.1876306497
 30
0.0
 11
-261.560996212
 21
864.8739024524
 31
0.0
  0
LINE
  5
248
330
1F
100
AcDbEntity
  8
0
  6
Continuous
 62
     7
370
    25
100
AcDbLine
 10
-261.560996212
 20
864.8739024524
 30
0.0
 11
-260.437560996
 21
861.8775891652
 31
0.0
  0
LINE
  5
249
330
1F
100
AcDbEntity
  8
0
  6
Continuous
 62
     7
370
    25
100
AcDbLine
 10
27.4381564589
 20
8.6322719792
 30
0.0
 11
17.6065034851
 21
4.9460001764
 31
0.0
  0
LINE
  5
24A
330
1F
100
AcDbEntity
  8
0
  6
Continuous
 62
     7
370
    25
100
AcDbLine
 10
17.6065034851
 20
4.9460001764
 30
0.0
 11
16.483068269
 21
7.9423134636
 31
0.0
  0
LINE
  5
24B
330
1F
100
AcDbEntity
  8
0
  6
Continuous
 62
     7
370
    25
100
AcDbLine
 10
16.483068269
 20
7.9423134636
 30
0.0
 11
26.3147212428
 21
11.6285852664
 31
0.0
  0
LINE
  5
24C
330
1F
100
AcDbEntity
  8
0
  6
Continuous
 62
     7
370
    25
100
AcDbLine
 10
26.3147212428
 20
11.6285852664
 30
0.0
 11
27.4381564589
 21
8.6322719792
 31
0.0
  0
LINE
  5
24D
330
1F
100
AcDbEntity
  8
0
  6
Continuous
 62
     7
370
    25
100
AcDbLine
 10
18.6613188332
 20
32.0409695357
 30
0.0
 11
8.8296658595
 21
28.3546977329
 31
0.0
  0
LINE
  5
24E
330
1F
100
AcDbEntity
  8
0
  6
Continuous
 62
     7
370
    25
100
AcDbLine
 10
8.8296658595
 20
28.3546977329
 30
0.0
 11
7.7062306434
 21
31.3510110202
 31
0.0
  0
LINE
  5
24F
330
1F
100
AcDbEntity
  8
0
  6
Continuous
 62
     7
370
    25
100
AcDbLine
 10
7.7062306434
 20
31.3510110202
 30
0.0
 11
17.5378836171
 21
35.0372828229
 31
0.0
  0
LINE
  5
250
330
1F
100
AcDbEntity
  8
0
  6
Continuous
 62
     7
370
    25
100
AcDbLine
 10
17.5378836171
 20
35.0372828229
 30
0.0
 11
18.6613188332
 21
32.0409695357
 31
0.0
  0
LINE
  5
251
330
1F
100
AcDbEntity
  8
0
  6
Continuous
 62
     7
370
    25
100
AcDbLine
 10
9.8844812076
 20
55.4496670922
 30
0.0
 11
0.0528282338
 21
51.7633952895
 31
0.0
  0
LINE
  5
252
330
1F
100
AcDbEntity
  8
0
  6
Continuous
 62
     7
370
    25
100
AcDbLine
 10
0.0528282338
 20
51.7633952895
 30
0.0
 11
-1.0706069822
 21
54.7597085767
 31
0.0
  0
LINE
  5
253
330
1F
100
AcDbEntity
  8
0
  6
Continuous
 62
     7
370
    25
100
AcDbLine
 10
-1.0706069822
 20
54.7597085767
 30
0.0
 11
8.7610459915
 21
58.4459803795
 31
0.0
  0
LINE
  5
254
330
1F
100
AcDbEntity
  8
0
  6
Continuous
 62
     7
370
    25
100
AcDbLine
 10
8.7610459915
 20
58.4459803795
 30
0.0
 11
9.8844812076
 21
55.4496670922
 31
0.0
  0
LINE
  5
255
330
1F
100
AcDbEntity
  8
0
  6
Continuous
 62
     7
370
    25
100
AcDbLine
 10
1.107643582
 20
78.8583646488
 30
0.0
 11
-8.7240093918
 21
75.172092846
 31
0.0
  0
LINE
  5
256
330
1F
100
AcDbEntity
  8
0
  6
Continuous
 62
     7
370
    25
100
AcDbLine
 10
-8.7240093918
 20
75.172092846
 30
0.0
 11
-9.8474446079
 21
78.1684061332
 31
0.0
  0
LINE
  5
257
330
1F
100
AcDbEntity
  8
0
  6
Continuous
 62
     7
370
    25
100
AcDbLine
 10
-9.8474446079
 20
78.1684061332
 30
0.0
 11
-0.0157916341
 21
81.854677936
 31
0.0
  0
LINE
  5
258
330
1F
100
AcDbEntity
  8
0
  6
Continuous
 62
     7
370
    25
100
AcDbLine
 10
-0.0157916341
 20
81.854677936
 30
0.0
 11
1.107643582
 21
78.8583646488
 31
0.0
  0
LINE
  5
259
330
1F
100
AcDbEntity
  8
0
  6
Continuous
 62
     7
370
    25
100
AcDbLine
 10
-7.6691940437
 20
102.2670622053
 30
0.0
 11
-17.5008470174
 21
98.5807904025
 31
0.0
  0
LINE
  5
25A
330
1F
100
AcDbEntity
  8
0
  6
Continuous
 62
     7
370
    25
100
AcDbLine
 10
-17.5008470174
 20
98.5807904025
 30
0.0
 11
-18.6242822335
 21
101.5771036898
 31
0.0
  0
LINE
  5
25B
330
1F
100
AcDbEntity
  8
0
  6
Continuous
 62
     7
370
    25
100
AcDbLine
 10
-18.6242822335
 20
101.5771036898
 30
0.0
 11
-8.7926292597
 21
105.2633754925
 31
0.0
  0
LINE
  5
25C
330
1F
100
AcDbEntity
  8
0
  6
Continuous
 62
     7
370
    25
100
AcDbLine
 10
-8.7926292597
 20
105.2633754925
 30
0.0
 11
-7.6691940437
 21
102.2670622053
 31
0.0
  0
LINE
  5
25D
330
1F
100
AcDbEntity
  8
0
  6
Continuous
 62
     7
370
    25
100
AcDbLine
 10
-16.4460316693
 20
125.6757597618
 30
0.0
 11
-26.277684643
 21
121.9894879591
 31
0.0
  0
LINE
  5
25E
330
1F
100
AcDbEntity
  8
0
  6
Continuous
 62
     7
370
    25
100
AcDbLine
 10
-26.277684643
 20
121.9894879591
 30
0.0
 11
-27.4011198591
 21
124.9858012463
 31
0.0
  0
LINE
  5
25F
330
1F
100
AcDbEntity
  8
0
  6
Continuous
 62
     7
370
    25
100
AcDbLine
 10
-27.4011198591
 20
124.9858012463
 30
0.0
 11
-17.5694668854
 21
128.6720730491
 31
0.0
  0
LINE
  5
260
330
1F
100
AcDbEntity
  8
0
  6
Continuous
 62
     7
370
    25
100
AcDbLine
 10
-17.5694668854
 20
128.6720730491
 30
0.0
 11
-16.4460316693
 21
125.6757597618
 31
0.0
  0
LINE
  5
261
330
1F
100
AcDbEntity
  8
0
  6
Continuous
 62
     7
370
    25
100
AcDbLine
 10
-25.2228692949
 20
149.0844573184
 30
0.0
 11
-35.0545222687
 21
145.3981855156
 31
0.0
  0
LINE
  5
262
330
1F
100
AcDbEntity
  8
0
  6
Continuous
 62
     7
370
    25
100
AcDbLine
 10
-35.0545222687
 20
145.3981855156
 30
0.0
 11
-36.1779574847
 21
148.3944988028
 31
0.0
  0
LINE
  5
263
330
1F
100
AcDbEntity
  8
0
  6
Continuous
 62
     7
370
    25
100
AcDbLine
 10
-36.1779574847
 20
148.3944988028
 30
0.0
 11
-26.346304511
 21
152.0807706056
 31
0.0
  0
LINE
  5
264
330
1F
100
AcDbEntity
  8
0
  6
Continuous
 62
     7
370
    25
100
AcDbLine
 10
-26.346304511
 20
152.0807706056
 30
0.0
 11
-25.2228692949
 21
149.0844573184
 31
0.0
  0
LINE
  5
265
330
1F
100
AcDbEntity
  8
0
  6
Continuous
 62
     7
370
    25
100
AcDbLine
 10
-33.9997069206
 20
172.4931548749
 30
0.0
 11
-43.8313598943
 21
168.8068830721
 31
0.0
  0
LINE
  5
266
330
1F
100
AcDbEntity
  8
0
  6
Continuous
 62
     7
370
    25
100
AcDbLine
 10
-43.8313598943
 20
168.8068830721
 30
0.0
 11
-44.9547951104
 21
171.8031963594
 31
0.0
  0
LINE
  5
267
330
1F
100
AcDbEntity
  8
0
  6
Continuous
 62
     7
370
    25
100
AcDbLine
 10
-44.9547951104
 20
171.8031963594
 30
0.0
 11
-35.1231421366
 21
175.4894681621
 31
0.0
  0
LINE
  5
268
330
1F
100
AcDbEntity
  8
0
  6
Continuous
 62
     7
370
    25
100
AcDbLine
 10
-35.1231421366
 20
175.4894681621
 30
0.0
 11
-33.9997069206
 21
172.4931548749
 31
0.0
  0
LINE
  5
269
330
1F
100
AcDbEntity
  8
0
  6
Continuous
 62
     7
370
    25
100
AcDbLine
 10
-42.7765445462
 20
195.9018524314
 30
0.0
 11
-52.6081975199
 21
192.2155806287
 31
0.0
  0
LINE
  5
26A
330
1F
100
AcDbEntity
  8
0
  6
Continuous
 62
     7
370
    25
100
AcDbLine
 10
-52.6081975199
 20
192.2155806287
 30
0.0
 11
-53.731632736
 21
195.2118939159
 31
0.0
  0
LINE
  5
26B
330
1F
100
AcDbEntity
  8
0
  6
Continuous
 62
     7
370
    25
100
AcDbLine
 10
-53.731632736
 20
195.2118939159
 30
0.0
 11
-43.8999797623
 21
198.8981657187
 31
0.0
  0
LINE
  5
26C
330
1F
100
AcDbEntity
  8
0
  6
Continuous
 62
     7
370
    25
100
AcDbLine
 10
-43.8999797623
 20
198.8981657187
 30
0.0
 11
-42.7765445462
 21
195.9018524314
 31
0.0
  0
LINE
  5
26D
330
1F
100
AcDbEntity
  8
0
  6
Continuous
 62
     7
370
    25
100
AcDbLine
 10
-51.5533821718
 20
219.310549988
 30
0.0
 11
-61.3850351456
 21
215.6242781852
 31
0.0
  0
LINE
  5
26E
330
1F
100
AcDbEntity
  8
0
  6
Continuous
 62
     7
370
    25
100
AcDbLine
 10
-61.3850351456
 20
215.6242781852
 30
0.0
 11
-62.5084703616
 21
218.6205914725
 31
0.0
  0
LINE
  5
26F
330
1F
100
AcDbEntity
  8
0
  6
Continuous
 62
     7
370
    25
100
AcDbLine
 10
-62.5084703616
 20
218.6205914725
 30
0.0
 11
-52.6768173879
 21
222.3068632752
 31
0.0
  0
LINE
  5
270
330
1F
100
AcDbEntity
  8
0
  6
Continuous
 62
     7
370
    25
100
AcDbLine
 10
-52.6768173879
 20
222.3068632752
 30
0.0
 11
-51.5533821718
 21
219.310549988
 31
0.0
  0
LINE
  5
271
330
1F
100
AcDbEntity
  8
0
  6
Continuous
 62
     7
370
    25
100
AcDbLine
 10
-60.3302197974
 20
242.7192475445
 30
0.0
 11
-70.1618727712
 21
239.0329757418
 31
0.0
  0
LINE
  5
272
330
1F
100
AcDbEntity
  8
0
  6
Continuous
 62
     7
370
    25
100
AcDbLine
 10
-70.1618727712
 20
239.0329757418
 30
0.0
 11
-71.2853079873
 21
242.029289029
 31
0.0
  0
LINE
  5
273
330
1F
100
AcDbEntity
  8
0
  6
Continuous
 62
     7
370
    25
100
AcDbLine
 10
-71.2853079873
 20
242.029289029
 30
0.0
 11
-61.4536550135
 21
245.7155608318
 31
0.0
  0
LINE
  5
274
330
1F
100
AcDbEntity
  8
0
  6
Continuous
 62
     7
370
    25
100
AcDbLine
 10
-61.4536550135
 20
245.7155608318
 30
0.0
 11
-60.3302197974
 21
242.7192475445
 31
0.0
  0
LINE
  5
275
330
1F
100
AcDbEntity
  8
0
  6
Continuous
 62
     7
370
    25
100
AcDbLine
 10
-69.1070574231
 20
266.1279451011
 30
0.0
 11
-78.9387103968
 21
262.4416732983
 31
0.0
  0
LINE
  5
276
330
1F
100
AcDbEntity
  8
0
  6
Continuous
 62
     7
370
    25
100
AcDbLine
 10
-78.9387103968
 20
262.4416732983
 30
0.0
 11
-80.0621456129
 21
265.4379865855
 31
0.0
  0
LINE
  5
277
330
1F
100
AcDbEntity
  8
0
  6
Continuous
 62
     7
370
    25
100
AcDbLine
 10
-80.0621456129
 20
265.4379865855
 30
0.0
 11
-70.2304926391
 21
269.1242583883
 31
0.0
  0
LINE
  5
278
330
1F
100
AcDbEntity
  8
0
  6
Continuous
 62
     7
370
    25
100
AcDbLine
 10
-70.2304926391
 20
269.1242583883
 30
0.0
 11
-69.1070574231
 21
266.1279451011
 31
0.0
  0
LINE
  5
279
330
1F
100
AcDbEntity
  8
0
  6
Continuous
 62
     7
370
    25
100
AcDbLine
 10
-77.8838950487
 20
289.5366426576
 30
0.0
 11
-87.7155480224
 21
285.8503708548
 31
0.0
  0
LINE
  5
27A
330
1F
100
AcDbEntity
  8
0
  6
Continuous
 62
     7
370
    25
100
AcDbLine
 10
-87.7155480224
 20
285.8503708548
 30
0.0
 11
-88.8389832385
 21
288.8466841421
 31
0.0
  0
LINE
  5
27B
330
1F
100
AcDbEntity
  8
0
  6
Continuous
 62
     7
370
    25
100
AcDbLine
 10
-88.8389832385
 20
288.8466841421
 30
0.0
 11
-79.0073302648
 21
292.5329559448
 31
0.0
  0
LINE
  5
27C
330
1F
100
AcDbEntity
  8
0
  6
Continuous
 62
     7
370
    25
100
AcDbLine
 10
-79.0073302648
 20
292.5329559448
 30
0.0
 11
-77.8838950487
 21
289.5366426576
 31
0.0
  0
LINE
  5
27D
330
1F
100
AcDbEntity
  8
0
  6
Continuous
 62
     7
370
    25
100
AcDbLine
 10
-86.6607326743
 20
312.9453402141
 30
0.0
 11
-96.4923856481
 21
309.2590684114
 31
0.0
  0
LINE
  5
27E
330
1F
100
AcDbEntity
  8
0
  6
Continuous
 62
     7
370
    25
100
AcDbLine
 10
-96.4923856481
 20
309.2590684114
 30
0.0
 11
-97.6158208642
 21
312.2553816986
 31
0.0
  0
LINE
  5
27F
330
1F
100
AcDbEntity
  8
0
  6
Continuous
 62
     7
370
    25
100
AcDbLine
 10
-97.6158208642
 20
312.2553816986
 30
0.0
 11
-87.7841678904
 21
315.9416535014
 31
0.0
  0
LINE
  5
280
330
1F
100
AcDbEntity
  8
0
  6
Continuous
 62
     7
370
    25
100
AcDbLine
 10
-87.7841678904
 20
315.9416535014
 30
0.0
 11
-86.6607326743
 21
312.9453402141
 31
0.0
  0
LINE
  5
281
330
1F
100
AcDbEntity
  8
0
  6
Continuous
 62
     7
370
    25
100
AcDbLine
 10
-95.4375703
 20
336.3540377707
 30
0.0
 11
-105.2692232737
 21
332.6677659679
 31
0.0
  0
LINE
  5
282
330
1F
100
AcDbEntity
  8
0
  6
Continuous
 62
     7
370
    25
100
AcDbLine
 10
-105.2692232737
 20
332.6677659679
 30
0.0
 11
-106.3926584898
 21
335.6640792551
 31
0.0
  0
LINE
  5
283
330
1F
100
AcDbEntity
  8
0
  6
Continuous
 62
     7
370
    25
100
AcDbLine
 10
-106.3926584898
 20
335.6640792551
 30
0.0
 11
-96.561005516
 21
339.3503510579
 31
0.0
  0
LINE
  5
284
330
1F
100
AcDbEntity
  8
0
  6
Continuous
 62
     7
370
    25
100
AcDbLine
 10
-96.561005516
 20
339.3503510579
 30
0.0
 11
-95.4375703
 21
336.3540377707
 31
0.0
  0
LINE
  5
285
330
1F
100
AcDbEntity
  8
0
  6
Continuous
 62
     7
370
    25
100
AcDbLine
 10
-104.2144079256
 20
359.7627353272
 30
0.0
 11
-114.0460608993
 21
356.0764635244
 31
0.0
  0
LINE
  5
286
330
1F
100
AcDbEntity
  8
0
  6
Continuous
 62
     7
370
    25
100
AcDbLine
 10
-114.0460608993
 20
356.0764635244
 30
0.0
 11
-115.1694961154
 21
359.0727768117
 31
0.0
  0
LINE
  5
287
330
1F
100
AcDbEntity
  8
0
  6
Continuous
 62
     7
370
    25
100
AcDbLine
 10
-115.1694961154
 20
359.0727768117
 30
0.0
 11
-105.3378431417
 21
362.7590486144
 31
0.0
  0
LINE
  5
288
330
1F
100
AcDbEntity
  8
0
  6
Continuous
 62
     7
370
    25
100
AcDbLine
 10
-105.3378431417
 20
362.7590486144
 30
0.0
 11
-104.2144079256
 21
359.7627353272
 31
0.0
  0
LINE
  5
289
330
1F
100
AcDbEntity
  8
0
  6
Continuous
 62
     7
370
    25
100
AcDbLine
 10
-112.9912455512
 20
383.1714328837
 30
0.0
 11
-122.822898525
 21
379.485161081
 31
0.0
  0
LINE
  5
28A
330
1F
100
AcDbEntity
  8
0
  6
Continuous
 62
     7
370
    25
100
AcDbLine
 10
-122.822898525
 20
379.485161081
 30
0.0
 11
-123.946333741
 21
382.4814743682
 31
0.0
  0
LINE
  5
28B
330
1F
100
AcDbEntity
  8
0
  6
Continuous
 62
     7
370
    25
100
AcDbLine
 10
-123.946333741
 20
382.4814743682
 30
0.0
 11
-114.1146807673
 21
386.167746171
 31
0.0
  0
LINE
  5
28C
330
1F
100
AcDbEntity
  8
0
  6
Continuous
 62
     7
370
    25
100
AcDbLine
 10
-114.1146807673
 20
386.167746171
 30
0.0
 11
-112.9912455512
 21
383.1714328837
 31
0.0
  0
LINE
  5
28D
330
1F
100
AcDbEntity
  8
0
  6
Continuous
 62
     7
370
    25
100
AcDbLine
 10
-121.7680831768
 20
406.5801304403
 30
0.0
 11
-131.5997361506
 21
402.8938586375
 31
0.0
  0
LINE
  5
28E
330
1F
100
AcDbEntity
  8
0
  6
Continuous
 62
     7
370
    25
100
AcDbLine
 10
-131.5997361506
 20
402.8938586375
 30
0.0
 11
-132.7231713667
 21
405.8901719247
 31
0.0
  0
LINE
  5
28F
330
1F
100
AcDbEntity
  8
0
  6
Continuous
 62
     7
370
    25
100
AcDbLine
 10
-132.7231713667
 20
405.8901719247
 30
0.0
 11
-122.8915183929
 21
409.5764437275
 31
0.0
  0
LINE
  5
290
330
1F
100
AcDbEntity
  8
0
  6
Continuous
 62
     7
370
    25
100
AcDbLine
 10
-122.8915183929
 20
409.5764437275
 30
0.0
 11
-121.7680831768
 21
406.5801304403
 31
0.0
  0
LINE
  5
291
330
1F
100
AcDbEntity
  8
0
  6
Continuous
 62
     7
370
    25
100
AcDbLine
 10
-130.5449208025
 20
429.9888279968
 30
0.0
 11
-140.3765737762
 21
426.302556194
 31
0.0
  0
LINE
  5
292
330
1F
100
AcDbEntity
  8
0
  6
Continuous
 62
     7
370
    25
100
AcDbLine
 10
-140.3765737762
 20
426.302556194
 30
0.0
 11
-141.5000089923
 21
429.2988694813
 31
0.0
  0
LINE
  5
293
330
1F
100
AcDbEntity
  8
0
  6
Continuous
 62
     7
370
    25
100
AcDbLine
 10
-141.5000089923
 20
429.2988694813
 30
0.0
 11
-131.6683560186
 21
432.985141284
 31
0.0
  0
LINE
  5
294
330
1F
100
AcDbEntity
  8
0
  6
Continuous
 62
     7
370
    25
100
AcDbLine
 10
-131.6683560186
 20
432.985141284
 30
0.0
 11
-130.5449208025
 21
429.9888279968
 31
0.0
  0
LINE
  5
295
330
1F
100
AcDbEntity
  8
0
  6
Continuous
 62
     7
370
    25
100
AcDbLine
 10
-139.3217584281
 20
453.3975255533
 30
0.0
 11
-149.1534114018
 21
449.7112537506
 31
0.0
  0
LINE
  5
296
330
1F
100
AcDbEntity
  8
0
  6
Continuous
 62
     7
370
    25
100
AcDbLine
 10
-149.1534114018
 20
449.7112537506
 30
0.0
 11
-150.2768466179
 21
452.7075670378
 31
0.0
  0
LINE
  5
297
330
1F
100
AcDbEntity
  8
0
  6
Continuous
 62
     7
370
    25
100
AcDbLine
 10
-150.2768466179
 20
452.7075670378
 30
0.0
 11
-140.4451936442
 21
456.3938388406
 31
0.0
  0
LINE
  5
298
330
1F
100
AcDbEntity
  8
0
  6
Continuous
 62
     7
370
    25
100
AcDbLine
 10
-140.4451936442
 20
456.3938388406
 30
0.0
 11
-139.3217584281
 21
453.3975255533
 31
0.0
  0
LINE
  5
299
330
1F
100
AcDbEntity
  8
0
  6
Continuous
 62
     7
370
    25
100
AcDbLine
 10
-148.0985960537
 20
476.8062231099
 30
0.0
 11
-157.9302490275
 21
473.1199513071
 31
0.0
  0
LINE
  5
29A
330
1F
100
AcDbEntity
  8
0
  6
Continuous
 62
     7
370
    25
100
AcDbLine
 10
-157.9302490275
 20
473.1199513071
 30
0.0
 11
-159.0536842436
 21
476.1162645943
 31
0.0
  0
LINE
  5
29B
330
1F
100
AcDbEntity
  8
0
  6
Continuous
 62
     7
370
    25
100
AcDbLine
 10
-159.0536842436
 20
476.1162645943
 30
0.0
 11
-149.2220312698
 21
479.8025363971
 31
0.0
  0
LINE
  5
29C
330
1F
100
AcDbEntity
  8
0
  6
Continuous
 62
     7
370
    25
100
AcDbLine
 10
-149.2220312698
 20
479.8025363971
 30
0.0
 11
-148.0985960537
 21
476.8062231099
 31
0.0
  0
LINE
  5
29D
330
1F
100
AcDbEntity
  8
0
  6
Continuous
 62
     7
370
    25
100
AcDbLine
 10
-156.8754336794
 20
500.2149206664
 30
0.0
 11
-166.7070866531
 21
496.5286488636
 31
0.0
  0
LINE
  5
29E
330
1F
100
AcDbEntity
  8
0
  6
Continuous
 62
     7
370
    25
100
AcDbLine
 10
-166.7070866531
 20
496.5286488636
 30
0.0
 11
-167.8305218692
 21
499.5249621509
 31
0.0
  0
LINE
  5
29F
330
1F
100
AcDbEntity
  8
0
  6
Continuous
 62
     7
370
    25
100
AcDbLine
 10
-167.8305218692
 20
499.5249621509
 30
0.0
 11
-157.9988688954
 21
503.2112339536
 31
0.0
  0
LINE
  5
2A0
330
1F
100
AcDbEntity
  8
0
  6
Continuous
 62
     7
370
    25
100
AcDbLine
 10
-157.9988688954
 20
503.2112339536
 30
0.0
 11
-156.8754336794
 21
500.2149206664
 31
0.0
  0
LINE
  5
2A1
330
1F
100
AcDbEntity
  8
0
  6
Continuous
 62
     7
370
    25
100
AcDbLine
 10
-165.652271305
 20
523.6236182229
 30
0.0
 11
-175.4839242787
 21
519.9373464202
 31
0.0
  0
LINE
  5
2A2
330
1F
100
AcDbEntity
  8
0
  6
Continuous
 62
     7
370
    25
100
AcDbLine
 10
-175.4839242787
 20
519.9373464202
 30
0.0
 11
-176.6073594948
 21
522.9336597074
 31
0.0
  0
LINE
  5
2A3
330
1F
100
AcDbEntity
  8
0
  6
Continuous
 62
     7
370
    25
100
AcDbLine
 10
-176.6073594948
 20
522.9336597074
 30
0.0
 11
-166.7757065211
 21
526.6199315102
 31
0.0
  0
LINE
  5
2A4
330
1F
100
AcDbEntity
  8
0
  6
Continuous
 62
     7
370
    25
100
AcDbLine
 10
-166.7757065211
 20
526.6199315102
 30
0.0
 11
-165.652271305
 21
523.6236182229
 31
0.0
  0
LINE
  5
2A5
330
1F
100
AcDbEntity
  8
0
  6
Continuous
 62
     7
370
    25
100
AcDbLine
 10
-174.4291089306
 20
547.0323157795
 30
0.0
 11
-184.2607619044
 21
543.3460439767
 31
0.0
  0
LINE
  5
2A6
330
1F
100
AcDbEntity
  8
0
  6
Continuous
 62
     7
370
    25
100
AcDbLine
 10
-184.2607619044
 20
543.3460439767
 30
0.0
 11
-185.3841971204
 21
546.3423572639
 31
0.0
  0
LINE
  5
2A7
330
1F
100
AcDbEntity
  8
0
  6
Continuous
 62
     7
370
    25
100
AcDbLine
 10
-185.3841971204
 20
546.3423572639
 30
0.0
 11
-175.5525441467
 21
550.0286290667
 31
0.0
  0
LINE
  5
2A8
330
1F
100
AcDbEntity
  8
0
  6
Continuous
 62
     7
370
    25
100
AcDbLine
 10
-175.5525441467
 20
550.0286290667
 30
0.0
 11
-174.4291089306
 21
547.0323157795
 31
0.0
  0
LINE
  5
2A9
330
1F
100
AcDbEntity
  8
0
  6
Continuous
 62
     7
370
    25
100
AcDbLine
 10
-183.2059465562
 20
570.441013336
 30
0.0
 11
-193.03759953
 21
566.7547415332
 31
0.0
  0
LINE
  5
2AA
330
1F
100
AcDbEntity
  8
0
  6
Continuous
 62
     7
370
    25
100
AcDbLine
 10
-193.03759953
 20
566.7547415332
 30
0.0
 11
-194.1610347461
 21
569.7510548205
 31
0.0
  0
LINE
  5
2AB
330
1F
100
AcDbEntity
  8
0
  6
Continuous
 62
     7
370
    25
100
AcDbLine
 10
-194.1610347461
 20
569.7510548205
 30
0.0
 11
-184.3293817723
 21
573.4373266232
 31
0.0
  0
LINE
  5
2AC
330
1F
100
AcDbEntity
  8
0
  6
Continuous
 62
     7
370
    25
100
AcDbLine
 10
-184.3293817723
 20
573.4373266232
 30
0.0
 11
-183.2059465562
 21
570.441013336
 31
0.0
  0
LINE
  5
2AD
330
1F
100
AcDbEntity
  8
0
  6
Continuous
 62
     7
370
    25
100
AcDbLine
 10
-191.9827841819
 20
593.8497108925
 30
0.0
 11
-201.8144371556
 21
590.1634390898
 31
0.0
  0
LINE
  5
2AE
330
1F
100
AcDbEntity
  8
0
  6
Continuous
 62
     7
370
    25
100
AcDbLine
 10
-201.8144371556
 20
590.1634390898
 30
0.0
 11
-202.9378723717
 21
593.159752377
 31
0.0
  0
LINE
  5
2AF
330
1F
100
AcDbEntity
  8
0
  6
Continuous
 62
     7
370
    25
100
AcDbLine
 10
-202.9378723717
 20
593.159752377
 30
0.0
 11
-193.106219398
 21
596.8460241798
 31
0.0
  0
LINE
  5
2B0
330
1F
100
AcDbEntity
  8
0
  6
Continuous
 62
     7
370
    25
100
AcDbLine
 10
-193.106219398
 20
596.8460241798
 30
0.0
 11
-191.9827841819
 21
593.8497108925
 31
0.0
  0
LINE
  5
2B1
330
1F
100
AcDbEntity
  8
0
  6
Continuous
 62
     7
370
    25
100
AcDbLine
 10
-200.7596218075
 20
617.2584084491
 30
0.0
 11
-210.5912747812
 21
613.5721366463
 31
0.0
  0
LINE
  5
2B2
330
1F
100
AcDbEntity
  8
0
  6
Continuous
 62
     7
370
    25
100
AcDbLine
 10
-210.5912747812
 20
613.5721366463
 30
0.0
 11
-211.7147099973
 21
616.5684499336
 31
0.0
  0
LINE
  5
2B3
330
1F
100
AcDbEntity
  8
0
  6
Continuous
 62
     7
370
    25
100
AcDbLine
 10
-211.7147099973
 20
616.5684499336
 30
0.0
 11
-201.8830570236
 21
620.2547217363
 31
0.0
  0
LINE
  5
2B4
330
1F
100
AcDbEntity
  8
0
  6
Continuous
 62
     7
370
    25
100
AcDbLine
 10
-201.8830570236
 20
620.2547217363
 30
0.0
 11
-200.7596218075
 21
617.2584084491
 31
0.0
  0
LINE
  5
2B5
330
1F
100
AcDbEntity
  8
0
  6
Continuous
 62
     7
370
    25
100
AcDbLine
 10
-209.5364594331
 20
640.6671060056
 30
0.0
 11
-219.3681124069
 21
636.9808342029
 31
0.0
  0
LINE
  5
2B6
330
1F
100
AcDbEntity
  8
0
  6
Continuous
 62
     7
370
    25
100
AcDbLine
 10
-219.3681124069
 20
636.9808342029
 30
0.0
 11
-220.491547623
 21
639.9771474901
 31
0.0
  0
LINE
  5
2B7
330
1F
100
AcDbEntity
  8
0
  6
Continuous
 62
     7
370
    25
100
AcDbLine
 10
-220.491547623
 20
639.9771474901
 30
0.0
 11
-210.6598946492
 21
643.6634192929
 31
0.0
  0
LINE
  5
2B8
330
1F
100
AcDbEntity
  8
0
  6
Continuous
 62
     7
370
    25
100
AcDbLine
 10
-210.6598946492
 20
643.6634192929
 30
0.0
 11
-209.5364594331
 21
640.6671060056
 31
0.0
  0
LINE
  5
2B9
330
1F
100
AcDbEntity
  8
0
  6
Continuous
 62
     7
370
    25
100
AcDbLine
 10
-218.3132970588
 20
664.0758035622
 30
0.0
 11
-228.1449500325
 21
660.3895317594
 31
0.0
  0
LINE
  5
2BA
330
1F
100
AcDbEntity
  8
0
  6
Continuous
 62
     7
370
    25
100
AcDbLine
 10
-228.1449500325
 20
660.3895317594
 30
0.0
 11
-229.2683852486
 21
663.3858450466
 31
0.0
  0
LINE
  5
2BB
330
1F
100
AcDbEntity
  8
0
  6
Continuous
 62
     7
370
    25
100
AcDbLine
 10
-229.2683852486
 20
663.3858450466
 30
0.0
 11
-219.4367322748
 21
667.0721168494
 31
0.0
  0
LINE
  5
2BC
330
1F
100
AcDbEntity
  8
0
  6
Continuous
 62
     7
370
    25
100
AcDbLine
 10
-219.4367322748
 20
667.0721168494
 30
0.0
 11
-218.3132970588
 21
664.0758035622
 31
0.0
  0
LINE
  5
2BD
330
1F
100
AcDbEntity
  8
0
  6
Continuous
 62
     7
370
    25
100
AcDbLine
 10
-227.0901346844
 20
687.4845011187
 30
0.0
 11
-236.9217876581
 21
683.7982293159
 31
0.0
  0
LINE
  5
2BE
330
1F
100
AcDbEntity
  8
0
  6
Continuous
 62
     7
370
    25
100
AcDbLine
 10
-236.9217876581
 20
683.7982293159
 30
0.0
 11
-238.0452228742
 21
686.7945426032
 31
0.0
  0
LINE
  5
2BF
330
1F
100
AcDbEntity
  8
0
  6
Continuous
 62
     7
370
    25
100
AcDbLine
 10
-238.0452228742
 20
686.7945426032
 30
0.0
 11
-228.2135699005
 21
690.4808144059
 31
0.0
  0
LINE
  5
2C0
330
1F
100
AcDbEntity
  8
0
  6
Continuous
 62
     7
370
    25
100
AcDbLine
 10
-228.2135699005
 20
690.4808144059
 30
0.0
 11
-227.0901346844
 21
687.4845011187
 31
0.0
  0
LINE
  5
2C1
330
1F
100
AcDbEntity
  8
0
  6
Continuous
 62
     7
370
    25
100
AcDbLine
 10
-235.86697231
 20
710.8931986752
 30
0.0
 11
-245.6986252838
 21
707.2069268725
 31
0.0
  0
LINE
  5
2C2
330
1F
100
AcDbEntity
  8
0
  6
Continuous
 62
     7
370
    25
100
AcDbLine
 10
-245.6986252838
 20
707.2069268725
 30
0.0
 11
-246.8220604998
 21
710.2032401597
 31
0.0
  0
LINE
  5
2C3
330
1F
100
AcDbEntity
  8
0
  6
Continuous
 62
     7
370
    25
100
AcDbLine
 10
-246.8220604998
 20
710.2032401597
 30
0.0
 11
-236.9904075261
 21
713.8895119625
 31
0.0
  0
LINE
  5
2C4
330
1F
100
AcDbEntity
  8
0
  6
Continuous
 62
     7
370
    25
100
AcDbLine
 10
-236.9904075261
 20
713.8895119625
 30
0.0
 11
-235.86697231
 21
710.8931986752
 31
0.0
  0
LINE
  5
2C5
330
1F
100
AcDbEntity
  8
0
  6
Continuous
 62
     7
370
    25
100
AcDbLine
 10
-244.6438099356
 20
734.3018962318
 30
0.0
 11
-254.4754629094
 21
730.615624429
 31
0.0
  0
LINE
  5
2C6
330
1F
100
AcDbEntity
  8
0
  6
Continuous
 62
     7
370
    25
100
AcDbLine
 10
-254.4754629094
 20
730.615624429
 30
0.0
 11
-255.5988981255
 21
733.6119377162
 31
0.0
  0
LINE
  5
2C7
330
1F
100
AcDbEntity
  8
0
  6
Continuous
 62
     7
370
    25
100
AcDbLine
 10
-255.5988981255
 20
733.6119377162
 30
0.0
 11
-245.7672451517
 21
737.298209519
 31
0.0
  0
LINE
  5
2C8
330
1F
100
AcDbEntity
  8
0
  6
Continuous
 62
     7
370
    25
100
AcDbLine
 10
-245.7672451517
 20
737.298209519
 30
0.0
 11
-244.6438099356
 21
734.3018962318
 31
0.0
  0
LINE
  5
2C9
330
1F
100
AcDbEntity
  8
0
  6
Continuous
 62
     7
370
    25
100
AcDbLine
 10
-253.4206475613
 20
757.7105937883
 30
0.0
 11
-263.252300535
 21
754.0243219855
 31
0.0
  0
LINE
  5
2CA
330
1F
100
AcDbEntity
  8
0
  6
Continuous
 62
     7
370
    25
100
AcDbLine
 10
-263.252300535
 20
754.0243219855
 30
0.0
 11
-264.3757357511
 21
757.0206352728
 31
0.0
  0
LINE
  5
2CB
330
1F
100
AcDbEntity
  8
0
  6
Continuous
 62
     7
370
    25
100
AcDbLine
 10
-264.3757357511
 20
757.0206352728
 30
0.0
 11
-254.5440827774
 21
760.7069070755
 31
0.0
  0
LINE
  5
2CC
330
1F
100
AcDbEntity
  8
0
  6
Continuous
 62
     7
370
    25
100
AcDbLine
 10
-254.5440827774
 20
760.7069070755
 30
0.0
 11
-253.4206475613
 21
757.7105937883
 31
0.0
  0
LINE
  5
2CD
330
1F
100
AcDbEntity
  8
0
  6
Continuous
 62
     7
370
    25
100
AcDbLine
 10
-262.1974851869
 20
781.1192913448
 30
0.0
 11
-272.0291381607
 21
777.4330195421
 31
0.0
  0
LINE
  5
2CE
330
1F
100
AcDbEntity
  8
0
  6
Continuous
 62
     7
370
    25
100
AcDbLine
 10
-272.0291381607
 20
777.4330195421
 30
0.0
 11
-273.1525733767
 21
780.4293328293
 31
0.0
  0
LINE
  5
2CF
330
1F
100
AcDbEntity
  8
0
  6
Continuous
 62
     7
370
    25
100
AcDbLine
 10
-273.1525733767
 20
780.4293328293
 30
0.0
 11
-263.320920403
 21
784.1156046321
 31
0.0
  0
LINE
  5
2D0
330
1F
100
AcDbEntity
  8
0
  6
Continuous
 62
     7
370
    25
100
AcDbLine
 10
-263.320920403
 20
784.1156046321
 30
0.0
 11
-262.1974851869
 21
781.1192913448
 31
0.0
  0
LINE
  5
2D1
330
1F
100
AcDbEntity
  8
0
  6
Continuous
 62
     7
370
    25
100
AcDbLine
 10
-270.9743228125
 20
804.5279889014
 30
0.0
 11
-280.8059757863
 21
800.8417170986
 31
0.0
  0
LINE
  5
2D2
330
1F
100
AcDbEntity
  8
0
  6
Continuous
 62
     7
370
    25
100
AcDbLine
 10
-280.8059757863
 20
800.8417170986
 30
0.0
 11
-281.9294110024
 21
803.8380303858
 31
0.0
  0
LINE
  5
2D3
330
1F
100
AcDbEntity
  8
0
  6
Continuous
 62
     7
370
    25
100
AcDbLine
 10
-281.9294110024
 20
803.8380303858
 30
0.0
 11
-272.0977580286
 21
807.5243021886
 31
0.0
  0
LINE
  5
2D4
330
1F
100
AcDbEntity
  8
0
  6
Continuous
 62
     7
370
    25
100
AcDbLine
 10
-272.0977580286
 20
807.5243021886
 30
0.0
 11
-270.9743228125
 21
804.5279889014
 31
0.0
  0
LINE
  5
2D5
330
1F
100
AcDbEntity
  8
0
  6
Continuous
 62
     7
370
    25
100
AcDbLine
 10
-279.7511604382
 20
827.9366864579
 30
0.0
 11
-289.5828134119
 21
824.2504146551
 31
0.0
  0
LINE
  5
2D6
330
1F
100
AcDbEntity
  8
0
  6
Continuous
 62
     7
370
    25
100
AcDbLine
 10
-289.5828134119
 20
824.2504146551
 30
0.0
 11
-290.706248628
 21
827.2467279424
 31
0.0
  0
LINE
  5
2D7
330
1F
100
AcDbEntity
  8
0
  6
Continuous
 62
     7
370
    25
100
AcDbLine
 10
-290.706248628
 20
827.2467279424
 30
0.0
 11
-280.8745956542
 21
830.9329997451
 31
0.0
  0
LINE
  5
2D8
330
1F
100
AcDbEntity
  8
0
  6
Continuous
 62
     7
370
    25
100
AcDbLine
 10
-280.8745956542
 20
830.9329997451
 30
0.0
 11
-279.7511604382
 21
827.9366864579
 31
0.0
  0
LINE
  5
2D9
330
1F
100
AcDbEntity
  8
0
  6
Continuous
 62
     7
370
    25
100
AcDbLine
 10
-288.5279980638
 20
851.3453840144
 30
0.0
 11
-298.3596510375
 21
847.6591122117
 31
0.0
  0
LINE
  5
2DA
330
1F
100
AcDbEntity
  8
0
  6
Continuous
 62
     7
370
    25
100
AcDbLine
 10
-298.3596510375
 20
847.6591122117
 30
0.0
 11
-299.4830862536
 21
850.6554254989
 31
0.0
  0
LINE
  5
2DB
330
1F
100
AcDbEntity
  8
0
  6
Continuous
 62
     7
370
    25
100
AcDbLine
 10
-299.4830862536
 20
850.6554254989
 30
0.0
 11
-289.6514332799
 21
854.3416973017
 31
0.0
  0
LINE
  5
2DC
330
1F
100
AcDbEntity
  8
0
  6
Continuous
 62
     7
370
    25
100
AcDbLine
 10
-289.6514332799
 20
854.3416973017
 30
0.0
 11
-288.5279980638
 21
851.3453840144
 31
0.0
  0
ENDSEC
  0
SECTION
  2
OBJECTS
  0
DICTIONARY
  5
C
330
0
100
AcDbDictionary
281
     1
  3
ACAD_GROUP
350
D
  3
ACAD_LAYOUT
350
1A
  3
ACAD_MLINESTYLE
350
17
  3
ACAD_PLOTSETTINGS
350
19
  3
ACAD_PLOTSTYLENAME
350
E
  3
ACAD_SCALELIST
350
47
  3
DWGPROPS
350
2DD
  0
DICTIONARY
  5
D
102
{ACAD_REACTORS
330
C
102
}
330
C
100
AcDbDictionary
281
     1
  0
DICTIONARY
  5
1A
102
{ACAD_REACTORS
330
C
102
}
330
C
100
AcDbDictionary
281
     1
  3
Layout1
350
1E
  3
Layout2
350
26
  3
Model
350
22
  0
DICTIONARY
  5
17
102
{ACAD_REACTORS
330
C
102
}
330
C
100
AcDbDictionary
281
     1
  3
Standard
350
18
  0
DICTIONARY
  5
19
102
{ACAD_REACTORS
330
C
102
}
330
C
100
AcDbDictionary
281
     1
  0
ACDBDICTIONARYWDFLT
  5
E
102
{ACAD_REACTORS
330
C
102
}
330
C
100
AcDbDictionary
281
     1
  3
Normal
350
F
100
AcDbDictionaryWithDefault
340
F
  0
DICTIONARY
  5
47
102
{ACAD_REACTORS
330
C
102
}
330
C
100
AcDbDictionary
281
     1
  3
A0
350
48
  3
A1
350
49
  3
A2
350
4A
  3
A3
350
4B
  3
A4
350
4C
  3
A5
350
4D
  3
A6
350
4E
  3
A7
350
4F
  3
A8
350
50
  3
A9
350
51
  3
B0
350
52
  3
B1
350
53
  3
B2
350
54
  3
B3
350
55
  3
B4
350
56
  3
B5
350
57
  3
B6
350
58
  0
XRECORD
  5
2DD
102
{ACAD_REACTORS
330
C
102
}
330
C
100
AcDbXrecord
280
     1
  1
DWGPROPS COOKIE
  2

  3

  4

  6

  7

  8
icrequer
  9

300
=
301
=
302
=
303
=
304
=
305
=
306
=
307
=
308
=
309
=
 40
0.0
 41
2460118.436550428
 42
2460118.436550428
  1

 90
        0
  0
LAYOUT
  5
1E
102
{ACAD_REACTORS
330
1A
102
}
330
1A
100
AcDbPlotSettings
  1

  2
none_device
  4

  6

 40
0.0
 41
0.0
 42
0.0
 43
0.0
 44
0.0
 45
0.0
 46
0.0
 47
0.0
 48
0.0
 49
0.0
140
0.0
141
0.0
142
1.0
143
1.0
 70
   688
 72
     1
 73
     0
 74
     5
  7

 75
    16
147
1.0
148
0.0
149
0.0
100
AcDbLayout
  1
Layout1
 70
     1
 71
     1
 10
0.0
 20
0.0
 11
420.0
 21
297.0
 12
0.0
 22
0.0
 32
0.0
 14
1.0000000000E+20
 24
1.0000000000E+20
 34
1.0000000000E+20
 15
-1.0000000000E+20
 25
-1.0000000000E+20
 35
-1.0000000000E+20
146
0.0
 13
0.0
 23
0.0
 33
0.0
 16
1.0
 26
0.0
 36
0.0
 17
0.0
 27
1.0
 37
0.0
 76
     0
330
1B
  0
LAYOUT
  5
26
102
{ACAD_REACTORS
330
1A
102
}
330
1A
100
AcDbPlotSettings
  1

  2
none_device
  4

  6

 40
0.0
 41
0.0
 42
0.0
 43
0.0
 44
0.0
 45
0.0
 46
0.0
 47
0.0
 48
0.0
 49
0.0
140
0.0
141
0.0
142
1.0
143
1.0
 70
   688
 72
     1
 73
     0
 74
     5
  7

 75
    16
147
1.0
148
0.0
149
0.0
100
AcDbLayout
  1
Layout2
 70
     1
 71
     2
 10
0.0
 20
0.0
 11
0.0
 21
0.0
 12
0.0
 22
0.0
 32
0.0
 14
0.0
 24
0.0
 34
0.0
 15
0.0
 25
0.0
 35
0.0
146
0.0
 13
0.0
 23
0.0
 33
0.0
 16
1.0
 26
0.0
 36
0.0
 17
0.0
 27
1.0
 37
0.0
 76
     0
330
23
  0
LAYOUT
  5
22
102
{ACAD_REACTORS
330
1A
102
}
330
1A
100
AcDbPlotSettings
  1

  2
none_device
  4
ANSI_A_(11.00_x_8.50_Inches)
  6

 40
6.35
 41
19.05
 42
6.35000508
 43
19.05000254
 44
279.4
 45
215.9
 46
161.2576449829
 47
-12.0076123344
 48
0.0
 49
0.0
140
0.0
141
0.0
142
0.0090398684
143
1.0
 70
  1696
 72
     0
 73
     0
 74
     0
  7

 75
     0
147
0.0179189148
148
-1300.4909072572
149
0.0
100
AcDbLayout
  1
Model
 70
     1
 71
     0
 10
0.0
 20
0.0
 11
420.0
 21
297.0
 12
0.0
 22
0.0
 32
0.0
 14
-340.6126890276
 24
-25.9693390696
 34
0.0
 15
97.5281140907
 25
904.907046855
 35
0.0
146
0.0
 13
0.0
 23
0.0
 33
0.0
 16
1.0
 26
0.0
 36
0.0
 17
0.0
 27
1.0
 37
0.0
 76
     0
330
1F
331
29
  0
MLINESTYLE
  5
18
102
{ACAD_REACTORS
330
17
102
}
330
17
100
AcDbMlineStyle
  2
Standard
 70
     0
  3

 62
   256
 51
90.0
 52
90.0
 71
     2
 49
0.5
 62
   256
  6
BYLAYER
 49
-0.5
 62
   256
  6
BYLAYER
  0
ACDBPLACEHOLDER
  5
F
102
{ACAD_REACTORS
330
E
102
}
330
E
  0
SCALE
  5
48
102
{ACAD_REACTORS
330
47
102
}
330
47
100
AcDbScale
 70
     0
300
1:1
140
1.0
141
1.0
290
     1
  0
SCALE
  5
49
102
{ACAD_REACTORS
330
47
102
}
330
47
100
AcDbScale
 70
     0
300
1:2
140
1.0
141
2.0
290
     0
  0
SCALE
  5
4A
102
{ACAD_REACTORS
330
47
102
}
330
47
100
AcDbScale
 70
     0
300
1:4
140
1.0
141
4.0
290
     0
  0
SCALE
  5
4B
102
{ACAD_REACTORS
330
47
102
}
330
47
100
AcDbScale
 70
     0
300
1:5
140
1.0
141
5.0
290
     0
  0
SCALE
  5
4C
102
{ACAD_REACTORS
330
47
102
}
330
47
100
AcDbScale
 70
     0
300
1:8
140
1.0
141
8.0
290
     0
  0
SCALE
  5
4D
102
{ACAD_REACTORS
330
47
102
}
330
47
100
AcDbScale
 70
     0
300
1:10
140
1.0
141
10.0
290
     0
  0
SCALE
  5
4E
102
{ACAD_REACTORS
330
47
102
}
330
47
100
AcDbScale
 70
     0
300
1:16
140
1.0
141
16.0
290
     0
  0
SCALE
  5
4F
102
{ACAD_REACTORS
330
47
102
}
330
47
100
AcDbScale
 70
     0
300
1:20
140
1.0
141
20.0
290
     0
  0
SCALE
  5
50
102
{ACAD_REACTORS
330
47
102
}
330
47
100
AcDbScale
 70
     0
300
1:30
140
1.0
141
30.0
290
     0
  0
SCALE
  5
51
102
{ACAD_REACTORS
330
47
102
}
330
47
100
AcDbScale
 70
     0
300
1:40
140
1.0
141
40.0
290
     0
  0
SCALE
  5
52
102
{ACAD_REACTORS
330
47
102
}
330
47
100
AcDbScale
 70
     0
300
1:50
140
1.0
141
50.0
290
     0
  0
SCALE
  5
53
102
{ACAD_REACTORS
330
47
102
}
330
47
100
AcDbScale
 70
     0
300
1:100
140
1.0
141
100.0
290
     0
  0
SCALE
  5
54
102
{ACAD_REACTORS
330
47
102
}
330
47
100
AcDbScale
 70
     0
300
2:1
140
2.0
141
1.0
290
     0
  0
SCALE
  5
55
102
{ACAD_REACTORS
330
47
102
}
330
47
100
AcDbScale
 70
     0
300
4:1
140
4.0
141
1.0
290
     0
  0
SCALE
  5
56
102
{ACAD_REACTORS
330
47
102
}
330
47
100
AcDbScale
 70
     0
300
8:1
140
8.0
141
1.0
290
     0
  0
SCALE
  5
57
102
{ACAD_REACTORS
330
47
102
}
330
47
100
AcDbScale
 70
     0
300
10:1
140
10.0
141
1.0
290
     0
  0
SCALE
  5
58
102
{ACAD_REACTORS
330
47
102
}
330
47
100
AcDbScale
 70
     0
300
100:1
140
100.0
141
1.0
290
     0
  0
ENDSEC
  0
EOF
