  0
SECTION
  2
HEADER
  9
$ACADVER
  1
AC1015
  9
$ACADMAINTVER
 70
     6
  9
$DWGCODEPAGE
  3
ANSI_1252
  9
$INSBASE
 10
0.0
 20
0.0
 30
0.0
  9
$EXTMIN
 10
23.8910024303
 20
-559.2475577773
 30
0.0
  9
$EXTMAX
 10
849.8202899788
 20
118.8910944014
 30
0.0
  9
$LIMMIN
 10
0.0
 20
0.0
  9
$LIMMAX
 10
420.0
 20
297.0
  9
$ORTHOMODE
 70
     0
  9
$REGENMODE
 70
     1
  9
$FILLMODE
 70
     1
  9
$QTEXTMODE
 70
     0
  9
$MIRRTEXT
 70
     1
  9
$LTSCALE
 40
1.0
  9
$ATTMODE
 70
     1
  9
$TEXTSIZE
 40
3.5
  9
$TRACEWID
 40
1.0
  9
$TEXTSTYLE
  7
Standard
  9
$CLAYER
  8
0
  9
$CELTYPE
  6
ByLayer
  9
$CECOLOR
 62
   256
  9
$CELTSCALE
 40
1.0
  9
$DISPSILH
 70
     0
  9
$DIMSCALE
 40
1.0
  9
$DIMASZ
 40
3.556
  9
$DIMEXO
 40
0.0
  9
$DIMDLI
 40
3.75
  9
$DIMRND
 40
0.0
  9
$DIMDLE
 40
0.0
  9
$DIMEXE
 40
1.0
  9
$DIMTP
 40
0.0
  9
$DIMTM
 40
0.0
  9
$DIMTXT
 40
3.5
  9
$DIMCEN
 40
2.5
  9
$DIMTSZ
 40
0.0
  9
$DIMTOL
 70
     0
  9
$DIMLIM
 70
     0
  9
$DIMTIH
 70
     1
  9
$DIMTOH
 70
     1
  9
$DIMSE1
 70
     0
  9
$DIMSE2
 70
     0
  9
$DIMTAD
 70
     1
  9
$DIMZIN
 70
     0
  9
$DIMBLK
  1

  9
$DIMASO
 70
     1
  9
$DIMSHO
 70
     1
  9
$DIMPOST
  1

  9
$DIMAPOST
  1

  9
$DIMALT
 70
     0
  9
$DIMALTD
 70
     3
  9
$DIMALTF
 40
0.0393700787
  9
$DIMLFAC
 40
1.0
  9
$DIMTOFL
 70
     1
  9
$DIMTVP
 40
0.0
  9
$DIMTIX
 70
     0
  9
$DIMSOXD
 70
     0
  9
$DIMSAH
 70
     0
  9
$DIMBLK1
  1

  9
$DIMBLK2
  1

  9
$DIMSTYLE
  2
ISO-25
  9
$DIMCLRD
 70
     0
  9
$DIMCLRE
 70
     0
  9
$DIMCLRT
 70
     0
  9
$DIMTFAC
 40
1.0
  9
$DIMGAP
 40
1.524
  9
$DIMJUST
 70
     0
  9
$DIMSD1
 70
     0
  9
$DIMSD2
 70
     0
  9
$DIMTOLJ
 70
     0
  9
$DIMTZIN
 70
     0
  9
$DIMALTZ
 70
     0
  9
$DIMALTTZ
 70
     0
  9
$DIMUPT
 70
     0
  9
$DIMDEC
 70
     2
  9
$DIMTDEC
 70
     2
  9
$DIMALTU
 70
     2
  9
$DIMALTTD
 70
     3
  9
$DIMTXSTY
  7
Standard
  9
$DIMAUNIT
 70
     0
  9
$DIMADEC
 70
     0
  9
$DIMALTRND
 40
0.0
  9
$DIMAZIN
 70
     0
  9
$DIMDSEP
 70
    44
  9
$DIMATFIT
 70
     3
  9
$DIMFRAC
 70
     0
  9
$DIMLDRBLK
  1

  9
$DIMLUNIT
 70
     2
  9
$DIMLWD
 70
    -2
  9
$DIMLWE
 70
    -2
  9
$DIMTMOVE
 70
     0
  9
$LUNITS
 70
     2
  9
$LUPREC
 70
     0
  9
$SKETCHINC
 40
1.0
  9
$FILLETRAD
 40
0.0
  9
$AUNITS
 70
     0
  9
$AUPREC
 70
     0
  9
$MENU
  1
.
  9
$ELEVATION
 40
0.0
  9
$PELEVATION
 40
0.0
  9
$THICKNESS
 40
0.0
  9
$LIMCHECK
 70
     0
  9
$CHAMFERA
 40
0.0
  9
$CHAMFERB
 40
0.0
  9
$CHAMFERC
 40
0.0
  9
$CHAMFERD
 40
0.0
  9
$SKPOLY
 70
     0
  9
$TDCREATE
 40
2460118.52045897
  9
$TDUCREATE
 40
2460118.437125637
  9
$TDUPDATE
 40
2460118.52045897
  9
$TDUUPDATE
 40
2460118.437125637
  9
$TDINDWG
 40
0.0000000116
  9
$TDUSRTIMER
 40
0.0000000116
  9
$USRTIMER
 70
     1
  9
$ANGBASE
 50
0.0
  9
$ANGDIR
 70
     0
  9
$PDMODE
 70
     0
  9
$PDSIZE
 40
-1.0
  9
$PLINEWID
 40
0.0
  9
$SPLFRAME
 70
     0
  9
$SPLINETYPE
 70
     6
  9
$SPLINESEGS
 70
     8
  9
$HANDSEED
  5
2E8
  9
$SURFTAB1
 70
     6
  9
$SURFTAB2
 70
     6
  9
$SURFTYPE
 70
     6
  9
$SURFU
 70
     6
  9
$SURFV
 70
     6
  9
$UCSBASE
  2

  9
$UCSNAME
  2

  9
$UCSORG
 10
0.0
 20
0.0
 30
0.0
  9
$UCSXDIR
 10
1.0
 20
0.0
 30
0.0
  9
$UCSYDIR
 10
0.0
 20
1.0
 30
0.0
  9
$UCSORTHOREF
  2

  9
$UCSORTHOVIEW
 70
     0
  9
$UCSORGTOP
 10
0.0
 20
0.0
 30
0.0
  9
$UCSORGBOTTOM
 10
0.0
 20
0.0
 30
0.0
  9
$UCSORGLEFT
 10
0.0
 20
0.0
 30
0.0
  9
$UCSORGRIGHT
 10
0.0
 20
0.0
 30
0.0
  9
$UCSORGFRONT
 10
0.0
 20
0.0
 30
0.0
  9
$UCSORGBACK
 10
0.0
 20
0.0
 30
0.0
  9
$PUCSBASE
  2

  9
$PUCSNAME
  2

  9
$PUCSORG
 10
0.0
 20
0.0
 30
0.0
  9
$PUCSXDIR
 10
1.0
 20
0.0
 30
0.0
  9
$PUCSYDIR
 10
0.0
 20
1.0
 30
0.0
  9
$PUCSORTHOREF
  2

  9
$PUCSORTHOVIEW
 70
     0
  9
$PUCSORGTOP
 10
0.0
 20
0.0
 30
0.0
  9
$PUCSORGBOTTOM
 10
0.0
 20
0.0
 30
0.0
  9
$PUCSORGLEFT
 10
0.0
 20
0.0
 30
0.0
  9
$PUCSORGRIGHT
 10
0.0
 20
0.0
 30
0.0
  9
$PUCSORGFRONT
 10
0.0
 20
0.0
 30
0.0
  9
$PUCSORGBACK
 10
0.0
 20
0.0
 30
0.0
  9
$USERI1
 70
     0
  9
$USERI2
 70
     0
  9
$USERI3
 70
     0
  9
$USERI4
 70
     0
  9
$USERI5
 70
     0
  9
$USERR1
 40
0.0
  9
$USERR2
 40
0.0
  9
$USERR3
 40
0.0
  9
$USERR4
 40
0.0
  9
$USERR5
 40
0.0
  9
$WORLDVIEW
 70
     1
  9
$SHADEDGE
 70
     3
  9
$SHADEDIF
 70
    70
  9
$TILEMODE
 70
     1
  9
$MAXACTVP
 70
    64
  9
$PINSBASE
 10
0.0
 20
0.0
 30
0.0
  9
$PLIMCHECK
 70
     0
  9
$PEXTMIN
 10
1.0000000000E+20
 20
1.0000000000E+20
 30
1.0000000000E+20
  9
$PEXTMAX
 10
-1.0000000000E+20
 20
-1.0000000000E+20
 30
-1.0000000000E+20
  9
$PLIMMIN
 10
0.0
 20
0.0
  9
$PLIMMAX
 10
420.0
 20
297.0
  9
$UNITMODE
 70
     0
  9
$VISRETAIN
 70
     1
  9
$PLINEGEN
 70
     0
  9
$PSLTSCALE
 70
     1
  9
$TREEDEPTH
 70
  3020
  9
$CMLSTYLE
  2
Standard
  9
$CMLJUST
 70
     0
  9
$CMLSCALE
 40
20.0
  9
$PROXYGRAPHICS
 70
     1
  9
$MEASUREMENT
 70
     1
  9
$CELWEIGHT
370
    -1
  9
$ENDCAPS
280
     0
  9
$JOINSTYLE
280
     0
  9
$LWDISPLAY
290
     1
  9
$INSUNITS
 70
     4
  9
$HYPERLINKBASE
  1

  9
$STYLESHEET
  1

  9
$XEDIT
290
     1
  9
$CEPSNTYPE
380
     0
  9
$PSTYLEMODE
290
     1
  9
$FINGERPRINTGUID
  2
{293603cb-894f-4aac-9212-19099346a346}
  9
$VERSIONGUID
  2
{FAEB1C32-E019-11D5-929B-00C0DF256EC4}
  9
$EXTNAMES
290
     1
  9
$PSVPSCALE
 40
0.0
  9
$OLESTARTUP
290
     0
  0
ENDSEC
  0
SECTION
  2
CLASSES
  0
CLASS
  1
ACDBDICTIONARYWDFLT
  2
AcDbDictionaryWithDefault
  3
ObjectDBX Classes
 90
        0
280
     0
281
     0
  0
CLASS
  1
VISUALSTYLE
  2
AcDbVisualStyle
  3
ObjectDBX Classes
 90
     4095
280
     0
281
     0
  0
CLASS
  1
MATERIAL
  2
AcDbMaterial
  3
ObjectDBX Classes
 90
     1153
280
     0
281
     0
  0
CLASS
  1
SCALE
  2
AcDbScale
  3
ObjectDBX Classes
 90
     1153
280
     0
281
     0
  0
CLASS
  1
TABLESTYLE
  2
AcDbTableStyle
  3
ObjectDBX Classes
 90
     4095
280
     0
281
     0
  0
CLASS
  1
MLEADERSTYLE
  2
AcDbMLeaderStyle
  3
ACDB_MLEADERSTYLE_CLASS
 90
     4095
280
     0
281
     0
  0
CLASS
  1
SUN
  2
AcDbSun
  3
SCENEOE
 90
     1153
280
     0
281
     0
  0
CLASS
  1
ACDBPLACEHOLDER
  2
AcDbPlaceHolder
  3
ObjectDBX Classes
 90
        0
280
     0
281
     0
  0
CLASS
  1
LAYOUT
  2
AcDbLayout
  3
ObjectDBX Classes
 90
        0
280
     0
281
     0
  0
ENDSEC
  0
SECTION
  2
TABLES
  0
TABLE
  2
VPORT
  5
8
330
0
100
AcDbSymbolTable
 70
     1
  0
VPORT
  5
29
330
8
100
AcDbSymbolTableRecord
100
AcDbViewportTableRecord
  2
*Active
 70
     0
 10
0.0
 20
0.0
 11
1.0
 21
1.0
 12
436.8556462045
 22
-220.1782316879
 13
0.0
 23
0.0
 14
10.0
 24
10.0
 15
10.0
 25
10.0
 16
0.0
 26
0.0
 36
1.0
 17
0.0
 27
0.0
 37
0.0
 40
691.7014252223
 41
1.2179357199
 42
50.0
 43
0.0
 44
0.0
 50
0.0
 51
0.0
 71
     0
 72
   100
 73
     1
 74
     3
 75
     0
 76
     0
 77
     0
 78
     0
281
     0
 65
     1
110
0.0
120
0.0
130
0.0
111
1.0
121
0.0
131
0.0
112
0.0
122
1.0
132
0.0
 79
     0
146
0.0
  0
ENDTAB
  0
TABLE
  2
LTYPE
  5
5
330
0
100
AcDbSymbolTable
 70
     6
  0
LTYPE
  5
14
330
5
100
AcDbSymbolTableRecord
100
AcDbLinetypeTableRecord
  2
ByBlock
 70
     0
  3

 72
    65
 73
     0
 40
0.0
  0
LTYPE
  5
15
330
5
100
AcDbSymbolTableRecord
100
AcDbLinetypeTableRecord
  2
ByLayer
 70
     0
  3

 72
    65
 73
     0
 40
0.0
  0
LTYPE
  5
16
330
5
100
AcDbSymbolTableRecord
100
AcDbLinetypeTableRecord
  2
Continuous
 70
     0
  3
Solid line
 72
    65
 73
     0
 40
0.0
  0
LTYPE
  5
5E
330
5
100
AcDbSymbolTableRecord
100
AcDbLinetypeTableRecord
  2
HIDDEN
 70
     0
  3
Hidden __ __ __ __ __ __ __ __ __ __ __ __ __ __
 72
    65
 73
     2
 40
1.905
 49
1.27
 74
     0
 49
-0.635
 74
     0
  0
LTYPE
  5
5F
330
5
100
AcDbSymbolTableRecord
100
AcDbLinetypeTableRecord
  2
PHANTOM
 70
     0
  3
Phantom ______  __  __  ______  __  __  ______
 72
    65
 73
     6
 40
12.7
 49
6.35
 74
     0
 49
-1.27
 74
     0
 49
1.27
 74
     0
 49
-1.27
 74
     0
 49
1.27
 74
     0
 49
-1.27
 74
     0
  0
LTYPE
  5
60
330
5
100
AcDbSymbolTableRecord
100
AcDbLinetypeTableRecord
  2
CENTER
 70
     0
  3
Center ____ _ ____ _ ____ _ ____ _ ____ _ ____
 72
    65
 73
     4
 40
10.16
 49
6.35
 74
     0
 49
-1.27
 74
     0
 49
1.27
 74
     0
 49
-1.27
 74
     0
  0
LTYPE
  5
61
330
5
100
AcDbSymbolTableRecord
100
AcDbLinetypeTableRecord
  2
CENTERX2
 70
     0
  3
Center (2x) ________  __  ________  __  _____
 72
    65
 73
     4
 40
20.32
 49
12.7
 74
     0
 49
-2.54
 74
     0
 49
2.54
 74
     0
 49
-2.54
 74
     0
  0
LTYPE
  5
62
330
5
100
AcDbSymbolTableRecord
100
AcDbLinetypeTableRecord
  2
DOT2
 70
     0
  3
Dot (.5x) ........................................
 72
    65
 73
     2
 40
0.635
 49
0.0
 74
     0
 49
-0.635
 74
     0
  0
ENDTAB
  0
TABLE
  2
LAYER
  5
2
330
0
100
AcDbSymbolTable
 70
     1
  0
LAYER
  5
10
330
2
100
AcDbSymbolTableRecord
100
AcDbLayerTableRecord
  2
0
 70
     0
 62
     7
  6
Continuous
370
    -3
390
F
  0
ENDTAB
  0
TABLE
  2
STYLE
  5
3
330
0
100
AcDbSymbolTable
 70
     1
  0
STYLE
  5
11
330
3
100
AcDbSymbolTableRecord
100
AcDbTextStyleTableRecord
  2
Standard
 70
     0
 40
0.0
 41
1.0
 50
0.0
 71
     0
 42
3.5
  3
txt
  4

  0
ENDTAB
  0
TABLE
  2
VIEW
  5
6
330
0
100
AcDbSymbolTable
 70
     0
  0
ENDTAB
  0
TABLE
  2
UCS
  5
7
330
0
100
AcDbSymbolTable
 70
     0
  0
ENDTAB
  0
TABLE
  2
APPID
  5
9
330
0
100
AcDbSymbolTable
 70
     1
  0
APPID
  5
12
330
9
100
AcDbSymbolTableRecord
100
AcDbRegAppTableRecord
  2
ACAD
 70
     0
  0
ENDTAB
  0
TABLE
  2
DIMSTYLE
  5
A
330
0
100
AcDbSymbolTable
 70
     1
100
AcDbDimStyleTable
  0
DIMSTYLE
105
27
330
A
100
AcDbSymbolTableRecord
100
AcDbDimStyleTableRecord
  2
ISO-25
 70
     0
 41
2.5
 42
0.625
 43
3.75
 44
1.25
 73
     0
 74
     0
 77
     1
 78
     8
140
2.5
141
2.5
143
0.0393700787
147
0.625
171
     3
172
     1
178
     0
271
     2
272
     2
274
     3
278
    44
283
     0
284
     8
340
11
  0
ENDTAB
  0
TABLE
  2
BLOCK_RECORD
  5
1
330
0
100
AcDbSymbolTable
 70
     1
  0
BLOCK_RECORD
  5
1F
330
1
100
AcDbSymbolTableRecord
100
AcDbBlockTableRecord
  2
*Model_Space
340
22
  0
BLOCK_RECORD
  5
1B
330
1
100
AcDbSymbolTableRecord
100
AcDbBlockTableRecord
  2
*Paper_Space
340
1E
  0
BLOCK_RECORD
  5
23
330
1
100
AcDbSymbolTableRecord
100
AcDbBlockTableRecord
  2
*Paper_Space0
340
26
  0
ENDTAB
  0
ENDSEC
  0
SECTION
  2
BLOCKS
  0
BLOCK
  5
20
330
1F
100
AcDbEntity
  8
0
100
AcDbBlockBegin
  2
*Model_Space
 70
     0
 10
0.0
 20
0.0
 30
0.0
  3
*Model_Space
  1

  0
ENDBLK
  5
21
330
1F
100
AcDbEntity
  8
0
100
AcDbBlockEnd
  0
BLOCK
  5
1C
330
1B
100
AcDbEntity
 67
     1
  8
0
100
AcDbBlockBegin
  2
*Paper_Space
 70
     0
 10
0.0
 20
0.0
 30
0.0
  3
*Paper_Space
  1

  0
ENDBLK
  5
1D
330
1B
100
AcDbEntity
 67
     1
  8
0
100
AcDbBlockEnd
  0
BLOCK
  5
24
330
23
100
AcDbEntity
  8
0
100
AcDbBlockBegin
  2
*Paper_Space0
 70
     0
 10
0.0
 20
0.0
 30
0.0
  3
*Paper_Space0
  1

  0
ENDBLK
  5
25
330
23
100
AcDbEntity
  8
0
100
AcDbBlockEnd
  0
ENDSEC
  0
SECTION
  2
ENTITIES
  0
CIRCLE
  5
63
330
1F
100
AcDbEntity
  8
0
  6
Continuous
 62
     7
370
    25
100
AcDbCircle
 10
551.5686877157
 20
-335.7602667809
 30
0.0
 40
3.000000000000018
  0
CIRCLE
  5
64
330
1F
100
AcDbEntity
  8
0
  6
Continuous
 62
     7
370
    25
100
AcDbCircle
 10
295.0802212678
 20
-136.16400785
 30
0.0
 40
3.000000000000088
  0
CIRCLE
  5
65
330
1F
100
AcDbEntity
  8
0
  6
Continuous
 62
     7
370
    25
100
AcDbCircle
 10
58.3216368544
 20
48.0786927015
 30
0.0
 40
3.000000000000051
  0
CIRCLE
  5
66
330
1F
100
AcDbEntity
  8
0
  6
Continuous
 62
     7
370
    25
100
AcDbCircle
 10
788.3272721292
 20
-520.0029673325
 30
0.0
 40
3.000000000000088
  0
LINE
  5
67
330
1F
100
AcDbEntity
  8
0
  6
Continuous
 62
     7
370
    25
100
AcDbLine
 10
127.4184676118
 20
33.8000691548
 30
0.0
 11
134.1740332987
 21
42.4812172499
 31
0.0
  0
LINE
  5
68
330
1F
100
AcDbEntity
  8
0
  6
Continuous
 62
     7
370
    25
100
AcDbLine
 10
126.1557551616
 20
34.782696891
 30
0.0
 11
127.4184676118
 21
33.8000691548
 31
0.0
  0
LINE
  5
69
330
1F
100
AcDbEntity
  8
0
  6
Continuous
 62
     7
370
    25
100
AcDbLine
 10
132.9113208485
 20
43.4638449862
 30
0.0
 11
126.1557551616
 21
34.782696891
 31
0.0
  0
LINE
  5
6A
330
1F
100
AcDbEntity
  8
0
  6
Continuous
 62
     7
370
    25
100
AcDbLine
 10
134.1740332987
 20
42.4812172499
 30
0.0
 11
132.9113208485
 21
43.4638449862
 31
0.0
  0
LINE
  5
6B
330
1F
100
AcDbEntity
  8
0
  6
Continuous
 62
     7
370
    25
100
AcDbLine
 10
147.1483496463
 20
18.4465107755
 30
0.0
 11
153.9039153332
 21
27.1276588706
 31
0.0
  0
LINE
  5
6C
330
1F
100
AcDbEntity
  8
0
  6
Continuous
 62
     7
370
    25
100
AcDbLine
 10
145.8856371961
 20
19.4291385117
 30
0.0
 11
147.1483496463
 21
18.4465107755
 31
0.0
  0
LINE
  5
6D
330
1F
100
AcDbEntity
  8
0
  6
Continuous
 62
     7
370
    25
100
AcDbLine
 10
152.6412028829
 20
28.1102866069
 30
0.0
 11
145.8856371961
 21
19.4291385117
 31
0.0
  0
LINE
  5
6E
330
1F
100
AcDbEntity
  8
0
  6
Continuous
 62
     7
370
    25
100
AcDbLine
 10
153.9039153332
 20
27.1276588706
 30
0.0
 11
152.6412028829
 21
28.1102866069
 31
0.0
  0
LINE
  5
6F
330
1F
100
AcDbEntity
  8
0
  6
Continuous
 62
     7
370
    25
100
AcDbLine
 10
166.8782316807
 20
3.0929523962
 30
0.0
 11
173.6337973676
 21
11.7741004913
 31
0.0
  0
LINE
  5
70
330
1F
100
AcDbEntity
  8
0
  6
Continuous
 62
     7
370
    25
100
AcDbLine
 10
165.6155192305
 20
4.0755801324
 30
0.0
 11
166.8782316807
 21
3.0929523962
 31
0.0
  0
LINE
  5
71
330
1F
100
AcDbEntity
  8
0
  6
Continuous
 62
     7
370
    25
100
AcDbLine
 10
172.3710849174
 20
12.7567282276
 30
0.0
 11
165.6155192305
 21
4.0755801324
 31
0.0
  0
LINE
  5
72
330
1F
100
AcDbEntity
  8
0
  6
Continuous
 62
     7
370
    25
100
AcDbLine
 10
173.6337973676
 20
11.7741004913
 30
0.0
 11
172.3710849174
 21
12.7567282276
 31
0.0
  0
LINE
  5
73
330
1F
100
AcDbEntity
  8
0
  6
Continuous
 62
     7
370
    25
100
AcDbLine
 10
186.6081137152
 20
-12.2606059831
 30
0.0
 11
193.3636794021
 21
-3.579457888
 31
0.0
  0
LINE
  5
74
330
1F
100
AcDbEntity
  8
0
  6
Continuous
 62
     7
370
    25
100
AcDbLine
 10
185.345401265
 20
-11.2779782469
 30
0.0
 11
186.6081137152
 21
-12.2606059831
 31
0.0
  0
LINE
  5
75
330
1F
100
AcDbEntity
  8
0
  6
Continuous
 62
     7
370
    25
100
AcDbLine
 10
192.1009669519
 20
-2.5968301517
 30
0.0
 11
185.345401265
 21
-11.2779782469
 31
0.0
  0
LINE
  5
76
330
1F
100
AcDbEntity
  8
0
  6
Continuous
 62
     7
370
    25
100
AcDbLine
 10
193.3636794021
 20
-3.579457888
 30
0.0
 11
192.1009669519
 21
-2.5968301517
 31
0.0
  0
LINE
  5
77
330
1F
100
AcDbEntity
  8
0
  6
Continuous
 62
     7
370
    25
100
AcDbLine
 10
206.3379957496
 20
-27.6141643624
 30
0.0
 11
213.0935614365
 21
-18.9330162673
 31
0.0
  0
LINE
  5
78
330
1F
100
AcDbEntity
  8
0
  6
Continuous
 62
     7
370
    25
100
AcDbLine
 10
205.0752832994
 20
-26.6315366262
 30
0.0
 11
206.3379957496
 21
-27.6141643624
 31
0.0
  0
LINE
  5
79
330
1F
100
AcDbEntity
  8
0
  6
Continuous
 62
     7
370
    25
100
AcDbLine
 10
211.8308489863
 20
-17.950388531
 30
0.0
 11
205.0752832994
 21
-26.6315366262
 31
0.0
  0
LINE
  5
7A
330
1F
100
AcDbEntity
  8
0
  6
Continuous
 62
     7
370
    25
100
AcDbLine
 10
213.0935614365
 20
-18.9330162673
 30
0.0
 11
211.8308489863
 21
-17.950388531
 31
0.0
  0
LINE
  5
7B
330
1F
100
AcDbEntity
  8
0
  6
Continuous
 62
     7
370
    25
100
AcDbLine
 10
226.0678777841
 20
-42.9677227417
 30
0.0
 11
232.823443471
 21
-34.2865746466
 31
0.0
  0
LINE
  5
7C
330
1F
100
AcDbEntity
  8
0
  6
Continuous
 62
     7
370
    25
100
AcDbLine
 10
224.8051653339
 20
-41.9850950054
 30
0.0
 11
226.0678777841
 21
-42.9677227417
 31
0.0
  0
LINE
  5
7D
330
1F
100
AcDbEntity
  8
0
  6
Continuous
 62
     7
370
    25
100
AcDbLine
 10
231.5607310208
 20
-33.3039469103
 30
0.0
 11
224.8051653339
 21
-41.9850950054
 31
0.0
  0
LINE
  5
7E
330
1F
100
AcDbEntity
  8
0
  6
Continuous
 62
     7
370
    25
100
AcDbLine
 10
232.823443471
 20
-34.2865746466
 30
0.0
 11
231.5607310208
 21
-33.3039469103
 31
0.0
  0
LINE
  5
7F
330
1F
100
AcDbEntity
  8
0
  6
Continuous
 62
     7
370
    25
100
AcDbLine
 10
245.7977598185
 20
-58.321281121
 30
0.0
 11
252.5533255054
 21
-49.6401330259
 31
0.0
  0
LINE
  5
80
330
1F
100
AcDbEntity
  8
0
  6
Continuous
 62
     7
370
    25
100
AcDbLine
 10
244.5350473683
 20
-57.3386533847
 30
0.0
 11
245.7977598185
 21
-58.321281121
 31
0.0
  0
LINE
  5
81
330
1F
100
AcDbEntity
  8
0
  6
Continuous
 62
     7
370
    25
100
AcDbLine
 10
251.2906130552
 20
-48.6575052896
 30
0.0
 11
244.5350473683
 21
-57.3386533847
 31
0.0
  0
LINE
  5
82
330
1F
100
AcDbEntity
  8
0
  6
Continuous
 62
     7
370
    25
100
AcDbLine
 10
252.5533255054
 20
-49.6401330259
 30
0.0
 11
251.2906130552
 21
-48.6575052896
 31
0.0
  0
LINE
  5
83
330
1F
100
AcDbEntity
  8
0
  6
Continuous
 62
     7
370
    25
100
AcDbLine
 10
265.527641853
 20
-73.6748395003
 30
0.0
 11
272.2832075399
 21
-64.9936914052
 31
0.0
  0
LINE
  5
84
330
1F
100
AcDbEntity
  8
0
  6
Continuous
 62
     7
370
    25
100
AcDbLine
 10
264.2649294028
 20
-72.692211764
 30
0.0
 11
265.527641853
 21
-73.6748395003
 31
0.0
  0
LINE
  5
85
330
1F
100
AcDbEntity
  8
0
  6
Continuous
 62
     7
370
    25
100
AcDbLine
 10
271.0204950897
 20
-64.0110636689
 30
0.0
 11
264.2649294028
 21
-72.692211764
 31
0.0
  0
LINE
  5
86
330
1F
100
AcDbEntity
  8
0
  6
Continuous
 62
     7
370
    25
100
AcDbLine
 10
272.2832075399
 20
-64.9936914052
 30
0.0
 11
271.0204950897
 21
-64.0110636689
 31
0.0
  0
LINE
  5
87
330
1F
100
AcDbEntity
  8
0
  6
Continuous
 62
     7
370
    25
100
AcDbLine
 10
285.2575238874
 20
-89.0283978796
 30
0.0
 11
292.0130895743
 21
-80.3472497845
 31
0.0
  0
LINE
  5
88
330
1F
100
AcDbEntity
  8
0
  6
Continuous
 62
     7
370
    25
100
AcDbLine
 10
283.9948114372
 20
-88.0457701433
 30
0.0
 11
285.2575238874
 21
-89.0283978796
 31
0.0
  0
LINE
  5
89
330
1F
100
AcDbEntity
  8
0
  6
Continuous
 62
     7
370
    25
100
AcDbLine
 10
290.7503771241
 20
-79.3646220482
 30
0.0
 11
283.9948114372
 21
-88.0457701433
 31
0.0
  0
LINE
  5
8A
330
1F
100
AcDbEntity
  8
0
  6
Continuous
 62
     7
370
    25
100
AcDbLine
 10
292.0130895743
 20
-80.3472497845
 30
0.0
 11
290.7503771241
 21
-79.3646220482
 31
0.0
  0
LINE
  5
8B
330
1F
100
AcDbEntity
  8
0
  6
Continuous
 62
     7
370
    25
100
AcDbLine
 10
304.9874059219
 20
-104.3819562589
 30
0.0
 11
311.7429716088
 21
-95.7008081638
 31
0.0
  0
LINE
  5
8C
330
1F
100
AcDbEntity
  8
0
  6
Continuous
 62
     7
370
    25
100
AcDbLine
 10
303.7246934717
 20
-103.3993285226
 30
0.0
 11
304.9874059219
 21
-104.3819562589
 31
0.0
  0
LINE
  5
8D
330
1F
100
AcDbEntity
  8
0
  6
Continuous
 62
     7
370
    25
100
AcDbLine
 10
310.4802591586
 20
-94.7181804275
 30
0.0
 11
303.7246934717
 21
-103.3993285226
 31
0.0
  0
LINE
  5
8E
330
1F
100
AcDbEntity
  8
0
  6
Continuous
 62
     7
370
    25
100
AcDbLine
 10
311.7429716088
 20
-95.7008081638
 30
0.0
 11
310.4802591586
 21
-94.7181804275
 31
0.0
  0
LINE
  5
8F
330
1F
100
AcDbEntity
  8
0
  6
Continuous
 62
     7
370
    25
100
AcDbLine
 10
324.7172879564
 20
-119.7355146382
 30
0.0
 11
331.4728536432
 21
-111.0543665431
 31
0.0
  0
LINE
  5
90
330
1F
100
AcDbEntity
  8
0
  6
Continuous
 62
     7
370
    25
100
AcDbLine
 10
323.4545755062
 20
-118.7528869019
 30
0.0
 11
324.7172879564
 21
-119.7355146382
 31
0.0
  0
LINE
  5
91
330
1F
100
AcDbEntity
  8
0
  6
Continuous
 62
     7
370
    25
100
AcDbLine
 10
330.210141193
 20
-110.0717388068
 30
0.0
 11
323.4545755062
 21
-118.7528869019
 31
0.0
  0
LINE
  5
92
330
1F
100
AcDbEntity
  8
0
  6
Continuous
 62
     7
370
    25
100
AcDbLine
 10
331.4728536432
 20
-111.0543665431
 30
0.0
 11
330.210141193
 21
-110.0717388068
 31
0.0
  0
LINE
  5
93
330
1F
100
AcDbEntity
  8
0
  6
Continuous
 62
     7
370
    25
100
AcDbLine
 10
344.4471699908
 20
-135.0890730175
 30
0.0
 11
351.2027356777
 21
-126.4079249223
 31
0.0
  0
LINE
  5
94
330
1F
100
AcDbEntity
  8
0
  6
Continuous
 62
     7
370
    25
100
AcDbLine
 10
343.1844575406
 20
-134.1064452812
 30
0.0
 11
344.4471699908
 21
-135.0890730175
 31
0.0
  0
LINE
  5
95
330
1F
100
AcDbEntity
  8
0
  6
Continuous
 62
     7
370
    25
100
AcDbLine
 10
349.9400232275
 20
-125.4252971861
 30
0.0
 11
343.1844575406
 21
-134.1064452812
 31
0.0
  0
LINE
  5
96
330
1F
100
AcDbEntity
  8
0
  6
Continuous
 62
     7
370
    25
100
AcDbLine
 10
351.2027356777
 20
-126.4079249223
 30
0.0
 11
349.9400232275
 21
-125.4252971861
 31
0.0
  0
LINE
  5
97
330
1F
100
AcDbEntity
  8
0
  6
Continuous
 62
     7
370
    25
100
AcDbLine
 10
364.1770520253
 20
-150.4426313968
 30
0.0
 11
370.9326177122
 21
-141.7614833016
 31
0.0
  0
LINE
  5
98
330
1F
100
AcDbEntity
  8
0
  6
Continuous
 62
     7
370
    25
100
AcDbLine
 10
362.9143395751
 20
-149.4600036605
 30
0.0
 11
364.1770520253
 21
-150.4426313968
 31
0.0
  0
LINE
  5
99
330
1F
100
AcDbEntity
  8
0
  6
Continuous
 62
     7
370
    25
100
AcDbLine
 10
369.669905262
 20
-140.7788555654
 30
0.0
 11
362.9143395751
 21
-149.4600036605
 31
0.0
  0
LINE
  5
9A
330
1F
100
AcDbEntity
  8
0
  6
Continuous
 62
     7
370
    25
100
AcDbLine
 10
370.9326177122
 20
-141.7614833016
 30
0.0
 11
369.669905262
 21
-140.7788555654
 31
0.0
  0
LINE
  5
9B
330
1F
100
AcDbEntity
  8
0
  6
Continuous
 62
     7
370
    25
100
AcDbLine
 10
383.9069340597
 20
-165.7961897761
 30
0.0
 11
390.6624997466
 21
-157.1150416809
 31
0.0
  0
LINE
  5
9C
330
1F
100
AcDbEntity
  8
0
  6
Continuous
 62
     7
370
    25
100
AcDbLine
 10
382.6442216095
 20
-164.8135620398
 30
0.0
 11
383.9069340597
 21
-165.7961897761
 31
0.0
  0
LINE
  5
9D
330
1F
100
AcDbEntity
  8
0
  6
Continuous
 62
     7
370
    25
100
AcDbLine
 10
389.3997872964
 20
-156.1324139447
 30
0.0
 11
382.6442216095
 21
-164.8135620398
 31
0.0
  0
LINE
  5
9E
330
1F
100
AcDbEntity
  8
0
  6
Continuous
 62
     7
370
    25
100
AcDbLine
 10
390.6624997466
 20
-157.1150416809
 30
0.0
 11
389.3997872964
 21
-156.1324139447
 31
0.0
  0
LINE
  5
9F
330
1F
100
AcDbEntity
  8
0
  6
Continuous
 62
     7
370
    25
100
AcDbLine
 10
403.6368160942
 20
-181.1497481554
 30
0.0
 11
410.3923817811
 21
-172.4686000602
 31
0.0
  0
LINE
  5
A0
330
1F
100
AcDbEntity
  8
0
  6
Continuous
 62
     7
370
    25
100
AcDbLine
 10
402.374103644
 20
-180.1671204191
 30
0.0
 11
403.6368160942
 21
-181.1497481554
 31
0.0
  0
LINE
  5
A1
330
1F
100
AcDbEntity
  8
0
  6
Continuous
 62
     7
370
    25
100
AcDbLine
 10
409.1296693309
 20
-171.485972324
 30
0.0
 11
402.374103644
 21
-180.1671204191
 31
0.0
  0
LINE
  5
A2
330
1F
100
AcDbEntity
  8
0
  6
Continuous
 62
     7
370
    25
100
AcDbLine
 10
410.3923817811
 20
-172.4686000602
 30
0.0
 11
409.1296693309
 21
-171.485972324
 31
0.0
  0
LINE
  5
A3
330
1F
100
AcDbEntity
  8
0
  6
Continuous
 62
     7
370
    25
100
AcDbLine
 10
423.3666981286
 20
-196.5033065347
 30
0.0
 11
430.1222638155
 21
-187.8221584395
 31
0.0
  0
LINE
  5
A4
330
1F
100
AcDbEntity
  8
0
  6
Continuous
 62
     7
370
    25
100
AcDbLine
 10
422.1039856784
 20
-195.5206787984
 30
0.0
 11
423.3666981286
 21
-196.5033065347
 31
0.0
  0
LINE
  5
A5
330
1F
100
AcDbEntity
  8
0
  6
Continuous
 62
     7
370
    25
100
AcDbLine
 10
428.8595513653
 20
-186.8395307033
 30
0.0
 11
422.1039856784
 21
-195.5206787984
 31
0.0
  0
LINE
  5
A6
330
1F
100
AcDbEntity
  8
0
  6
Continuous
 62
     7
370
    25
100
AcDbLine
 10
430.1222638155
 20
-187.8221584395
 30
0.0
 11
428.8595513653
 21
-186.8395307033
 31
0.0
  0
LINE
  5
A7
330
1F
100
AcDbEntity
  8
0
  6
Continuous
 62
     7
370
    25
100
AcDbLine
 10
443.0965801631
 20
-211.856864914
 30
0.0
 11
449.85214585
 21
-203.1757168188
 31
0.0
  0
LINE
  5
A8
330
1F
100
AcDbEntity
  8
0
  6
Continuous
 62
     7
370
    25
100
AcDbLine
 10
441.8338677129
 20
-210.8742371777
 30
0.0
 11
443.0965801631
 21
-211.856864914
 31
0.0
  0
LINE
  5
A9
330
1F
100
AcDbEntity
  8
0
  6
Continuous
 62
     7
370
    25
100
AcDbLine
 10
448.5894333998
 20
-202.1930890826
 30
0.0
 11
441.8338677129
 21
-210.8742371777
 31
0.0
  0
LINE
  5
AA
330
1F
100
AcDbEntity
  8
0
  6
Continuous
 62
     7
370
    25
100
AcDbLine
 10
449.85214585
 20
-203.1757168188
 30
0.0
 11
448.5894333998
 21
-202.1930890826
 31
0.0
  0
LINE
  5
AB
330
1F
100
AcDbEntity
  8
0
  6
Continuous
 62
     7
370
    25
100
AcDbLine
 10
462.8264621975
 20
-227.2104232933
 30
0.0
 11
469.5820278844
 21
-218.5292751981
 31
0.0
  0
LINE
  5
AC
330
1F
100
AcDbEntity
  8
0
  6
Continuous
 62
     7
370
    25
100
AcDbLine
 10
461.5637497473
 20
-226.227795557
 30
0.0
 11
462.8264621975
 21
-227.2104232933
 31
0.0
  0
LINE
  5
AD
330
1F
100
AcDbEntity
  8
0
  6
Continuous
 62
     7
370
    25
100
AcDbLine
 10
468.3193154342
 20
-217.5466474619
 30
0.0
 11
461.5637497473
 21
-226.227795557
 31
0.0
  0
LINE
  5
AE
330
1F
100
AcDbEntity
  8
0
  6
Continuous
 62
     7
370
    25
100
AcDbLine
 10
469.5820278844
 20
-218.5292751981
 30
0.0
 11
468.3193154342
 21
-217.5466474619
 31
0.0
  0
LINE
  5
AF
330
1F
100
AcDbEntity
  8
0
  6
Continuous
 62
     7
370
    25
100
AcDbLine
 10
482.556344232
 20
-242.5639816726
 30
0.0
 11
489.3119099189
 21
-233.8828335774
 31
0.0
  0
LINE
  5
B0
330
1F
100
AcDbEntity
  8
0
  6
Continuous
 62
     7
370
    25
100
AcDbLine
 10
481.2936317818
 20
-241.5813539363
 30
0.0
 11
482.556344232
 21
-242.5639816726
 31
0.0
  0
LINE
  5
B1
330
1F
100
AcDbEntity
  8
0
  6
Continuous
 62
     7
370
    25
100
AcDbLine
 10
488.0491974687
 20
-232.9002058412
 30
0.0
 11
481.2936317818
 21
-241.5813539363
 31
0.0
  0
LINE
  5
B2
330
1F
100
AcDbEntity
  8
0
  6
Continuous
 62
     7
370
    25
100
AcDbLine
 10
489.3119099189
 20
-233.8828335774
 30
0.0
 11
488.0491974687
 21
-232.9002058412
 31
0.0
  0
LINE
  5
B3
330
1F
100
AcDbEntity
  8
0
  6
Continuous
 62
     7
370
    25
100
AcDbLine
 10
502.2862262664
 20
-257.9175400519
 30
0.0
 11
509.0417919533
 21
-249.2363919567
 31
0.0
  0
LINE
  5
B4
330
1F
100
AcDbEntity
  8
0
  6
Continuous
 62
     7
370
    25
100
AcDbLine
 10
501.0235138162
 20
-256.9349123156
 30
0.0
 11
502.2862262664
 21
-257.9175400519
 31
0.0
  0
LINE
  5
B5
330
1F
100
AcDbEntity
  8
0
  6
Continuous
 62
     7
370
    25
100
AcDbLine
 10
507.7790795031
 20
-248.2537642205
 30
0.0
 11
501.0235138162
 21
-256.9349123156
 31
0.0
  0
LINE
  5
B6
330
1F
100
AcDbEntity
  8
0
  6
Continuous
 62
     7
370
    25
100
AcDbLine
 10
509.0417919533
 20
-249.2363919567
 30
0.0
 11
507.7790795031
 21
-248.2537642205
 31
0.0
  0
LINE
  5
B7
330
1F
100
AcDbEntity
  8
0
  6
Continuous
 62
     7
370
    25
100
AcDbLine
 10
522.0161083009
 20
-273.2710984312
 30
0.0
 11
528.7716739878
 21
-264.589950336
 31
0.0
  0
LINE
  5
B8
330
1F
100
AcDbEntity
  8
0
  6
Continuous
 62
     7
370
    25
100
AcDbLine
 10
520.7533958507
 20
-272.2884706949
 30
0.0
 11
522.0161083009
 21
-273.2710984312
 31
0.0
  0
LINE
  5
B9
330
1F
100
AcDbEntity
  8
0
  6
Continuous
 62
     7
370
    25
100
AcDbLine
 10
527.5089615376
 20
-263.6073225998
 30
0.0
 11
520.7533958507
 21
-272.2884706949
 31
0.0
  0
LINE
  5
BA
330
1F
100
AcDbEntity
  8
0
  6
Continuous
 62
     7
370
    25
100
AcDbLine
 10
528.7716739878
 20
-264.589950336
 30
0.0
 11
527.5089615376
 21
-263.6073225998
 31
0.0
  0
LINE
  5
BB
330
1F
100
AcDbEntity
  8
0
  6
Continuous
 62
     7
370
    25
100
AcDbLine
 10
541.7459903354
 20
-288.6246568105
 30
0.0
 11
548.5015560222
 21
-279.9435087153
 31
0.0
  0
LINE
  5
BC
330
1F
100
AcDbEntity
  8
0
  6
Continuous
 62
     7
370
    25
100
AcDbLine
 10
540.4832778852
 20
-287.6420290742
 30
0.0
 11
541.7459903354
 21
-288.6246568105
 31
0.0
  0
LINE
  5
BD
330
1F
100
AcDbEntity
  8
0
  6
Continuous
 62
     7
370
    25
100
AcDbLine
 10
547.238843572
 20
-278.960880979
 30
0.0
 11
540.4832778852
 21
-287.6420290742
 31
0.0
  0
LINE
  5
BE
330
1F
100
AcDbEntity
  8
0
  6
Continuous
 62
     7
370
    25
100
AcDbLine
 10
548.5015560222
 20
-279.9435087153
 30
0.0
 11
547.238843572
 21
-278.960880979
 31
0.0
  0
LINE
  5
BF
330
1F
100
AcDbEntity
  8
0
  6
Continuous
 62
     7
370
    25
100
AcDbLine
 10
561.4758723698
 20
-303.9782151898
 30
0.0
 11
568.2314380567
 21
-295.2970670946
 31
0.0
  0
LINE
  5
C0
330
1F
100
AcDbEntity
  8
0
  6
Continuous
 62
     7
370
    25
100
AcDbLine
 10
560.2131599196
 20
-302.9955874535
 30
0.0
 11
561.4758723698
 21
-303.9782151898
 31
0.0
  0
LINE
  5
C1
330
1F
100
AcDbEntity
  8
0
  6
Continuous
 62
     7
370
    25
100
AcDbLine
 10
566.9687256065
 20
-294.3144393583
 30
0.0
 11
560.2131599196
 21
-302.9955874535
 31
0.0
  0
LINE
  5
C2
330
1F
100
AcDbEntity
  8
0
  6
Continuous
 62
     7
370
    25
100
AcDbLine
 10
568.2314380567
 20
-295.2970670946
 30
0.0
 11
566.9687256065
 21
-294.3144393583
 31
0.0
  0
LINE
  5
C3
330
1F
100
AcDbEntity
  8
0
  6
Continuous
 62
     7
370
    25
100
AcDbLine
 10
581.2057544043
 20
-319.3317735691
 30
0.0
 11
587.9613200912
 21
-310.6506254739
 31
0.0
  0
LINE
  5
C4
330
1F
100
AcDbEntity
  8
0
  6
Continuous
 62
     7
370
    25
100
AcDbLine
 10
579.9430419541
 20
-318.3491458328
 30
0.0
 11
581.2057544043
 21
-319.3317735691
 31
0.0
  0
LINE
  5
C5
330
1F
100
AcDbEntity
  8
0
  6
Continuous
 62
     7
370
    25
100
AcDbLine
 10
586.698607641
 20
-309.6679977376
 30
0.0
 11
579.9430419541
 21
-318.3491458328
 31
0.0
  0
LINE
  5
C6
330
1F
100
AcDbEntity
  8
0
  6
Continuous
 62
     7
370
    25
100
AcDbLine
 10
587.9613200912
 20
-310.6506254739
 30
0.0
 11
586.698607641
 21
-309.6679977376
 31
0.0
  0
LINE
  5
C7
330
1F
100
AcDbEntity
  8
0
  6
Continuous
 62
     7
370
    25
100
AcDbLine
 10
600.9356364387
 20
-334.6853319484
 30
0.0
 11
607.6912021256
 21
-326.0041838532
 31
0.0
  0
LINE
  5
C8
330
1F
100
AcDbEntity
  8
0
  6
Continuous
 62
     7
370
    25
100
AcDbLine
 10
599.6729239885
 20
-333.7027042121
 30
0.0
 11
600.9356364387
 21
-334.6853319484
 31
0.0
  0
LINE
  5
C9
330
1F
100
AcDbEntity
  8
0
  6
Continuous
 62
     7
370
    25
100
AcDbLine
 10
606.4284896754
 20
-325.0215561169
 30
0.0
 11
599.6729239885
 21
-333.7027042121
 31
0.0
  0
LINE
  5
CA
330
1F
100
AcDbEntity
  8
0
  6
Continuous
 62
     7
370
    25
100
AcDbLine
 10
607.6912021256
 20
-326.0041838532
 30
0.0
 11
606.4284896754
 21
-325.0215561169
 31
0.0
  0
LINE
  5
CB
330
1F
100
AcDbEntity
  8
0
  6
Continuous
 62
     7
370
    25
100
AcDbLine
 10
620.6655184732
 20
-350.0388903277
 30
0.0
 11
627.4210841601
 21
-341.3577422325
 31
0.0
  0
LINE
  5
CC
330
1F
100
AcDbEntity
  8
0
  6
Continuous
 62
     7
370
    25
100
AcDbLine
 10
619.402806023
 20
-349.0562625914
 30
0.0
 11
620.6655184732
 21
-350.0388903277
 31
0.0
  0
LINE
  5
CD
330
1F
100
AcDbEntity
  8
0
  6
Continuous
 62
     7
370
    25
100
AcDbLine
 10
626.1583717099
 20
-340.3751144962
 30
0.0
 11
619.402806023
 21
-349.0562625914
 31
0.0
  0
LINE
  5
CE
330
1F
100
AcDbEntity
  8
0
  6
Continuous
 62
     7
370
    25
100
AcDbLine
 10
627.4210841601
 20
-341.3577422325
 30
0.0
 11
626.1583717099
 21
-340.3751144962
 31
0.0
  0
LINE
  5
CF
330
1F
100
AcDbEntity
  8
0
  6
Continuous
 62
     7
370
    25
100
AcDbLine
 10
640.3954005076
 20
-365.392448707
 30
0.0
 11
647.1509661945
 21
-356.7113006118
 31
0.0
  0
LINE
  5
D0
330
1F
100
AcDbEntity
  8
0
  6
Continuous
 62
     7
370
    25
100
AcDbLine
 10
639.1326880574
 20
-364.4098209707
 30
0.0
 11
640.3954005076
 21
-365.392448707
 31
0.0
  0
LINE
  5
D1
330
1F
100
AcDbEntity
  8
0
  6
Continuous
 62
     7
370
    25
100
AcDbLine
 10
645.8882537443
 20
-355.7286728755
 30
0.0
 11
639.1326880574
 21
-364.4098209707
 31
0.0
  0
LINE
  5
D2
330
1F
100
AcDbEntity
  8
0
  6
Continuous
 62
     7
370
    25
100
AcDbLine
 10
647.1509661945
 20
-356.7113006118
 30
0.0
 11
645.8882537443
 21
-355.7286728755
 31
0.0
  0
LINE
  5
D3
330
1F
100
AcDbEntity
  8
0
  6
Continuous
 62
     7
370
    25
100
AcDbLine
 10
660.1252825421
 20
-380.7460070863
 30
0.0
 11
666.880848229
 21
-372.0648589911
 31
0.0
  0
LINE
  5
D4
330
1F
100
AcDbEntity
  8
0
  6
Continuous
 62
     7
370
    25
100
AcDbLine
 10
658.8625700919
 20
-379.76337935
 30
0.0
 11
660.1252825421
 21
-380.7460070863
 31
0.0
  0
LINE
  5
D5
330
1F
100
AcDbEntity
  8
0
  6
Continuous
 62
     7
370
    25
100
AcDbLine
 10
665.6181357788
 20
-371.0822312548
 30
0.0
 11
658.8625700919
 21
-379.76337935
 31
0.0
  0
LINE
  5
D6
330
1F
100
AcDbEntity
  8
0
  6
Continuous
 62
     7
370
    25
100
AcDbLine
 10
666.880848229
 20
-372.0648589911
 30
0.0
 11
665.6181357788
 21
-371.0822312548
 31
0.0
  0
LINE
  5
D7
330
1F
100
AcDbEntity
  8
0
  6
Continuous
 62
     7
370
    25
100
AcDbLine
 10
679.8551645765
 20
-396.0995654656
 30
0.0
 11
686.6107302634
 21
-387.4184173704
 31
0.0
  0
LINE
  5
D8
330
1F
100
AcDbEntity
  8
0
  6
Continuous
 62
     7
370
    25
100
AcDbLine
 10
678.5924521263
 20
-395.1169377293
 30
0.0
 11
679.8551645765
 21
-396.0995654656
 31
0.0
  0
LINE
  5
D9
330
1F
100
AcDbEntity
  8
0
  6
Continuous
 62
     7
370
    25
100
AcDbLine
 10
685.3480178132
 20
-386.4357896341
 30
0.0
 11
678.5924521263
 21
-395.1169377293
 31
0.0
  0
LINE
  5
DA
330
1F
100
AcDbEntity
  8
0
  6
Continuous
 62
     7
370
    25
100
AcDbLine
 10
686.6107302634
 20
-387.4184173704
 30
0.0
 11
685.3480178132
 21
-386.4357896341
 31
0.0
  0
LINE
  5
DB
330
1F
100
AcDbEntity
  8
0
  6
Continuous
 62
     7
370
    25
100
AcDbLine
 10
699.585046611
 20
-411.4531238449
 30
0.0
 11
706.3406122979
 21
-402.7719757497
 31
0.0
  0
LINE
  5
DC
330
1F
100
AcDbEntity
  8
0
  6
Continuous
 62
     7
370
    25
100
AcDbLine
 10
698.3223341608
 20
-410.4704961086
 30
0.0
 11
699.585046611
 21
-411.4531238449
 31
0.0
  0
LINE
  5
DD
330
1F
100
AcDbEntity
  8
0
  6
Continuous
 62
     7
370
    25
100
AcDbLine
 10
705.0778998477
 20
-401.7893480134
 30
0.0
 11
698.3223341608
 21
-410.4704961086
 31
0.0
  0
LINE
  5
DE
330
1F
100
AcDbEntity
  8
0
  6
Continuous
 62
     7
370
    25
100
AcDbLine
 10
706.3406122979
 20
-402.7719757497
 30
0.0
 11
705.0778998477
 21
-401.7893480134
 31
0.0
  0
LINE
  5
DF
330
1F
100
AcDbEntity
  8
0
  6
Continuous
 62
     7
370
    25
100
AcDbLine
 10
719.3149286455
 20
-426.8066822242
 30
0.0
 11
726.0704943323
 21
-418.125534129
 31
0.0
  0
LINE
  5
E0
330
1F
100
AcDbEntity
  8
0
  6
Continuous
 62
     7
370
    25
100
AcDbLine
 10
718.0522161952
 20
-425.8240544879
 30
0.0
 11
719.3149286455
 21
-426.8066822242
 31
0.0
  0
LINE
  5
E1
330
1F
100
AcDbEntity
  8
0
  6
Continuous
 62
     7
370
    25
100
AcDbLine
 10
724.8077818821
 20
-417.1429063927
 30
0.0
 11
718.0522161952
 21
-425.8240544879
 31
0.0
  0
LINE
  5
E2
330
1F
100
AcDbEntity
  8
0
  6
Continuous
 62
     7
370
    25
100
AcDbLine
 10
726.0704943323
 20
-418.125534129
 30
0.0
 11
724.8077818821
 21
-417.1429063927
 31
0.0
  0
LINE
  5
E3
330
1F
100
AcDbEntity
  8
0
  6
Continuous
 62
     7
370
    25
100
AcDbLine
 10
739.0448106799
 20
-442.1602406035
 30
0.0
 11
745.8003763668
 21
-433.4790925083
 31
0.0
  0
LINE
  5
E4
330
1F
100
AcDbEntity
  8
0
  6
Continuous
 62
     7
370
    25
100
AcDbLine
 10
737.7820982297
 20
-441.1776128672
 30
0.0
 11
739.0448106799
 21
-442.1602406035
 31
0.0
  0
LINE
  5
E5
330
1F
100
AcDbEntity
  8
0
  6
Continuous
 62
     7
370
    25
100
AcDbLine
 10
744.5376639166
 20
-432.496464772
 30
0.0
 11
737.7820982297
 21
-441.1776128672
 31
0.0
  0
LINE
  5
E6
330
1F
100
AcDbEntity
  8
0
  6
Continuous
 62
     7
370
    25
100
AcDbLine
 10
745.8003763668
 20
-433.4790925083
 30
0.0
 11
744.5376639166
 21
-432.496464772
 31
0.0
  0
LINE
  5
E7
330
1F
100
AcDbEntity
  8
0
  6
Continuous
 62
     7
370
    25
100
AcDbLine
 10
758.7746927144
 20
-457.5137989828
 30
0.0
 11
765.5302584013
 21
-448.8326508876
 31
0.0
  0
LINE
  5
E8
330
1F
100
AcDbEntity
  8
0
  6
Continuous
 62
     7
370
    25
100
AcDbLine
 10
757.5119802642
 20
-456.5311712465
 30
0.0
 11
758.7746927144
 21
-457.5137989828
 31
0.0
  0
LINE
  5
E9
330
1F
100
AcDbEntity
  8
0
  6
Continuous
 62
     7
370
    25
100
AcDbLine
 10
764.267545951
 20
-447.8500231513
 30
0.0
 11
757.5119802642
 21
-456.5311712465
 31
0.0
  0
LINE
  5
EA
330
1F
100
AcDbEntity
  8
0
  6
Continuous
 62
     7
370
    25
100
AcDbLine
 10
765.5302584013
 20
-448.8326508876
 30
0.0
 11
764.267545951
 21
-447.8500231513
 31
0.0
  0
LINE
  5
EB
330
1F
100
AcDbEntity
  8
0
  6
Continuous
 62
     7
370
    25
100
AcDbLine
 10
778.5045747488
 20
-472.8673573621
 30
0.0
 11
785.2601404357
 21
-464.1862092669
 31
0.0
  0
LINE
  5
EC
330
1F
100
AcDbEntity
  8
0
  6
Continuous
 62
     7
370
    25
100
AcDbLine
 10
777.2418622986
 20
-471.8847296258
 30
0.0
 11
778.5045747488
 21
-472.8673573621
 31
0.0
  0
LINE
  5
ED
330
1F
100
AcDbEntity
  8
0
  6
Continuous
 62
     7
370
    25
100
AcDbLine
 10
783.9974279855
 20
-463.2035815306
 30
0.0
 11
777.2418622986
 21
-471.8847296258
 31
0.0
  0
LINE
  5
EE
330
1F
100
AcDbEntity
  8
0
  6
Continuous
 62
     7
370
    25
100
AcDbLine
 10
785.2601404357
 20
-464.1862092669
 30
0.0
 11
783.9974279855
 21
-463.2035815306
 31
0.0
  0
LINE
  5
EF
330
1F
100
AcDbEntity
  8
0
  6
Continuous
 62
     7
370
    25
100
AcDbLine
 10
87.217174405
 20
22.8471181548
 30
0.0
 11
93.9727400918
 21
31.5282662499
 31
0.0
  0
LINE
  5
F0
330
1F
100
AcDbEntity
  8
0
  6
Continuous
 62
     7
370
    25
100
AcDbLine
 10
85.9544619548
 20
23.8297458911
 30
0.0
 11
87.217174405
 21
22.8471181548
 31
0.0
  0
LINE
  5
F1
330
1F
100
AcDbEntity
  8
0
  6
Continuous
 62
     7
370
    25
100
AcDbLine
 10
92.7100276416
 20
32.5108939862
 30
0.0
 11
85.9544619548
 21
23.8297458911
 31
0.0
  0
LINE
  5
F2
330
1F
100
AcDbEntity
  8
0
  6
Continuous
 62
     7
370
    25
100
AcDbLine
 10
93.9727400918
 20
31.5282662499
 30
0.0
 11
92.7100276416
 21
32.5108939862
 31
0.0
  0
LINE
  5
F3
330
1F
100
AcDbEntity
  8
0
  6
Continuous
 62
     7
370
    25
100
AcDbLine
 10
106.9470564394
 20
7.4935597755
 30
0.0
 11
113.7026221263
 21
16.1747078707
 31
0.0
  0
LINE
  5
F4
330
1F
100
AcDbEntity
  8
0
  6
Continuous
 62
     7
370
    25
100
AcDbLine
 10
105.6843439892
 20
8.4761875118
 30
0.0
 11
106.9470564394
 21
7.4935597755
 31
0.0
  0
LINE
  5
F5
330
1F
100
AcDbEntity
  8
0
  6
Continuous
 62
     7
370
    25
100
AcDbLine
 10
112.4399096761
 20
17.1573356069
 30
0.0
 11
105.6843439892
 21
8.4761875118
 31
0.0
  0
LINE
  5
F6
330
1F
100
AcDbEntity
  8
0
  6
Continuous
 62
     7
370
    25
100
AcDbLine
 10
113.7026221263
 20
16.1747078707
 30
0.0
 11
112.4399096761
 21
17.1573356069
 31
0.0
  0
LINE
  5
F7
330
1F
100
AcDbEntity
  8
0
  6
Continuous
 62
     7
370
    25
100
AcDbLine
 10
126.6769384739
 20
-7.8599986038
 30
0.0
 11
133.4325041608
 21
0.8211494914
 31
0.0
  0
LINE
  5
F8
330
1F
100
AcDbEntity
  8
0
  6
Continuous
 62
     7
370
    25
100
AcDbLine
 10
125.4142260237
 20
-6.8773708675
 30
0.0
 11
126.6769384739
 21
-7.8599986038
 31
0.0
  0
LINE
  5
F9
330
1F
100
AcDbEntity
  8
0
  6
Continuous
 62
     7
370
    25
100
AcDbLine
 10
132.1697917106
 20
1.8037772276
 30
0.0
 11
125.4142260237
 21
-6.8773708675
 31
0.0
  0
LINE
  5
FA
330
1F
100
AcDbEntity
  8
0
  6
Continuous
 62
     7
370
    25
100
AcDbLine
 10
133.4325041608
 20
0.8211494914
 30
0.0
 11
132.1697917106
 21
1.8037772276
 31
0.0
  0
LINE
  5
FB
330
1F
100
AcDbEntity
  8
0
  6
Continuous
 62
     7
370
    25
100
AcDbLine
 10
146.4068205083
 20
-23.2135569831
 30
0.0
 11
153.1623861952
 21
-14.5324088879
 31
0.0
  0
LINE
  5
FC
330
1F
100
AcDbEntity
  8
0
  6
Continuous
 62
     7
370
    25
100
AcDbLine
 10
145.1441080581
 20
-22.2309292468
 30
0.0
 11
146.4068205083
 21
-23.2135569831
 31
0.0
  0
LINE
  5
FD
330
1F
100
AcDbEntity
  8
0
  6
Continuous
 62
     7
370
    25
100
AcDbLine
 10
151.899673745
 20
-13.5497811517
 30
0.0
 11
145.1441080581
 21
-22.2309292468
 31
0.0
  0
LINE
  5
FE
330
1F
100
AcDbEntity
  8
0
  6
Continuous
 62
     7
370
    25
100
AcDbLine
 10
153.1623861952
 20
-14.5324088879
 30
0.0
 11
151.899673745
 21
-13.5497811517
 31
0.0
  0
LINE
  5
FF
330
1F
100
AcDbEntity
  8
0
  6
Continuous
 62
     7
370
    25
100
AcDbLine
 10
166.1367025428
 20
-38.5671153624
 30
0.0
 11
172.8922682297
 21
-29.8859672672
 31
0.0
  0
LINE
  5
100
330
1F
100
AcDbEntity
  8
0
  6
Continuous
 62
     7
370
    25
100
AcDbLine
 10
164.8739900926
 20
-37.5844876261
 30
0.0
 11
166.1367025428
 21
-38.5671153624
 31
0.0
  0
LINE
  5
101
330
1F
100
AcDbEntity
  8
0
  6
Continuous
 62
     7
370
    25
100
AcDbLine
 10
171.6295557795
 20
-28.903339531
 30
0.0
 11
164.8739900926
 21
-37.5844876261
 31
0.0
  0
LINE
  5
102
330
1F
100
AcDbEntity
  8
0
  6
Continuous
 62
     7
370
    25
100
AcDbLine
 10
172.8922682297
 20
-29.8859672672
 30
0.0
 11
171.6295557795
 21
-28.903339531
 31
0.0
  0
LINE
  5
103
330
1F
100
AcDbEntity
  8
0
  6
Continuous
 62
     7
370
    25
100
AcDbLine
 10
185.8665845772
 20
-53.9206737417
 30
0.0
 11
192.6221502641
 21
-45.2395256465
 31
0.0
  0
LINE
  5
104
330
1F
100
AcDbEntity
  8
0
  6
Continuous
 62
     7
370
    25
100
AcDbLine
 10
184.603872127
 20
-52.9380460054
 30
0.0
 11
185.8665845772
 21
-53.9206737417
 31
0.0
  0
LINE
  5
105
330
1F
100
AcDbEntity
  8
0
  6
Continuous
 62
     7
370
    25
100
AcDbLine
 10
191.3594378139
 20
-44.2568979103
 30
0.0
 11
184.603872127
 21
-52.9380460054
 31
0.0
  0
LINE
  5
106
330
1F
100
AcDbEntity
  8
0
  6
Continuous
 62
     7
370
    25
100
AcDbLine
 10
192.6221502641
 20
-45.2395256465
 30
0.0
 11
191.3594378139
 21
-44.2568979103
 31
0.0
  0
LINE
  5
107
330
1F
100
AcDbEntity
  8
0
  6
Continuous
 62
     7
370
    25
100
AcDbLine
 10
205.5964666117
 20
-69.274232121
 30
0.0
 11
212.3520322986
 21
-60.5930840258
 31
0.0
  0
LINE
  5
108
330
1F
100
AcDbEntity
  8
0
  6
Continuous
 62
     7
370
    25
100
AcDbLine
 10
204.3337541615
 20
-68.2916043847
 30
0.0
 11
205.5964666117
 21
-69.274232121
 31
0.0
  0
LINE
  5
109
330
1F
100
AcDbEntity
  8
0
  6
Continuous
 62
     7
370
    25
100
AcDbLine
 10
211.0893198484
 20
-59.6104562896
 30
0.0
 11
204.3337541615
 21
-68.2916043847
 31
0.0
  0
LINE
  5
10A
330
1F
100
AcDbEntity
  8
0
  6
Continuous
 62
     7
370
    25
100
AcDbLine
 10
212.3520322986
 20
-60.5930840258
 30
0.0
 11
211.0893198484
 21
-59.6104562896
 31
0.0
  0
LINE
  5
10B
330
1F
100
AcDbEntity
  8
0
  6
Continuous
 62
     7
370
    25
100
AcDbLine
 10
225.3263486461
 20
-84.6277905003
 30
0.0
 11
232.081914333
 21
-75.9466424051
 31
0.0
  0
LINE
  5
10C
330
1F
100
AcDbEntity
  8
0
  6
Continuous
 62
     7
370
    25
100
AcDbLine
 10
224.0636361959
 20
-83.645162764
 30
0.0
 11
225.3263486461
 21
-84.6277905003
 31
0.0
  0
LINE
  5
10D
330
1F
100
AcDbEntity
  8
0
  6
Continuous
 62
     7
370
    25
100
AcDbLine
 10
230.8192018828
 20
-74.9640146689
 30
0.0
 11
224.0636361959
 21
-83.645162764
 31
0.0
  0
LINE
  5
10E
330
1F
100
AcDbEntity
  8
0
  6
Continuous
 62
     7
370
    25
100
AcDbLine
 10
232.081914333
 20
-75.9466424051
 30
0.0
 11
230.8192018828
 21
-74.9640146689
 31
0.0
  0
LINE
  5
10F
330
1F
100
AcDbEntity
  8
0
  6
Continuous
 62
     7
370
    25
100
AcDbLine
 10
245.0562306806
 20
-99.9813488796
 30
0.0
 11
251.8117963675
 21
-91.3002007844
 31
0.0
  0
LINE
  5
110
330
1F
100
AcDbEntity
  8
0
  6
Continuous
 62
     7
370
    25
100
AcDbLine
 10
243.7935182304
 20
-98.9987211433
 30
0.0
 11
245.0562306806
 21
-99.9813488796
 31
0.0
  0
LINE
  5
111
330
1F
100
AcDbEntity
  8
0
  6
Continuous
 62
     7
370
    25
100
AcDbLine
 10
250.5490839173
 20
-90.3175730482
 30
0.0
 11
243.7935182304
 21
-98.9987211433
 31
0.0
  0
LINE
  5
112
330
1F
100
AcDbEntity
  8
0
  6
Continuous
 62
     7
370
    25
100
AcDbLine
 10
251.8117963675
 20
-91.3002007844
 30
0.0
 11
250.5490839173
 21
-90.3175730482
 31
0.0
  0
LINE
  5
113
330
1F
100
AcDbEntity
  8
0
  6
Continuous
 62
     7
370
    25
100
AcDbLine
 10
264.786112715
 20
-115.3349072589
 30
0.0
 11
271.5416784019
 21
-106.6537591637
 31
0.0
  0
LINE
  5
114
330
1F
100
AcDbEntity
  8
0
  6
Continuous
 62
     7
370
    25
100
AcDbLine
 10
263.5234002648
 20
-114.3522795226
 30
0.0
 11
264.786112715
 21
-115.3349072589
 31
0.0
  0
LINE
  5
115
330
1F
100
AcDbEntity
  8
0
  6
Continuous
 62
     7
370
    25
100
AcDbLine
 10
270.2789659517
 20
-105.6711314275
 30
0.0
 11
263.5234002648
 21
-114.3522795226
 31
0.0
  0
LINE
  5
116
330
1F
100
AcDbEntity
  8
0
  6
Continuous
 62
     7
370
    25
100
AcDbLine
 10
271.5416784019
 20
-106.6537591637
 30
0.0
 11
270.2789659517
 21
-105.6711314275
 31
0.0
  0
LINE
  5
117
330
1F
100
AcDbEntity
  8
0
  6
Continuous
 62
     7
370
    25
100
AcDbLine
 10
284.5159947495
 20
-130.6884656382
 30
0.0
 11
291.2715604364
 21
-122.007317543
 31
0.0
  0
LINE
  5
118
330
1F
100
AcDbEntity
  8
0
  6
Continuous
 62
     7
370
    25
100
AcDbLine
 10
283.2532822993
 20
-129.7058379019
 30
0.0
 11
284.5159947495
 21
-130.6884656382
 31
0.0
  0
LINE
  5
119
330
1F
100
AcDbEntity
  8
0
  6
Continuous
 62
     7
370
    25
100
AcDbLine
 10
290.0088479862
 20
-121.0246898068
 30
0.0
 11
283.2532822993
 21
-129.7058379019
 31
0.0
  0
LINE
  5
11A
330
1F
100
AcDbEntity
  8
0
  6
Continuous
 62
     7
370
    25
100
AcDbLine
 10
291.2715604364
 20
-122.007317543
 30
0.0
 11
290.0088479862
 21
-121.0246898068
 31
0.0
  0
LINE
  5
11B
330
1F
100
AcDbEntity
  8
0
  6
Continuous
 62
     7
370
    25
100
AcDbLine
 10
304.245876784
 20
-146.0420240175
 30
0.0
 11
311.0014424709
 21
-137.3608759223
 31
0.0
  0
LINE
  5
11C
330
1F
100
AcDbEntity
  8
0
  6
Continuous
 62
     7
370
    25
100
AcDbLine
 10
302.9831643338
 20
-145.0593962812
 30
0.0
 11
304.245876784
 21
-146.0420240175
 31
0.0
  0
LINE
  5
11D
330
1F
100
AcDbEntity
  8
0
  6
Continuous
 62
     7
370
    25
100
AcDbLine
 10
309.7387300206
 20
-136.378248186
 30
0.0
 11
302.9831643338
 21
-145.0593962812
 31
0.0
  0
LINE
  5
11E
330
1F
100
AcDbEntity
  8
0
  6
Continuous
 62
     7
370
    25
100
AcDbLine
 10
311.0014424709
 20
-137.3608759223
 30
0.0
 11
309.7387300206
 21
-136.378248186
 31
0.0
  0
LINE
  5
11F
330
1F
100
AcDbEntity
  8
0
  6
Continuous
 62
     7
370
    25
100
AcDbLine
 10
323.9757588184
 20
-161.3955823968
 30
0.0
 11
330.7313245053
 21
-152.7144343016
 31
0.0
  0
LINE
  5
120
330
1F
100
AcDbEntity
  8
0
  6
Continuous
 62
     7
370
    25
100
AcDbLine
 10
322.7130463682
 20
-160.4129546605
 30
0.0
 11
323.9757588184
 21
-161.3955823968
 31
0.0
  0
LINE
  5
121
330
1F
100
AcDbEntity
  8
0
  6
Continuous
 62
     7
370
    25
100
AcDbLine
 10
329.4686120551
 20
-151.7318065653
 30
0.0
 11
322.7130463682
 21
-160.4129546605
 31
0.0
  0
LINE
  5
122
330
1F
100
AcDbEntity
  8
0
  6
Continuous
 62
     7
370
    25
100
AcDbLine
 10
330.7313245053
 20
-152.7144343016
 30
0.0
 11
329.4686120551
 21
-151.7318065653
 31
0.0
  0
LINE
  5
123
330
1F
100
AcDbEntity
  8
0
  6
Continuous
 62
     7
370
    25
100
AcDbLine
 10
343.7056408529
 20
-176.7491407761
 30
0.0
 11
350.4612065398
 21
-168.0679926809
 31
0.0
  0
LINE
  5
124
330
1F
100
AcDbEntity
  8
0
  6
Continuous
 62
     7
370
    25
100
AcDbLine
 10
342.4429284027
 20
-175.7665130398
 30
0.0
 11
343.7056408529
 21
-176.7491407761
 31
0.0
  0
LINE
  5
125
330
1F
100
AcDbEntity
  8
0
  6
Continuous
 62
     7
370
    25
100
AcDbLine
 10
349.1984940896
 20
-167.0853649446
 30
0.0
 11
342.4429284027
 21
-175.7665130398
 31
0.0
  0
LINE
  5
126
330
1F
100
AcDbEntity
  8
0
  6
Continuous
 62
     7
370
    25
100
AcDbLine
 10
350.4612065398
 20
-168.0679926809
 30
0.0
 11
349.1984940896
 21
-167.0853649446
 31
0.0
  0
LINE
  5
127
330
1F
100
AcDbEntity
  8
0
  6
Continuous
 62
     7
370
    25
100
AcDbLine
 10
363.4355228873
 20
-192.1026991554
 30
0.0
 11
370.1910885742
 21
-183.4215510602
 31
0.0
  0
LINE
  5
128
330
1F
100
AcDbEntity
  8
0
  6
Continuous
 62
     7
370
    25
100
AcDbLine
 10
362.1728104371
 20
-191.1200714191
 30
0.0
 11
363.4355228873
 21
-192.1026991554
 31
0.0
  0
LINE
  5
129
330
1F
100
AcDbEntity
  8
0
  6
Continuous
 62
     7
370
    25
100
AcDbLine
 10
368.928376124
 20
-182.4389233239
 30
0.0
 11
362.1728104371
 21
-191.1200714191
 31
0.0
  0
LINE
  5
12A
330
1F
100
AcDbEntity
  8
0
  6
Continuous
 62
     7
370
    25
100
AcDbLine
 10
370.1910885742
 20
-183.4215510602
 30
0.0
 11
368.928376124
 21
-182.4389233239
 31
0.0
  0
LINE
  5
12B
330
1F
100
AcDbEntity
  8
0
  6
Continuous
 62
     7
370
    25
100
AcDbLine
 10
383.1654049218
 20
-207.4562575347
 30
0.0
 11
389.9209706087
 21
-198.7751094395
 31
0.0
  0
LINE
  5
12C
330
1F
100
AcDbEntity
  8
0
  6
Continuous
 62
     7
370
    25
100
AcDbLine
 10
381.9026924716
 20
-206.4736297984
 30
0.0
 11
383.1654049218
 21
-207.4562575347
 31
0.0
  0
LINE
  5
12D
330
1F
100
AcDbEntity
  8
0
  6
Continuous
 62
     7
370
    25
100
AcDbLine
 10
388.6582581585
 20
-197.7924817032
 30
0.0
 11
381.9026924716
 21
-206.4736297984
 31
0.0
  0
LINE
  5
12E
330
1F
100
AcDbEntity
  8
0
  6
Continuous
 62
     7
370
    25
100
AcDbLine
 10
389.9209706087
 20
-198.7751094395
 30
0.0
 11
388.6582581585
 21
-197.7924817032
 31
0.0
  0
LINE
  5
12F
330
1F
100
AcDbEntity
  8
0
  6
Continuous
 62
     7
370
    25
100
AcDbLine
 10
402.8952869562
 20
-222.809815914
 30
0.0
 11
409.6508526431
 21
-214.1286678188
 31
0.0
  0
LINE
  5
130
330
1F
100
AcDbEntity
  8
0
  6
Continuous
 62
     7
370
    25
100
AcDbLine
 10
401.632574506
 20
-221.8271881777
 30
0.0
 11
402.8952869562
 21
-222.809815914
 31
0.0
  0
LINE
  5
131
330
1F
100
AcDbEntity
  8
0
  6
Continuous
 62
     7
370
    25
100
AcDbLine
 10
408.3881401929
 20
-213.1460400825
 30
0.0
 11
401.632574506
 21
-221.8271881777
 31
0.0
  0
LINE
  5
132
330
1F
100
AcDbEntity
  8
0
  6
Continuous
 62
     7
370
    25
100
AcDbLine
 10
409.6508526431
 20
-214.1286678188
 30
0.0
 11
408.3881401929
 21
-213.1460400825
 31
0.0
  0
LINE
  5
133
330
1F
100
AcDbEntity
  8
0
  6
Continuous
 62
     7
370
    25
100
AcDbLine
 10
422.6251689907
 20
-238.1633742933
 30
0.0
 11
429.3807346776
 21
-229.4822261981
 31
0.0
  0
LINE
  5
134
330
1F
100
AcDbEntity
  8
0
  6
Continuous
 62
     7
370
    25
100
AcDbLine
 10
421.3624565405
 20
-237.180746557
 30
0.0
 11
422.6251689907
 21
-238.1633742933
 31
0.0
  0
LINE
  5
135
330
1F
100
AcDbEntity
  8
0
  6
Continuous
 62
     7
370
    25
100
AcDbLine
 10
428.1180222274
 20
-228.4995984618
 30
0.0
 11
421.3624565405
 21
-237.180746557
 31
0.0
  0
LINE
  5
136
330
1F
100
AcDbEntity
  8
0
  6
Continuous
 62
     7
370
    25
100
AcDbLine
 10
429.3807346776
 20
-229.4822261981
 30
0.0
 11
428.1180222274
 21
-228.4995984618
 31
0.0
  0
LINE
  5
137
330
1F
100
AcDbEntity
  8
0
  6
Continuous
 62
     7
370
    25
100
AcDbLine
 10
442.3550510251
 20
-253.5169326726
 30
0.0
 11
449.110616712
 21
-244.8357845774
 31
0.0
  0
LINE
  5
138
330
1F
100
AcDbEntity
  8
0
  6
Continuous
 62
     7
370
    25
100
AcDbLine
 10
441.0923385749
 20
-252.5343049363
 30
0.0
 11
442.3550510251
 21
-253.5169326726
 31
0.0
  0
LINE
  5
139
330
1F
100
AcDbEntity
  8
0
  6
Continuous
 62
     7
370
    25
100
AcDbLine
 10
447.8479042618
 20
-243.8531568411
 30
0.0
 11
441.0923385749
 21
-252.5343049363
 31
0.0
  0
LINE
  5
13A
330
1F
100
AcDbEntity
  8
0
  6
Continuous
 62
     7
370
    25
100
AcDbLine
 10
449.110616712
 20
-244.8357845774
 30
0.0
 11
447.8479042618
 21
-243.8531568411
 31
0.0
  0
LINE
  5
13B
330
1F
100
AcDbEntity
  8
0
  6
Continuous
 62
     7
370
    25
100
AcDbLine
 10
462.0849330596
 20
-268.8704910519
 30
0.0
 11
468.8404987465
 21
-260.1893429567
 31
0.0
  0
LINE
  5
13C
330
1F
100
AcDbEntity
  8
0
  6
Continuous
 62
     7
370
    25
100
AcDbLine
 10
460.8222206094
 20
-267.8878633156
 30
0.0
 11
462.0849330596
 21
-268.8704910519
 31
0.0
  0
LINE
  5
13D
330
1F
100
AcDbEntity
  8
0
  6
Continuous
 62
     7
370
    25
100
AcDbLine
 10
467.5777862963
 20
-259.2067152204
 30
0.0
 11
460.8222206094
 21
-267.8878633156
 31
0.0
  0
LINE
  5
13E
330
1F
100
AcDbEntity
  8
0
  6
Continuous
 62
     7
370
    25
100
AcDbLine
 10
468.8404987465
 20
-260.1893429567
 30
0.0
 11
467.5777862963
 21
-259.2067152204
 31
0.0
  0
LINE
  5
13F
330
1F
100
AcDbEntity
  8
0
  6
Continuous
 62
     7
370
    25
100
AcDbLine
 10
481.8148150941
 20
-284.2240494312
 30
0.0
 11
488.5703807809
 21
-275.542901336
 31
0.0
  0
LINE
  5
140
330
1F
100
AcDbEntity
  8
0
  6
Continuous
 62
     7
370
    25
100
AcDbLine
 10
480.5521026438
 20
-283.2414216949
 30
0.0
 11
481.8148150941
 21
-284.2240494312
 31
0.0
  0
LINE
  5
141
330
1F
100
AcDbEntity
  8
0
  6
Continuous
 62
     7
370
    25
100
AcDbLine
 10
487.3076683307
 20
-274.5602735997
 30
0.0
 11
480.5521026438
 21
-283.2414216949
 31
0.0
  0
LINE
  5
142
330
1F
100
AcDbEntity
  8
0
  6
Continuous
 62
     7
370
    25
100
AcDbLine
 10
488.5703807809
 20
-275.542901336
 30
0.0
 11
487.3076683307
 21
-274.5602735997
 31
0.0
  0
LINE
  5
143
330
1F
100
AcDbEntity
  8
0
  6
Continuous
 62
     7
370
    25
100
AcDbLine
 10
501.5446971285
 20
-299.5776078105
 30
0.0
 11
508.3002628154
 21
-290.8964597153
 31
0.0
  0
LINE
  5
144
330
1F
100
AcDbEntity
  8
0
  6
Continuous
 62
     7
370
    25
100
AcDbLine
 10
500.2819846783
 20
-298.5949800742
 30
0.0
 11
501.5446971285
 21
-299.5776078105
 31
0.0
  0
LINE
  5
145
330
1F
100
AcDbEntity
  8
0
  6
Continuous
 62
     7
370
    25
100
AcDbLine
 10
507.0375503652
 20
-289.913831979
 30
0.0
 11
500.2819846783
 21
-298.5949800742
 31
0.0
  0
LINE
  5
146
330
1F
100
AcDbEntity
  8
0
  6
Continuous
 62
     7
370
    25
100
AcDbLine
 10
508.3002628154
 20
-290.8964597153
 30
0.0
 11
507.0375503652
 21
-289.913831979
 31
0.0
  0
LINE
  5
147
330
1F
100
AcDbEntity
  8
0
  6
Continuous
 62
     7
370
    25
100
AcDbLine
 10
521.274579163
 20
-314.9311661898
 30
0.0
 11
528.0301448499
 21
-306.2500180946
 31
0.0
  0
LINE
  5
148
330
1F
100
AcDbEntity
  8
0
  6
Continuous
 62
     7
370
    25
100
AcDbLine
 10
520.0118667128
 20
-313.9485384535
 30
0.0
 11
521.274579163
 21
-314.9311661898
 31
0.0
  0
LINE
  5
149
330
1F
100
AcDbEntity
  8
0
  6
Continuous
 62
     7
370
    25
100
AcDbLine
 10
526.7674323996
 20
-305.2673903583
 30
0.0
 11
520.0118667128
 21
-313.9485384535
 31
0.0
  0
LINE
  5
14A
330
1F
100
AcDbEntity
  8
0
  6
Continuous
 62
     7
370
    25
100
AcDbLine
 10
528.0301448499
 20
-306.2500180946
 30
0.0
 11
526.7674323996
 21
-305.2673903583
 31
0.0
  0
LINE
  5
14B
330
1F
100
AcDbEntity
  8
0
  6
Continuous
 62
     7
370
    25
100
AcDbLine
 10
541.0044611974
 20
-330.2847245691
 30
0.0
 11
547.7600268843
 21
-321.6035764739
 31
0.0
  0
LINE
  5
14C
330
1F
100
AcDbEntity
  8
0
  6
Continuous
 62
     7
370
    25
100
AcDbLine
 10
539.7417487472
 20
-329.3020968328
 30
0.0
 11
541.0044611974
 21
-330.2847245691
 31
0.0
  0
LINE
  5
14D
330
1F
100
AcDbEntity
  8
0
  6
Continuous
 62
     7
370
    25
100
AcDbLine
 10
546.4973144341
 20
-320.6209487376
 30
0.0
 11
539.7417487472
 21
-329.3020968328
 31
0.0
  0
LINE
  5
14E
330
1F
100
AcDbEntity
  8
0
  6
Continuous
 62
     7
370
    25
100
AcDbLine
 10
547.7600268843
 20
-321.6035764739
 30
0.0
 11
546.4973144341
 21
-320.6209487376
 31
0.0
  0
LINE
  5
14F
330
1F
100
AcDbEntity
  8
0
  6
Continuous
 62
     7
370
    25
100
AcDbLine
 10
560.7343432319
 20
-345.6382829484
 30
0.0
 11
567.4899089188
 21
-336.9571348532
 31
0.0
  0
LINE
  5
150
330
1F
100
AcDbEntity
  8
0
  6
Continuous
 62
     7
370
    25
100
AcDbLine
 10
559.4716307817
 20
-344.6556552121
 30
0.0
 11
560.7343432319
 21
-345.6382829484
 31
0.0
  0
LINE
  5
151
330
1F
100
AcDbEntity
  8
0
  6
Continuous
 62
     7
370
    25
100
AcDbLine
 10
566.2271964686
 20
-335.9745071169
 30
0.0
 11
559.4716307817
 21
-344.6556552121
 31
0.0
  0
LINE
  5
152
330
1F
100
AcDbEntity
  8
0
  6
Continuous
 62
     7
370
    25
100
AcDbLine
 10
567.4899089188
 20
-336.9571348532
 30
0.0
 11
566.2271964686
 21
-335.9745071169
 31
0.0
  0
LINE
  5
153
330
1F
100
AcDbEntity
  8
0
  6
Continuous
 62
     7
370
    25
100
AcDbLine
 10
580.4642252663
 20
-360.9918413276
 30
0.0
 11
587.2197909532
 21
-352.3106932325
 31
0.0
  0
LINE
  5
154
330
1F
100
AcDbEntity
  8
0
  6
Continuous
 62
     7
370
    25
100
AcDbLine
 10
579.2015128161
 20
-360.0092135914
 30
0.0
 11
580.4642252663
 21
-360.9918413276
 31
0.0
  0
LINE
  5
155
330
1F
100
AcDbEntity
  8
0
  6
Continuous
 62
     7
370
    25
100
AcDbLine
 10
585.957078503
 20
-351.3280654962
 30
0.0
 11
579.2015128161
 21
-360.0092135914
 31
0.0
  0
LINE
  5
156
330
1F
100
AcDbEntity
  8
0
  6
Continuous
 62
     7
370
    25
100
AcDbLine
 10
587.2197909532
 20
-352.3106932325
 30
0.0
 11
585.957078503
 21
-351.3280654962
 31
0.0
  0
LINE
  5
157
330
1F
100
AcDbEntity
  8
0
  6
Continuous
 62
     7
370
    25
100
AcDbLine
 10
600.1941073008
 20
-376.3453997069
 30
0.0
 11
606.9496729877
 21
-367.6642516118
 31
0.0
  0
LINE
  5
158
330
1F
100
AcDbEntity
  8
0
  6
Continuous
 62
     7
370
    25
100
AcDbLine
 10
598.9313948506
 20
-375.3627719707
 30
0.0
 11
600.1941073008
 21
-376.3453997069
 31
0.0
  0
LINE
  5
159
330
1F
100
AcDbEntity
  8
0
  6
Continuous
 62
     7
370
    25
100
AcDbLine
 10
605.6869605375
 20
-366.6816238755
 30
0.0
 11
598.9313948506
 21
-375.3627719707
 31
0.0
  0
LINE
  5
15A
330
1F
100
AcDbEntity
  8
0
  6
Continuous
 62
     7
370
    25
100
AcDbLine
 10
606.9496729877
 20
-367.6642516118
 30
0.0
 11
605.6869605375
 21
-366.6816238755
 31
0.0
  0
LINE
  5
15B
330
1F
100
AcDbEntity
  8
0
  6
Continuous
 62
     7
370
    25
100
AcDbLine
 10
619.9239893352
 20
-391.6989580862
 30
0.0
 11
626.6795550221
 21
-383.0178099911
 31
0.0
  0
LINE
  5
15C
330
1F
100
AcDbEntity
  8
0
  6
Continuous
 62
     7
370
    25
100
AcDbLine
 10
618.661276885
 20
-390.71633035
 30
0.0
 11
619.9239893352
 21
-391.6989580862
 31
0.0
  0
LINE
  5
15D
330
1F
100
AcDbEntity
  8
0
  6
Continuous
 62
     7
370
    25
100
AcDbLine
 10
625.4168425719
 20
-382.0351822548
 30
0.0
 11
618.661276885
 21
-390.71633035
 31
0.0
  0
LINE
  5
15E
330
1F
100
AcDbEntity
  8
0
  6
Continuous
 62
     7
370
    25
100
AcDbLine
 10
626.6795550221
 20
-383.0178099911
 30
0.0
 11
625.4168425719
 21
-382.0351822548
 31
0.0
  0
LINE
  5
15F
330
1F
100
AcDbEntity
  8
0
  6
Continuous
 62
     7
370
    25
100
AcDbLine
 10
639.6538713697
 20
-407.0525164655
 30
0.0
 11
646.4094370566
 21
-398.3713683704
 31
0.0
  0
LINE
  5
160
330
1F
100
AcDbEntity
  8
0
  6
Continuous
 62
     7
370
    25
100
AcDbLine
 10
638.3911589195
 20
-406.0698887293
 30
0.0
 11
639.6538713697
 21
-407.0525164655
 31
0.0
  0
LINE
  5
161
330
1F
100
AcDbEntity
  8
0
  6
Continuous
 62
     7
370
    25
100
AcDbLine
 10
645.1467246064
 20
-397.3887406341
 30
0.0
 11
638.3911589195
 21
-406.0698887293
 31
0.0
  0
LINE
  5
162
330
1F
100
AcDbEntity
  8
0
  6
Continuous
 62
     7
370
    25
100
AcDbLine
 10
646.4094370566
 20
-398.3713683704
 30
0.0
 11
645.1467246064
 21
-397.3887406341
 31
0.0
  0
LINE
  5
163
330
1F
100
AcDbEntity
  8
0
  6
Continuous
 62
     7
370
    25
100
AcDbLine
 10
659.3837534041
 20
-422.4060748448
 30
0.0
 11
666.139319091
 21
-413.7249267497
 31
0.0
  0
LINE
  5
164
330
1F
100
AcDbEntity
  8
0
  6
Continuous
 62
     7
370
    25
100
AcDbLine
 10
658.1210409539
 20
-421.4234471086
 30
0.0
 11
659.3837534041
 21
-422.4060748448
 31
0.0
  0
LINE
  5
165
330
1F
100
AcDbEntity
  8
0
  6
Continuous
 62
     7
370
    25
100
AcDbLine
 10
664.8766066408
 20
-412.7422990134
 30
0.0
 11
658.1210409539
 21
-421.4234471086
 31
0.0
  0
LINE
  5
166
330
1F
100
AcDbEntity
  8
0
  6
Continuous
 62
     7
370
    25
100
AcDbLine
 10
666.139319091
 20
-413.7249267497
 30
0.0
 11
664.8766066408
 21
-412.7422990134
 31
0.0
  0
LINE
  5
167
330
1F
100
AcDbEntity
  8
0
  6
Continuous
 62
     7
370
    25
100
AcDbLine
 10
679.1136354386
 20
-437.7596332241
 30
0.0
 11
685.8692011255
 21
-429.078485129
 31
0.0
  0
LINE
  5
168
330
1F
100
AcDbEntity
  8
0
  6
Continuous
 62
     7
370
    25
100
AcDbLine
 10
677.8509229884
 20
-436.7770054879
 30
0.0
 11
679.1136354386
 21
-437.7596332241
 31
0.0
  0
LINE
  5
169
330
1F
100
AcDbEntity
  8
0
  6
Continuous
 62
     7
370
    25
100
AcDbLine
 10
684.6064886753
 20
-428.0958573927
 30
0.0
 11
677.8509229884
 21
-436.7770054879
 31
0.0
  0
LINE
  5
16A
330
1F
100
AcDbEntity
  8
0
  6
Continuous
 62
     7
370
    25
100
AcDbLine
 10
685.8692011255
 20
-429.078485129
 30
0.0
 11
684.6064886753
 21
-428.0958573927
 31
0.0
  0
LINE
  5
16B
330
1F
100
AcDbEntity
  8
0
  6
Continuous
 62
     7
370
    25
100
AcDbLine
 10
698.8435174731
 20
-453.1131916034
 30
0.0
 11
705.5990831599
 21
-444.4320435083
 31
0.0
  0
LINE
  5
16C
330
1F
100
AcDbEntity
  8
0
  6
Continuous
 62
     7
370
    25
100
AcDbLine
 10
697.5808050228
 20
-452.1305638672
 30
0.0
 11
698.8435174731
 21
-453.1131916034
 31
0.0
  0
LINE
  5
16D
330
1F
100
AcDbEntity
  8
0
  6
Continuous
 62
     7
370
    25
100
AcDbLine
 10
704.3363707097
 20
-443.449415772
 30
0.0
 11
697.5808050228
 21
-452.1305638672
 31
0.0
  0
LINE
  5
16E
330
1F
100
AcDbEntity
  8
0
  6
Continuous
 62
     7
370
    25
100
AcDbLine
 10
705.5990831599
 20
-444.4320435083
 30
0.0
 11
704.3363707097
 21
-443.449415772
 31
0.0
  0
LINE
  5
16F
330
1F
100
AcDbEntity
  8
0
  6
Continuous
 62
     7
370
    25
100
AcDbLine
 10
718.5733995075
 20
-468.4667499827
 30
0.0
 11
725.3289651944
 21
-459.7856018876
 31
0.0
  0
LINE
  5
170
330
1F
100
AcDbEntity
  8
0
  6
Continuous
 62
     7
370
    25
100
AcDbLine
 10
717.3106870573
 20
-467.4841222465
 30
0.0
 11
718.5733995075
 21
-468.4667499827
 31
0.0
  0
LINE
  5
171
330
1F
100
AcDbEntity
  8
0
  6
Continuous
 62
     7
370
    25
100
AcDbLine
 10
724.0662527442
 20
-458.8029741513
 30
0.0
 11
717.3106870573
 21
-467.4841222465
 31
0.0
  0
LINE
  5
172
330
1F
100
AcDbEntity
  8
0
  6
Continuous
 62
     7
370
    25
100
AcDbLine
 10
725.3289651944
 20
-459.7856018876
 30
0.0
 11
724.0662527442
 21
-458.8029741513
 31
0.0
  0
LINE
  5
173
330
1F
100
AcDbEntity
  8
0
  6
Continuous
 62
     7
370
    25
100
AcDbLine
 10
738.303281542
 20
-483.820308362
 30
0.0
 11
745.0588472289
 21
-475.1391602669
 31
0.0
  0
LINE
  5
174
330
1F
100
AcDbEntity
  8
0
  6
Continuous
 62
     7
370
    25
100
AcDbLine
 10
737.0405690918
 20
-482.8376806258
 30
0.0
 11
738.303281542
 21
-483.820308362
 31
0.0
  0
LINE
  5
175
330
1F
100
AcDbEntity
  8
0
  6
Continuous
 62
     7
370
    25
100
AcDbLine
 10
743.7961347787
 20
-474.1565325306
 30
0.0
 11
737.0405690918
 21
-482.8376806258
 31
0.0
  0
LINE
  5
176
330
1F
100
AcDbEntity
  8
0
  6
Continuous
 62
     7
370
    25
100
AcDbLine
 10
745.0588472289
 20
-475.1391602669
 30
0.0
 11
743.7961347787
 21
-474.1565325306
 31
0.0
  0
LINE
  5
177
330
1F
100
AcDbEntity
  8
0
  6
Continuous
 62
     7
370
    25
100
AcDbLine
 10
758.0331635764
 20
-499.1738667413
 30
0.0
 11
764.7887292633
 21
-490.4927186462
 31
0.0
  0
LINE
  5
178
330
1F
100
AcDbEntity
  8
0
  6
Continuous
 62
     7
370
    25
100
AcDbLine
 10
756.7704511262
 20
-498.1912390051
 30
0.0
 11
758.0331635764
 21
-499.1738667413
 31
0.0
  0
LINE
  5
179
330
1F
100
AcDbEntity
  8
0
  6
Continuous
 62
     7
370
    25
100
AcDbLine
 10
763.5260168131
 20
-489.5100909099
 30
0.0
 11
756.7704511262
 21
-498.1912390051
 31
0.0
  0
LINE
  5
17A
330
1F
100
AcDbEntity
  8
0
  6
Continuous
 62
     7
370
    25
100
AcDbLine
 10
764.7887292633
 20
-490.4927186462
 30
0.0
 11
763.5260168131
 21
-489.5100909099
 31
0.0
  0
LINE
  5
17B
330
1F
100
AcDbEntity
  8
0
  6
Continuous
 62
     7
370
    25
100
AcDbLine
 10
128.1599967498
 20
75.4601369133
 30
0.0
 11
134.9155624366
 21
84.1412850085
 31
0.0
  0
LINE
  5
17C
330
1F
100
AcDbEntity
  8
0
  6
Continuous
 62
     7
370
    25
100
AcDbLine
 10
126.8972842995
 20
76.4427646496
 30
0.0
 11
128.1599967498
 21
75.4601369133
 31
0.0
  0
LINE
  5
17D
330
1F
100
AcDbEntity
  8
0
  6
Continuous
 62
     7
370
    25
100
AcDbLine
 10
133.6528499864
 20
85.1239127448
 30
0.0
 11
126.8972842995
 21
76.4427646496
 31
0.0
  0
LINE
  5
17E
330
1F
100
AcDbEntity
  8
0
  6
Continuous
 62
     7
370
    25
100
AcDbLine
 10
134.9155624366
 20
84.1412850085
 30
0.0
 11
133.6528499864
 21
85.1239127448
 31
0.0
  0
LINE
  5
17F
330
1F
100
AcDbEntity
  8
0
  6
Continuous
 62
     7
370
    25
100
AcDbLine
 10
147.8898787842
 20
60.106578534
 30
0.0
 11
154.6454444711
 21
68.7877266292
 31
0.0
  0
LINE
  5
180
330
1F
100
AcDbEntity
  8
0
  6
Continuous
 62
     7
370
    25
100
AcDbLine
 10
146.627166334
 20
61.0892062703
 30
0.0
 11
147.8898787842
 21
60.106578534
 31
0.0
  0
LINE
  5
181
330
1F
100
AcDbEntity
  8
0
  6
Continuous
 62
     7
370
    25
100
AcDbLine
 10
153.3827320209
 20
69.7703543655
 30
0.0
 11
146.627166334
 21
61.0892062703
 31
0.0
  0
LINE
  5
182
330
1F
100
AcDbEntity
  8
0
  6
Continuous
 62
     7
370
    25
100
AcDbLine
 10
154.6454444711
 20
68.7877266292
 30
0.0
 11
153.3827320209
 21
69.7703543655
 31
0.0
  0
LINE
  5
183
330
1F
100
AcDbEntity
  8
0
  6
Continuous
 62
     7
370
    25
100
AcDbLine
 10
167.6197608187
 20
44.7530201547
 30
0.0
 11
174.3753265056
 21
53.4341682499
 31
0.0
  0
LINE
  5
184
330
1F
100
AcDbEntity
  8
0
  6
Continuous
 62
     7
370
    25
100
AcDbLine
 10
166.3570483685
 20
45.735647891
 30
0.0
 11
167.6197608187
 21
44.7530201547
 31
0.0
  0
LINE
  5
185
330
1F
100
AcDbEntity
  8
0
  6
Continuous
 62
     7
370
    25
100
AcDbLine
 10
173.1126140553
 20
54.4167959862
 30
0.0
 11
166.3570483685
 21
45.735647891
 31
0.0
  0
LINE
  5
186
330
1F
100
AcDbEntity
  8
0
  6
Continuous
 62
     7
370
    25
100
AcDbLine
 10
174.3753265056
 20
53.4341682499
 30
0.0
 11
173.1126140553
 21
54.4167959862
 31
0.0
  0
LINE
  5
187
330
1F
100
AcDbEntity
  8
0
  6
Continuous
 62
     7
370
    25
100
AcDbLine
 10
187.3496428531
 20
29.3994617754
 30
0.0
 11
194.10520854
 21
38.0806098706
 31
0.0
  0
LINE
  5
188
330
1F
100
AcDbEntity
  8
0
  6
Continuous
 62
     7
370
    25
100
AcDbLine
 10
186.0869304029
 20
30.3820895117
 30
0.0
 11
187.3496428531
 21
29.3994617754
 31
0.0
  0
LINE
  5
189
330
1F
100
AcDbEntity
  8
0
  6
Continuous
 62
     7
370
    25
100
AcDbLine
 10
192.8424960898
 20
39.0632376069
 30
0.0
 11
186.0869304029
 21
30.3820895117
 31
0.0
  0
LINE
  5
18A
330
1F
100
AcDbEntity
  8
0
  6
Continuous
 62
     7
370
    25
100
AcDbLine
 10
194.10520854
 20
38.0806098706
 30
0.0
 11
192.8424960898
 21
39.0632376069
 31
0.0
  0
LINE
  5
18B
330
1F
100
AcDbEntity
  8
0
  6
Continuous
 62
     7
370
    25
100
AcDbLine
 10
207.0795248876
 20
14.0459033961
 30
0.0
 11
213.8350905745
 21
22.7270514913
 31
0.0
  0
LINE
  5
18C
330
1F
100
AcDbEntity
  8
0
  6
Continuous
 62
     7
370
    25
100
AcDbLine
 10
205.8168124374
 20
15.0285311324
 30
0.0
 11
207.0795248876
 21
14.0459033961
 31
0.0
  0
LINE
  5
18D
330
1F
100
AcDbEntity
  8
0
  6
Continuous
 62
     7
370
    25
100
AcDbLine
 10
212.5723781243
 20
23.7096792276
 30
0.0
 11
205.8168124374
 21
15.0285311324
 31
0.0
  0
LINE
  5
18E
330
1F
100
AcDbEntity
  8
0
  6
Continuous
 62
     7
370
    25
100
AcDbLine
 10
213.8350905745
 20
22.7270514913
 30
0.0
 11
212.5723781243
 21
23.7096792276
 31
0.0
  0
LINE
  5
18F
330
1F
100
AcDbEntity
  8
0
  6
Continuous
 62
     7
370
    25
100
AcDbLine
 10
226.809406922
 20
-1.3076549832
 30
0.0
 11
233.5649726089
 21
7.373493112
 31
0.0
  0
LINE
  5
190
330
1F
100
AcDbEntity
  8
0
  6
Continuous
 62
     7
370
    25
100
AcDbLine
 10
225.5466944718
 20
-0.3250272469
 30
0.0
 11
226.809406922
 21
-1.3076549832
 31
0.0
  0
LINE
  5
191
330
1F
100
AcDbEntity
  8
0
  6
Continuous
 62
     7
370
    25
100
AcDbLine
 10
232.3022601587
 20
8.3561208483
 30
0.0
 11
225.5466944718
 21
-0.3250272469
 31
0.0
  0
LINE
  5
192
330
1F
100
AcDbEntity
  8
0
  6
Continuous
 62
     7
370
    25
100
AcDbLine
 10
233.5649726089
 20
7.373493112
 30
0.0
 11
232.3022601587
 21
8.3561208483
 31
0.0
  0
LINE
  5
193
330
1F
100
AcDbEntity
  8
0
  6
Continuous
 62
     7
370
    25
100
AcDbLine
 10
246.5392889565
 20
-16.6612133624
 30
0.0
 11
253.2948546434
 21
-7.9800652673
 31
0.0
  0
LINE
  5
194
330
1F
100
AcDbEntity
  8
0
  6
Continuous
 62
     7
370
    25
100
AcDbLine
 10
245.2765765063
 20
-15.6785856262
 30
0.0
 11
246.5392889565
 21
-16.6612133624
 31
0.0
  0
LINE
  5
195
330
1F
100
AcDbEntity
  8
0
  6
Continuous
 62
     7
370
    25
100
AcDbLine
 10
252.0321421932
 20
-6.997437531
 30
0.0
 11
245.2765765063
 21
-15.6785856262
 31
0.0
  0
LINE
  5
196
330
1F
100
AcDbEntity
  8
0
  6
Continuous
 62
     7
370
    25
100
AcDbLine
 10
253.2948546434
 20
-7.9800652673
 30
0.0
 11
252.0321421932
 21
-6.997437531
 31
0.0
  0
LINE
  5
197
330
1F
100
AcDbEntity
  8
0
  6
Continuous
 62
     7
370
    25
100
AcDbLine
 10
266.2691709909
 20
-32.0147717417
 30
0.0
 11
273.0247366778
 21
-23.3336236466
 31
0.0
  0
LINE
  5
198
330
1F
100
AcDbEntity
  8
0
  6
Continuous
 62
     7
370
    25
100
AcDbLine
 10
265.0064585407
 20
-31.0321440055
 30
0.0
 11
266.2691709909
 21
-32.0147717417
 31
0.0
  0
LINE
  5
199
330
1F
100
AcDbEntity
  8
0
  6
Continuous
 62
     7
370
    25
100
AcDbLine
 10
271.7620242276
 20
-22.3509959103
 30
0.0
 11
265.0064585407
 21
-31.0321440055
 31
0.0
  0
LINE
  5
19A
330
1F
100
AcDbEntity
  8
0
  6
Continuous
 62
     7
370
    25
100
AcDbLine
 10
273.0247366778
 20
-23.3336236466
 30
0.0
 11
271.7620242276
 21
-22.3509959103
 31
0.0
  0
LINE
  5
19B
330
1F
100
AcDbEntity
  8
0
  6
Continuous
 62
     7
370
    25
100
AcDbLine
 10
285.9990530254
 20
-47.368330121
 30
0.0
 11
292.7546187123
 21
-38.6871820259
 31
0.0
  0
LINE
  5
19C
330
1F
100
AcDbEntity
  8
0
  6
Continuous
 62
     7
370
    25
100
AcDbLine
 10
284.7363405752
 20
-46.3857023848
 30
0.0
 11
285.9990530254
 21
-47.368330121
 31
0.0
  0
LINE
  5
19D
330
1F
100
AcDbEntity
  8
0
  6
Continuous
 62
     7
370
    25
100
AcDbLine
 10
291.4919062621
 20
-37.7045542896
 30
0.0
 11
284.7363405752
 21
-46.3857023848
 31
0.0
  0
LINE
  5
19E
330
1F
100
AcDbEntity
  8
0
  6
Continuous
 62
     7
370
    25
100
AcDbLine
 10
292.7546187123
 20
-38.6871820259
 30
0.0
 11
291.4919062621
 21
-37.7045542896
 31
0.0
  0
LINE
  5
19F
330
1F
100
AcDbEntity
  8
0
  6
Continuous
 62
     7
370
    25
100
AcDbLine
 10
305.7289350598
 20
-62.7218885003
 30
0.0
 11
312.4845007467
 21
-54.0407404052
 31
0.0
  0
LINE
  5
1A0
330
1F
100
AcDbEntity
  8
0
  6
Continuous
 62
     7
370
    25
100
AcDbLine
 10
304.4662226096
 20
-61.7392607641
 30
0.0
 11
305.7289350598
 21
-62.7218885003
 31
0.0
  0
LINE
  5
1A1
330
1F
100
AcDbEntity
  8
0
  6
Continuous
 62
     7
370
    25
100
AcDbLine
 10
311.2217882965
 20
-53.0581126689
 30
0.0
 11
304.4662226096
 21
-61.7392607641
 31
0.0
  0
LINE
  5
1A2
330
1F
100
AcDbEntity
  8
0
  6
Continuous
 62
     7
370
    25
100
AcDbLine
 10
312.4845007467
 20
-54.0407404052
 30
0.0
 11
311.2217882965
 21
-53.0581126689
 31
0.0
  0
LINE
  5
1A3
330
1F
100
AcDbEntity
  8
0
  6
Continuous
 62
     7
370
    25
100
AcDbLine
 10
325.4588170943
 20
-78.0754468796
 30
0.0
 11
332.2143827812
 21
-69.3942987845
 31
0.0
  0
LINE
  5
1A4
330
1F
100
AcDbEntity
  8
0
  6
Continuous
 62
     7
370
    25
100
AcDbLine
 10
324.1961046441
 20
-77.0928191434
 30
0.0
 11
325.4588170943
 21
-78.0754468796
 31
0.0
  0
LINE
  5
1A5
330
1F
100
AcDbEntity
  8
0
  6
Continuous
 62
     7
370
    25
100
AcDbLine
 10
330.951670331
 20
-68.4116710482
 30
0.0
 11
324.1961046441
 21
-77.0928191434
 31
0.0
  0
LINE
  5
1A6
330
1F
100
AcDbEntity
  8
0
  6
Continuous
 62
     7
370
    25
100
AcDbLine
 10
332.2143827812
 20
-69.3942987845
 30
0.0
 11
330.951670331
 21
-68.4116710482
 31
0.0
  0
LINE
  5
1A7
330
1F
100
AcDbEntity
  8
0
  6
Continuous
 62
     7
370
    25
100
AcDbLine
 10
345.1886991288
 20
-93.4290052589
 30
0.0
 11
351.9442648156
 21
-84.7478571638
 31
0.0
  0
LINE
  5
1A8
330
1F
100
AcDbEntity
  8
0
  6
Continuous
 62
     7
370
    25
100
AcDbLine
 10
343.9259866785
 20
-92.4463775227
 30
0.0
 11
345.1886991288
 21
-93.4290052589
 31
0.0
  0
LINE
  5
1A9
330
1F
100
AcDbEntity
  8
0
  6
Continuous
 62
     7
370
    25
100
AcDbLine
 10
350.6815523654
 20
-83.7652294275
 30
0.0
 11
343.9259866785
 21
-92.4463775227
 31
0.0
  0
LINE
  5
1AA
330
1F
100
AcDbEntity
  8
0
  6
Continuous
 62
     7
370
    25
100
AcDbLine
 10
351.9442648156
 20
-84.7478571638
 30
0.0
 11
350.6815523654
 21
-83.7652294275
 31
0.0
  0
LINE
  5
1AB
330
1F
100
AcDbEntity
  8
0
  6
Continuous
 62
     7
370
    25
100
AcDbLine
 10
364.9185811632
 20
-108.7825636382
 30
0.0
 11
371.6741468501
 21
-100.1014155431
 31
0.0
  0
LINE
  5
1AC
330
1F
100
AcDbEntity
  8
0
  6
Continuous
 62
     7
370
    25
100
AcDbLine
 10
363.655868713
 20
-107.799935902
 30
0.0
 11
364.9185811632
 21
-108.7825636382
 31
0.0
  0
LINE
  5
1AD
330
1F
100
AcDbEntity
  8
0
  6
Continuous
 62
     7
370
    25
100
AcDbLine
 10
370.4114343999
 20
-99.1187878068
 30
0.0
 11
363.655868713
 21
-107.799935902
 31
0.0
  0
LINE
  5
1AE
330
1F
100
AcDbEntity
  8
0
  6
Continuous
 62
     7
370
    25
100
AcDbLine
 10
371.6741468501
 20
-100.1014155431
 30
0.0
 11
370.4114343999
 21
-99.1187878068
 31
0.0
  0
LINE
  5
1AF
330
1F
100
AcDbEntity
  8
0
  6
Continuous
 62
     7
370
    25
100
AcDbLine
 10
384.6484631977
 20
-124.1361220175
 30
0.0
 11
391.4040288846
 21
-115.4549739224
 31
0.0
  0
LINE
  5
1B0
330
1F
100
AcDbEntity
  8
0
  6
Continuous
 62
     7
370
    25
100
AcDbLine
 10
383.3857507475
 20
-123.1534942813
 30
0.0
 11
384.6484631977
 21
-124.1361220175
 31
0.0
  0
LINE
  5
1B1
330
1F
100
AcDbEntity
  8
0
  6
Continuous
 62
     7
370
    25
100
AcDbLine
 10
390.1413164343
 20
-114.4723461861
 30
0.0
 11
383.3857507475
 21
-123.1534942813
 31
0.0
  0
LINE
  5
1B2
330
1F
100
AcDbEntity
  8
0
  6
Continuous
 62
     7
370
    25
100
AcDbLine
 10
391.4040288846
 20
-115.4549739224
 30
0.0
 11
390.1413164343
 21
-114.4723461861
 31
0.0
  0
LINE
  5
1B3
330
1F
100
AcDbEntity
  8
0
  6
Continuous
 62
     7
370
    25
100
AcDbLine
 10
404.3783452321
 20
-139.4896803968
 30
0.0
 11
411.133910919
 21
-130.8085323017
 31
0.0
  0
LINE
  5
1B4
330
1F
100
AcDbEntity
  8
0
  6
Continuous
 62
     7
370
    25
100
AcDbLine
 10
403.1156327819
 20
-138.5070526606
 30
0.0
 11
404.3783452321
 21
-139.4896803968
 31
0.0
  0
LINE
  5
1B5
330
1F
100
AcDbEntity
  8
0
  6
Continuous
 62
     7
370
    25
100
AcDbLine
 10
409.8711984688
 20
-129.8259045654
 30
0.0
 11
403.1156327819
 21
-138.5070526606
 31
0.0
  0
LINE
  5
1B6
330
1F
100
AcDbEntity
  8
0
  6
Continuous
 62
     7
370
    25
100
AcDbLine
 10
411.133910919
 20
-130.8085323017
 30
0.0
 11
409.8711984688
 21
-129.8259045654
 31
0.0
  0
LINE
  5
1B7
330
1F
100
AcDbEntity
  8
0
  6
Continuous
 62
     7
370
    25
100
AcDbLine
 10
424.1082272666
 20
-154.8432387761
 30
0.0
 11
430.8637929535
 21
-146.162090681
 31
0.0
  0
LINE
  5
1B8
330
1F
100
AcDbEntity
  8
0
  6
Continuous
 62
     7
370
    25
100
AcDbLine
 10
422.8455148164
 20
-153.8606110399
 30
0.0
 11
424.1082272666
 21
-154.8432387761
 31
0.0
  0
LINE
  5
1B9
330
1F
100
AcDbEntity
  8
0
  6
Continuous
 62
     7
370
    25
100
AcDbLine
 10
429.6010805033
 20
-145.1794629447
 30
0.0
 11
422.8455148164
 21
-153.8606110399
 31
0.0
  0
LINE
  5
1BA
330
1F
100
AcDbEntity
  8
0
  6
Continuous
 62
     7
370
    25
100
AcDbLine
 10
430.8637929535
 20
-146.162090681
 30
0.0
 11
429.6010805033
 21
-145.1794629447
 31
0.0
  0
LINE
  5
1BB
330
1F
100
AcDbEntity
  8
0
  6
Continuous
 62
     7
370
    25
100
AcDbLine
 10
443.838109301
 20
-170.1967971554
 30
0.0
 11
450.5936749879
 21
-161.5156490603
 31
0.0
  0
LINE
  5
1BC
330
1F
100
AcDbEntity
  8
0
  6
Continuous
 62
     7
370
    25
100
AcDbLine
 10
442.5753968508
 20
-169.2141694192
 30
0.0
 11
443.838109301
 21
-170.1967971554
 31
0.0
  0
LINE
  5
1BD
330
1F
100
AcDbEntity
  8
0
  6
Continuous
 62
     7
370
    25
100
AcDbLine
 10
449.3309625377
 20
-160.533021324
 30
0.0
 11
442.5753968508
 21
-169.2141694192
 31
0.0
  0
LINE
  5
1BE
330
1F
100
AcDbEntity
  8
0
  6
Continuous
 62
     7
370
    25
100
AcDbLine
 10
450.5936749879
 20
-161.5156490603
 30
0.0
 11
449.3309625377
 21
-160.533021324
 31
0.0
  0
LINE
  5
1BF
330
1F
100
AcDbEntity
  8
0
  6
Continuous
 62
     7
370
    25
100
AcDbLine
 10
463.5679913355
 20
-185.5503555347
 30
0.0
 11
470.3235570224
 21
-176.8692074396
 31
0.0
  0
LINE
  5
1C0
330
1F
100
AcDbEntity
  8
0
  6
Continuous
 62
     7
370
    25
100
AcDbLine
 10
462.3052788853
 20
-184.5677277984
 30
0.0
 11
463.5679913355
 21
-185.5503555347
 31
0.0
  0
LINE
  5
1C1
330
1F
100
AcDbEntity
  8
0
  6
Continuous
 62
     7
370
    25
100
AcDbLine
 10
469.0608445722
 20
-175.8865797033
 30
0.0
 11
462.3052788853
 21
-184.5677277984
 31
0.0
  0
LINE
  5
1C2
330
1F
100
AcDbEntity
  8
0
  6
Continuous
 62
     7
370
    25
100
AcDbLine
 10
470.3235570224
 20
-176.8692074396
 30
0.0
 11
469.0608445722
 21
-175.8865797033
 31
0.0
  0
LINE
  5
1C3
330
1F
100
AcDbEntity
  8
0
  6
Continuous
 62
     7
370
    25
100
AcDbLine
 10
483.2978733699
 20
-200.903913914
 30
0.0
 11
490.0534390568
 21
-192.2227658189
 31
0.0
  0
LINE
  5
1C4
330
1F
100
AcDbEntity
  8
0
  6
Continuous
 62
     7
370
    25
100
AcDbLine
 10
482.0351609197
 20
-199.9212861777
 30
0.0
 11
483.2978733699
 21
-200.903913914
 31
0.0
  0
LINE
  5
1C5
330
1F
100
AcDbEntity
  8
0
  6
Continuous
 62
     7
370
    25
100
AcDbLine
 10
488.7907266066
 20
-191.2401380826
 30
0.0
 11
482.0351609197
 21
-199.9212861777
 31
0.0
  0
LINE
  5
1C6
330
1F
100
AcDbEntity
  8
0
  6
Continuous
 62
     7
370
    25
100
AcDbLine
 10
490.0534390568
 20
-192.2227658189
 30
0.0
 11
488.7907266066
 21
-191.2401380826
 31
0.0
  0
LINE
  5
1C7
330
1F
100
AcDbEntity
  8
0
  6
Continuous
 62
     7
370
    25
100
AcDbLine
 10
503.0277554044
 20
-216.2574722933
 30
0.0
 11
509.7833210913
 21
-207.5763241982
 31
0.0
  0
LINE
  5
1C8
330
1F
100
AcDbEntity
  8
0
  6
Continuous
 62
     7
370
    25
100
AcDbLine
 10
501.7650429542
 20
-215.274844557
 30
0.0
 11
503.0277554044
 21
-216.2574722933
 31
0.0
  0
LINE
  5
1C9
330
1F
100
AcDbEntity
  8
0
  6
Continuous
 62
     7
370
    25
100
AcDbLine
 10
508.5206086411
 20
-206.5936964619
 30
0.0
 11
501.7650429542
 21
-215.274844557
 31
0.0
  0
LINE
  5
1CA
330
1F
100
AcDbEntity
  8
0
  6
Continuous
 62
     7
370
    25
100
AcDbLine
 10
509.7833210913
 20
-207.5763241982
 30
0.0
 11
508.5206086411
 21
-206.5936964619
 31
0.0
  0
LINE
  5
1CB
330
1F
100
AcDbEntity
  8
0
  6
Continuous
 62
     7
370
    25
100
AcDbLine
 10
522.7576374388
 20
-231.6110306726
 30
0.0
 11
529.5132031257
 21
-222.9298825775
 31
0.0
  0
LINE
  5
1CC
330
1F
100
AcDbEntity
  8
0
  6
Continuous
 62
     7
370
    25
100
AcDbLine
 10
521.4949249886
 20
-230.6284029363
 30
0.0
 11
522.7576374388
 21
-231.6110306726
 31
0.0
  0
LINE
  5
1CD
330
1F
100
AcDbEntity
  8
0
  6
Continuous
 62
     7
370
    25
100
AcDbLine
 10
528.2504906755
 20
-221.9472548412
 30
0.0
 11
521.4949249886
 21
-230.6284029363
 31
0.0
  0
LINE
  5
1CE
330
1F
100
AcDbEntity
  8
0
  6
Continuous
 62
     7
370
    25
100
AcDbLine
 10
529.5132031257
 20
-222.9298825775
 30
0.0
 11
528.2504906755
 21
-221.9472548412
 31
0.0
  0
LINE
  5
1CF
330
1F
100
AcDbEntity
  8
0
  6
Continuous
 62
     7
370
    25
100
AcDbLine
 10
542.4875194733
 20
-246.9645890519
 30
0.0
 11
549.2430851602
 21
-238.2834409568
 31
0.0
  0
LINE
  5
1D0
330
1F
100
AcDbEntity
  8
0
  6
Continuous
 62
     7
370
    25
100
AcDbLine
 10
541.2248070231
 20
-245.9819613156
 30
0.0
 11
542.4875194733
 21
-246.9645890519
 31
0.0
  0
LINE
  5
1D1
330
1F
100
AcDbEntity
  8
0
  6
Continuous
 62
     7
370
    25
100
AcDbLine
 10
547.98037271
 20
-237.3008132205
 30
0.0
 11
541.2248070231
 21
-245.9819613156
 31
0.0
  0
LINE
  5
1D2
330
1F
100
AcDbEntity
  8
0
  6
Continuous
 62
     7
370
    25
100
AcDbLine
 10
549.2430851602
 20
-238.2834409568
 30
0.0
 11
547.98037271
 21
-237.3008132205
 31
0.0
  0
LINE
  5
1D3
330
1F
100
AcDbEntity
  8
0
  6
Continuous
 62
     7
370
    25
100
AcDbLine
 10
562.2174015078
 20
-262.3181474312
 30
0.0
 11
568.9729671946
 21
-253.6369993361
 31
0.0
  0
LINE
  5
1D4
330
1F
100
AcDbEntity
  8
0
  6
Continuous
 62
     7
370
    25
100
AcDbLine
 10
560.9546890576
 20
-261.3355196949
 30
0.0
 11
562.2174015078
 21
-262.3181474312
 31
0.0
  0
LINE
  5
1D5
330
1F
100
AcDbEntity
  8
0
  6
Continuous
 62
     7
370
    25
100
AcDbLine
 10
567.7102547444
 20
-252.6543715998
 30
0.0
 11
560.9546890576
 21
-261.3355196949
 31
0.0
  0
LINE
  5
1D6
330
1F
100
AcDbEntity
  8
0
  6
Continuous
 62
     7
370
    25
100
AcDbLine
 10
568.9729671946
 20
-253.6369993361
 30
0.0
 11
567.7102547444
 21
-252.6543715998
 31
0.0
  0
LINE
  5
1D7
330
1F
100
AcDbEntity
  8
0
  6
Continuous
 62
     7
370
    25
100
AcDbLine
 10
581.9472835422
 20
-277.6717058105
 30
0.0
 11
588.7028492291
 21
-268.9905577153
 31
0.0
  0
LINE
  5
1D8
330
1F
100
AcDbEntity
  8
0
  6
Continuous
 62
     7
370
    25
100
AcDbLine
 10
580.684571092
 20
-276.6890780742
 30
0.0
 11
581.9472835422
 21
-277.6717058105
 31
0.0
  0
LINE
  5
1D9
330
1F
100
AcDbEntity
  8
0
  6
Continuous
 62
     7
370
    25
100
AcDbLine
 10
587.4401367789
 20
-268.0079299791
 30
0.0
 11
580.684571092
 21
-276.6890780742
 31
0.0
  0
LINE
  5
1DA
330
1F
100
AcDbEntity
  8
0
  6
Continuous
 62
     7
370
    25
100
AcDbLine
 10
588.7028492291
 20
-268.9905577153
 30
0.0
 11
587.4401367789
 21
-268.0079299791
 31
0.0
  0
LINE
  5
1DB
330
1F
100
AcDbEntity
  8
0
  6
Continuous
 62
     7
370
    25
100
AcDbLine
 10
601.6771655767
 20
-293.0252641898
 30
0.0
 11
608.4327312636
 21
-284.3441160946
 31
0.0
  0
LINE
  5
1DC
330
1F
100
AcDbEntity
  8
0
  6
Continuous
 62
     7
370
    25
100
AcDbLine
 10
600.4144531265
 20
-292.0426364535
 30
0.0
 11
601.6771655767
 21
-293.0252641898
 31
0.0
  0
LINE
  5
1DD
330
1F
100
AcDbEntity
  8
0
  6
Continuous
 62
     7
370
    25
100
AcDbLine
 10
607.1700188134
 20
-283.3614883584
 30
0.0
 11
600.4144531265
 21
-292.0426364535
 31
0.0
  0
LINE
  5
1DE
330
1F
100
AcDbEntity
  8
0
  6
Continuous
 62
     7
370
    25
100
AcDbLine
 10
608.4327312636
 20
-284.3441160946
 30
0.0
 11
607.1700188134
 21
-283.3614883584
 31
0.0
  0
LINE
  5
1DF
330
1F
100
AcDbEntity
  8
0
  6
Continuous
 62
     7
370
    25
100
AcDbLine
 10
621.4070476111
 20
-308.3788225691
 30
0.0
 11
628.162613298
 21
-299.6976744739
 31
0.0
  0
LINE
  5
1E0
330
1F
100
AcDbEntity
  8
0
  6
Continuous
 62
     7
370
    25
100
AcDbLine
 10
620.1443351609
 20
-307.3961948328
 30
0.0
 11
621.4070476111
 21
-308.3788225691
 31
0.0
  0
LINE
  5
1E1
330
1F
100
AcDbEntity
  8
0
  6
Continuous
 62
     7
370
    25
100
AcDbLine
 10
626.8999008478
 20
-298.7150467377
 30
0.0
 11
620.1443351609
 21
-307.3961948328
 31
0.0
  0
LINE
  5
1E2
330
1F
100
AcDbEntity
  8
0
  6
Continuous
 62
     7
370
    25
100
AcDbLine
 10
628.162613298
 20
-299.6976744739
 30
0.0
 11
626.8999008478
 21
-298.7150467377
 31
0.0
  0
LINE
  5
1E3
330
1F
100
AcDbEntity
  8
0
  6
Continuous
 62
     7
370
    25
100
AcDbLine
 10
641.1369296456
 20
-323.7323809484
 30
0.0
 11
647.8924953325
 21
-315.0512328532
 31
0.0
  0
LINE
  5
1E4
330
1F
100
AcDbEntity
  8
0
  6
Continuous
 62
     7
370
    25
100
AcDbLine
 10
639.8742171954
 20
-322.7497532121
 30
0.0
 11
641.1369296456
 21
-323.7323809484
 31
0.0
  0
LINE
  5
1E5
330
1F
100
AcDbEntity
  8
0
  6
Continuous
 62
     7
370
    25
100
AcDbLine
 10
646.6297828823
 20
-314.068605117
 30
0.0
 11
639.8742171954
 21
-322.7497532121
 31
0.0
  0
LINE
  5
1E6
330
1F
100
AcDbEntity
  8
0
  6
Continuous
 62
     7
370
    25
100
AcDbLine
 10
647.8924953325
 20
-315.0512328532
 30
0.0
 11
646.6297828823
 21
-314.068605117
 31
0.0
  0
LINE
  5
1E7
330
1F
100
AcDbEntity
  8
0
  6
Continuous
 62
     7
370
    25
100
AcDbLine
 10
660.86681168
 20
-339.0859393277
 30
0.0
 11
667.6223773669
 21
-330.4047912325
 31
0.0
  0
LINE
  5
1E8
330
1F
100
AcDbEntity
  8
0
  6
Continuous
 62
     7
370
    25
100
AcDbLine
 10
659.6040992298
 20
-338.1033115914
 30
0.0
 11
660.86681168
 21
-339.0859393277
 31
0.0
  0
LINE
  5
1E9
330
1F
100
AcDbEntity
  8
0
  6
Continuous
 62
     7
370
    25
100
AcDbLine
 10
666.3596649167
 20
-329.4221634963
 30
0.0
 11
659.6040992298
 21
-338.1033115914
 31
0.0
  0
LINE
  5
1EA
330
1F
100
AcDbEntity
  8
0
  6
Continuous
 62
     7
370
    25
100
AcDbLine
 10
667.6223773669
 20
-330.4047912325
 30
0.0
 11
666.3596649167
 21
-329.4221634963
 31
0.0
  0
LINE
  5
1EB
330
1F
100
AcDbEntity
  8
0
  6
Continuous
 62
     7
370
    25
100
AcDbLine
 10
680.5966937145
 20
-354.439497707
 30
0.0
 11
687.3522594014
 21
-345.7583496118
 31
0.0
  0
LINE
  5
1EC
330
1F
100
AcDbEntity
  8
0
  6
Continuous
 62
     7
370
    25
100
AcDbLine
 10
679.3339812643
 20
-353.4568699707
 30
0.0
 11
680.5966937145
 21
-354.439497707
 31
0.0
  0
LINE
  5
1ED
330
1F
100
AcDbEntity
  8
0
  6
Continuous
 62
     7
370
    25
100
AcDbLine
 10
686.0895469512
 20
-344.7757218756
 30
0.0
 11
679.3339812643
 21
-353.4568699707
 31
0.0
  0
LINE
  5
1EE
330
1F
100
AcDbEntity
  8
0
  6
Continuous
 62
     7
370
    25
100
AcDbLine
 10
687.3522594014
 20
-345.7583496118
 30
0.0
 11
686.0895469512
 21
-344.7757218756
 31
0.0
  0
LINE
  5
1EF
330
1F
100
AcDbEntity
  8
0
  6
Continuous
 62
     7
370
    25
100
AcDbLine
 10
700.3265757489
 20
-369.7930560863
 30
0.0
 11
707.0821414358
 21
-361.1119079911
 31
0.0
  0
LINE
  5
1F0
330
1F
100
AcDbEntity
  8
0
  6
Continuous
 62
     7
370
    25
100
AcDbLine
 10
699.0638632987
 20
-368.81042835
 30
0.0
 11
700.3265757489
 21
-369.7930560863
 31
0.0
  0
LINE
  5
1F1
330
1F
100
AcDbEntity
  8
0
  6
Continuous
 62
     7
370
    25
100
AcDbLine
 10
705.8194289856
 20
-360.1292802549
 30
0.0
 11
699.0638632987
 21
-368.81042835
 31
0.0
  0
LINE
  5
1F2
330
1F
100
AcDbEntity
  8
0
  6
Continuous
 62
     7
370
    25
100
AcDbLine
 10
707.0821414358
 20
-361.1119079911
 30
0.0
 11
705.8194289856
 21
-360.1292802549
 31
0.0
  0
LINE
  5
1F3
330
1F
100
AcDbEntity
  8
0
  6
Continuous
 62
     7
370
    25
100
AcDbLine
 10
720.0564577834
 20
-385.1466144656
 30
0.0
 11
726.8120234703
 21
-376.4654663704
 31
0.0
  0
LINE
  5
1F4
330
1F
100
AcDbEntity
  8
0
  6
Continuous
 62
     7
370
    25
100
AcDbLine
 10
718.7937453332
 20
-384.1639867293
 30
0.0
 11
720.0564577834
 21
-385.1466144656
 31
0.0
  0
LINE
  5
1F5
330
1F
100
AcDbEntity
  8
0
  6
Continuous
 62
     7
370
    25
100
AcDbLine
 10
725.5493110201
 20
-375.4828386342
 30
0.0
 11
718.7937453332
 21
-384.1639867293
 31
0.0
  0
LINE
  5
1F6
330
1F
100
AcDbEntity
  8
0
  6
Continuous
 62
     7
370
    25
100
AcDbLine
 10
726.8120234703
 20
-376.4654663704
 30
0.0
 11
725.5493110201
 21
-375.4828386342
 31
0.0
  0
LINE
  5
1F7
330
1F
100
AcDbEntity
  8
0
  6
Continuous
 62
     7
370
    25
100
AcDbLine
 10
739.7863398178
 20
-400.5001728449
 30
0.0
 11
746.5419055047
 21
-391.8190247497
 31
0.0
  0
LINE
  5
1F8
330
1F
100
AcDbEntity
  8
0
  6
Continuous
 62
     7
370
    25
100
AcDbLine
 10
738.5236273676
 20
-399.5175451086
 30
0.0
 11
739.7863398178
 21
-400.5001728449
 31
0.0
  0
LINE
  5
1F9
330
1F
100
AcDbEntity
  8
0
  6
Continuous
 62
     7
370
    25
100
AcDbLine
 10
745.2791930545
 20
-390.8363970135
 30
0.0
 11
738.5236273676
 21
-399.5175451086
 31
0.0
  0
LINE
  5
1FA
330
1F
100
AcDbEntity
  8
0
  6
Continuous
 62
     7
370
    25
100
AcDbLine
 10
746.5419055047
 20
-391.8190247497
 30
0.0
 11
745.2791930545
 21
-390.8363970135
 31
0.0
  0
LINE
  5
1FB
330
1F
100
AcDbEntity
  8
0
  6
Continuous
 62
     7
370
    25
100
AcDbLine
 10
759.5162218523
 20
-415.8537312242
 30
0.0
 11
766.2717875392
 21
-407.172583129
 31
0.0
  0
LINE
  5
1FC
330
1F
100
AcDbEntity
  8
0
  6
Continuous
 62
     7
370
    25
100
AcDbLine
 10
758.2535094021
 20
-414.8711034879
 30
0.0
 11
759.5162218523
 21
-415.8537312242
 31
0.0
  0
LINE
  5
1FD
330
1F
100
AcDbEntity
  8
0
  6
Continuous
 62
     7
370
    25
100
AcDbLine
 10
765.009075089
 20
-406.1899553928
 30
0.0
 11
758.2535094021
 21
-414.8711034879
 31
0.0
  0
LINE
  5
1FE
330
1F
100
AcDbEntity
  8
0
  6
Continuous
 62
     7
370
    25
100
AcDbLine
 10
766.2717875392
 20
-407.172583129
 30
0.0
 11
765.009075089
 21
-406.1899553928
 31
0.0
  0
LINE
  5
1FF
330
1F
100
AcDbEntity
  8
0
  6
Continuous
 62
     7
370
    25
100
AcDbLine
 10
779.2461038868
 20
-431.2072896035
 30
0.0
 11
786.0016695736
 21
-422.5261415083
 31
0.0
  0
LINE
  5
200
330
1F
100
AcDbEntity
  8
0
  6
Continuous
 62
     7
370
    25
100
AcDbLine
 10
777.9833914366
 20
-430.2246618672
 30
0.0
 11
779.2461038868
 21
-431.2072896035
 31
0.0
  0
LINE
  5
201
330
1F
100
AcDbEntity
  8
0
  6
Continuous
 62
     7
370
    25
100
AcDbLine
 10
784.7389571234
 20
-421.543513772
 30
0.0
 11
777.9833914366
 21
-430.2246618672
 31
0.0
  0
LINE
  5
202
330
1F
100
AcDbEntity
  8
0
  6
Continuous
 62
     7
370
    25
100
AcDbLine
 10
786.0016695736
 20
-422.5261415083
 30
0.0
 11
784.7389571234
 21
-421.543513772
 31
0.0
  0
LINE
  5
203
330
1F
100
AcDbEntity
  8
0
  6
Continuous
 62
     7
370
    25
100
AcDbLine
 10
798.9759859212
 20
-446.5608479828
 30
0.0
 11
805.7315516081
 21
-437.8796998876
 31
0.0
  0
LINE
  5
204
330
1F
100
AcDbEntity
  8
0
  6
Continuous
 62
     7
370
    25
100
AcDbLine
 10
797.713273471
 20
-445.5782202465
 30
0.0
 11
798.9759859212
 21
-446.5608479828
 31
0.0
  0
LINE
  5
205
330
1F
100
AcDbEntity
  8
0
  6
Continuous
 62
     7
370
    25
100
AcDbLine
 10
804.4688391579
 20
-436.8970721513
 30
0.0
 11
797.713273471
 21
-445.5782202465
 31
0.0
  0
LINE
  5
206
330
1F
100
AcDbEntity
  8
0
  6
Continuous
 62
     7
370
    25
100
AcDbLine
 10
805.7315516081
 20
-437.8796998876
 30
0.0
 11
804.4688391579
 21
-436.8970721513
 31
0.0
  0
LINE
  5
207
330
1F
100
AcDbEntity
  8
0
  6
Continuous
 62
     7
370
    25
100
AcDbLine
 10
818.7058679557
 20
-461.9144063621
 30
0.0
 11
825.4614336426
 21
-453.2332582669
 31
0.0
  0
LINE
  5
208
330
1F
100
AcDbEntity
  8
0
  6
Continuous
 62
     7
370
    25
100
AcDbLine
 10
817.4431555055
 20
-460.9317786258
 30
0.0
 11
818.7058679557
 21
-461.9144063621
 31
0.0
  0
LINE
  5
209
330
1F
100
AcDbEntity
  8
0
  6
Continuous
 62
     7
370
    25
100
AcDbLine
 10
824.1987211924
 20
-452.2506305306
 30
0.0
 11
817.4431555055
 21
-460.9317786258
 31
0.0
  0
LINE
  5
20A
330
1F
100
AcDbEntity
  8
0
  6
Continuous
 62
     7
370
    25
100
AcDbLine
 10
825.4614336426
 20
-453.2332582669
 30
0.0
 11
824.1987211924
 21
-452.2506305306
 31
0.0
  0
LINE
  5
20B
330
1F
100
AcDbEntity
  8
0
  6
Continuous
 62
     7
370
    25
100
AcDbLine
 10
87.9587035429
 20
64.5071859134
 30
0.0
 11
94.7142692298
 21
73.1883340085
 31
0.0
  0
LINE
  5
20C
330
1F
100
AcDbEntity
  8
0
  6
Continuous
 62
     7
370
    25
100
AcDbLine
 10
86.6959910927
 20
65.4898136496
 30
0.0
 11
87.9587035429
 21
64.5071859134
 31
0.0
  0
LINE
  5
20D
330
1F
100
AcDbEntity
  8
0
  6
Continuous
 62
     7
370
    25
100
AcDbLine
 10
93.4515567796
 20
74.1709617448
 30
0.0
 11
86.6959910927
 21
65.4898136496
 31
0.0
  0
LINE
  5
20E
330
1F
100
AcDbEntity
  8
0
  6
Continuous
 62
     7
370
    25
100
AcDbLine
 10
94.7142692298
 20
73.1883340085
 30
0.0
 11
93.4515567796
 21
74.1709617448
 31
0.0
  0
LINE
  5
20F
330
1F
100
AcDbEntity
  8
0
  6
Continuous
 62
     7
370
    25
100
AcDbLine
 10
798.2344567833
 20
-488.2209157414
 30
0.0
 11
804.9900224702
 21
-479.5397676462
 31
0.0
  0
LINE
  5
210
330
1F
100
AcDbEntity
  8
0
  6
Continuous
 62
     7
370
    25
100
AcDbLine
 10
796.9717443331
 20
-487.2382880051
 30
0.0
 11
798.2344567833
 21
-488.2209157414
 31
0.0
  0
LINE
  5
211
330
1F
100
AcDbEntity
  8
0
  6
Continuous
 62
     7
370
    25
100
AcDbLine
 10
803.72731002
 20
-478.5571399099
 30
0.0
 11
796.9717443331
 21
-487.2382880051
 31
0.0
  0
LINE
  5
212
330
1F
100
AcDbEntity
  8
0
  6
Continuous
 62
     7
370
    25
100
AcDbLine
 10
804.9900224702
 20
-479.5397676462
 30
0.0
 11
803.72731002
 21
-478.5571399099
 31
0.0
  0
LINE
  5
213
330
1F
100
AcDbEntity
  8
0
  6
Continuous
 62
     7
370
    25
100
AcDbLine
 10
67.4872923705
 20
38.2006765341
 30
0.0
 11
74.2428580574
 21
46.8818246292
 31
0.0
  0
LINE
  5
214
330
1F
100
AcDbEntity
  8
0
  6
Continuous
 62
     7
370
    25
100
AcDbLine
 10
66.2245799203
 20
39.1833042704
 30
0.0
 11
67.4872923705
 21
38.2006765341
 31
0.0
  0
LINE
  5
215
330
1F
100
AcDbEntity
  8
0
  6
Continuous
 62
     7
370
    25
100
AcDbLine
 10
72.9801456072
 20
47.8644523655
 30
0.0
 11
66.2245799203
 21
39.1833042704
 31
0.0
  0
LINE
  5
216
330
1F
100
AcDbEntity
  8
0
  6
Continuous
 62
     7
370
    25
100
AcDbLine
 10
74.2428580574
 20
46.8818246292
 30
0.0
 11
72.9801456072
 21
47.8644523655
 31
0.0
  0
LINE
  5
217
330
1F
100
AcDbEntity
  8
0
  6
Continuous
 62
     7
370
    25
100
AcDbLine
 10
777.7630456109
 20
-514.5274251206
 30
0.0
 11
784.5186112978
 21
-505.8462770255
 31
0.0
  0
LINE
  5
218
330
1F
100
AcDbEntity
  8
0
  6
Continuous
 62
     7
370
    25
100
AcDbLine
 10
776.5003331607
 20
-513.5447973844
 30
0.0
 11
777.7630456109
 21
-514.5274251206
 31
0.0
  0
LINE
  5
219
330
1F
100
AcDbEntity
  8
0
  6
Continuous
 62
     7
370
    25
100
AcDbLine
 10
783.2558988476
 20
-504.8636492892
 30
0.0
 11
776.5003331607
 21
-513.5447973844
 31
0.0
  0
LINE
  5
21A
330
1F
100
AcDbEntity
  8
0
  6
Continuous
 62
     7
370
    25
100
AcDbLine
 10
784.5186112978
 20
-505.8462770255
 30
0.0
 11
783.2558988476
 21
-504.8636492892
 31
0.0
  0
LINE
  5
21B
330
1F
100
AcDbEntity
  8
0
  6
Continuous
 62
     7
370
    25
100
AcDbLine
 10
47.0158811981
 20
11.8941671548
 30
0.0
 11
53.771446885
 21
20.57531525
 31
0.0
  0
LINE
  5
21C
330
1F
100
AcDbEntity
  8
0
  6
Continuous
 62
     7
370
    25
100
AcDbLine
 10
45.7531687479
 20
12.8767948911
 30
0.0
 11
47.0158811981
 21
11.8941671548
 31
0.0
  0
LINE
  5
21D
330
1F
100
AcDbEntity
  8
0
  6
Continuous
 62
     7
370
    25
100
AcDbLine
 10
52.5087344348
 20
21.5579429862
 30
0.0
 11
45.7531687479
 21
12.8767948911
 31
0.0
  0
LINE
  5
21E
330
1F
100
AcDbEntity
  8
0
  6
Continuous
 62
     7
370
    25
100
AcDbLine
 10
53.771446885
 20
20.57531525
 30
0.0
 11
52.5087344348
 21
21.5579429862
 31
0.0
  0
LINE
  5
21F
330
1F
100
AcDbEntity
  8
0
  6
Continuous
 62
     7
370
    25
100
AcDbLine
 10
66.7457632326
 20
-3.4593912245
 30
0.0
 11
73.5013289195
 21
5.2217568707
 31
0.0
  0
LINE
  5
220
330
1F
100
AcDbEntity
  8
0
  6
Continuous
 62
     7
370
    25
100
AcDbLine
 10
65.4830507824
 20
-2.4767634882
 30
0.0
 11
66.7457632326
 21
-3.4593912245
 31
0.0
  0
LINE
  5
221
330
1F
100
AcDbEntity
  8
0
  6
Continuous
 62
     7
370
    25
100
AcDbLine
 10
72.2386164692
 20
6.204384607
 30
0.0
 11
65.4830507824
 21
-2.4767634882
 31
0.0
  0
LINE
  5
222
330
1F
100
AcDbEntity
  8
0
  6
Continuous
 62
     7
370
    25
100
AcDbLine
 10
73.5013289195
 20
5.2217568707
 30
0.0
 11
72.2386164692
 21
6.204384607
 31
0.0
  0
LINE
  5
223
330
1F
100
AcDbEntity
  8
0
  6
Continuous
 62
     7
370
    25
100
AcDbLine
 10
86.475645267
 20
-18.8129496038
 30
0.0
 11
93.2312109539
 21
-10.1318015086
 31
0.0
  0
LINE
  5
224
330
1F
100
AcDbEntity
  8
0
  6
Continuous
 62
     7
370
    25
100
AcDbLine
 10
85.2129328168
 20
-17.8303218675
 30
0.0
 11
86.475645267
 21
-18.8129496038
 31
0.0
  0
LINE
  5
225
330
1F
100
AcDbEntity
  8
0
  6
Continuous
 62
     7
370
    25
100
AcDbLine
 10
91.9684985037
 20
-9.1491737723
 30
0.0
 11
85.2129328168
 21
-17.8303218675
 31
0.0
  0
LINE
  5
226
330
1F
100
AcDbEntity
  8
0
  6
Continuous
 62
     7
370
    25
100
AcDbLine
 10
93.2312109539
 20
-10.1318015086
 30
0.0
 11
91.9684985037
 21
-9.1491737723
 31
0.0
  0
LINE
  5
227
330
1F
100
AcDbEntity
  8
0
  6
Continuous
 62
     7
370
    25
100
AcDbLine
 10
106.2055273015
 20
-34.1665079831
 30
0.0
 11
112.9610929884
 21
-25.4853598879
 31
0.0
  0
LINE
  5
228
330
1F
100
AcDbEntity
  8
0
  6
Continuous
 62
     7
370
    25
100
AcDbLine
 10
104.9428148513
 20
-33.1838802468
 30
0.0
 11
106.2055273015
 21
-34.1665079831
 31
0.0
  0
LINE
  5
229
330
1F
100
AcDbEntity
  8
0
  6
Continuous
 62
     7
370
    25
100
AcDbLine
 10
111.6983805382
 20
-24.5027321516
 30
0.0
 11
104.9428148513
 21
-33.1838802468
 31
0.0
  0
LINE
  5
22A
330
1F
100
AcDbEntity
  8
0
  6
Continuous
 62
     7
370
    25
100
AcDbLine
 10
112.9610929884
 20
-25.4853598879
 30
0.0
 11
111.6983805382
 21
-24.5027321516
 31
0.0
  0
LINE
  5
22B
330
1F
100
AcDbEntity
  8
0
  6
Continuous
 62
     7
370
    25
100
AcDbLine
 10
125.9354093359
 20
-49.5200663624
 30
0.0
 11
132.6909750228
 21
-40.8389182672
 31
0.0
  0
LINE
  5
22C
330
1F
100
AcDbEntity
  8
0
  6
Continuous
 62
     7
370
    25
100
AcDbLine
 10
124.6726968857
 20
-48.5374386261
 30
0.0
 11
125.9354093359
 21
-49.5200663624
 31
0.0
  0
LINE
  5
22D
330
1F
100
AcDbEntity
  8
0
  6
Continuous
 62
     7
370
    25
100
AcDbLine
 10
131.4282625726
 20
-39.8562905309
 30
0.0
 11
124.6726968857
 21
-48.5374386261
 31
0.0
  0
LINE
  5
22E
330
1F
100
AcDbEntity
  8
0
  6
Continuous
 62
     7
370
    25
100
AcDbLine
 10
132.6909750228
 20
-40.8389182672
 30
0.0
 11
131.4282625726
 21
-39.8562905309
 31
0.0
  0
LINE
  5
22F
330
1F
100
AcDbEntity
  8
0
  6
Continuous
 62
     7
370
    25
100
AcDbLine
 10
145.6652913704
 20
-64.8736247417
 30
0.0
 11
152.4208570573
 21
-56.1924766465
 31
0.0
  0
LINE
  5
230
330
1F
100
AcDbEntity
  8
0
  6
Continuous
 62
     7
370
    25
100
AcDbLine
 10
144.4025789202
 20
-63.8909970054
 30
0.0
 11
145.6652913704
 21
-64.8736247417
 31
0.0
  0
LINE
  5
231
330
1F
100
AcDbEntity
  8
0
  6
Continuous
 62
     7
370
    25
100
AcDbLine
 10
151.1581446071
 20
-55.2098489102
 30
0.0
 11
144.4025789202
 21
-63.8909970054
 31
0.0
  0
LINE
  5
232
330
1F
100
AcDbEntity
  8
0
  6
Continuous
 62
     7
370
    25
100
AcDbLine
 10
152.4208570573
 20
-56.1924766465
 30
0.0
 11
151.1581446071
 21
-55.2098489102
 31
0.0
  0
LINE
  5
233
330
1F
100
AcDbEntity
  8
0
  6
Continuous
 62
     7
370
    25
100
AcDbLine
 10
165.3951734048
 20
-80.227183121
 30
0.0
 11
172.1507390917
 21
-71.5460350258
 31
0.0
  0
LINE
  5
234
330
1F
100
AcDbEntity
  8
0
  6
Continuous
 62
     7
370
    25
100
AcDbLine
 10
164.1324609546
 20
-79.2445553847
 30
0.0
 11
165.3951734048
 21
-80.227183121
 31
0.0
  0
LINE
  5
235
330
1F
100
AcDbEntity
  8
0
  6
Continuous
 62
     7
370
    25
100
AcDbLine
 10
170.8880266415
 20
-70.5634072895
 30
0.0
 11
164.1324609546
 21
-79.2445553847
 31
0.0
  0
LINE
  5
236
330
1F
100
AcDbEntity
  8
0
  6
Continuous
 62
     7
370
    25
100
AcDbLine
 10
172.1507390917
 20
-71.5460350258
 30
0.0
 11
170.8880266415
 21
-70.5634072895
 31
0.0
  0
LINE
  5
237
330
1F
100
AcDbEntity
  8
0
  6
Continuous
 62
     7
370
    25
100
AcDbLine
 10
185.1250554393
 20
-95.5807415003
 30
0.0
 11
191.8806211262
 21
-86.8995934051
 31
0.0
  0
LINE
  5
238
330
1F
100
AcDbEntity
  8
0
  6
Continuous
 62
     7
370
    25
100
AcDbLine
 10
183.8623429891
 20
-94.598113764
 30
0.0
 11
185.1250554393
 21
-95.5807415003
 31
0.0
  0
LINE
  5
239
330
1F
100
AcDbEntity
  8
0
  6
Continuous
 62
     7
370
    25
100
AcDbLine
 10
190.617908676
 20
-85.9169656688
 30
0.0
 11
183.8623429891
 21
-94.598113764
 31
0.0
  0
LINE
  5
23A
330
1F
100
AcDbEntity
  8
0
  6
Continuous
 62
     7
370
    25
100
AcDbLine
 10
191.8806211262
 20
-86.8995934051
 30
0.0
 11
190.617908676
 21
-85.9169656688
 31
0.0
  0
LINE
  5
23B
330
1F
100
AcDbEntity
  8
0
  6
Continuous
 62
     7
370
    25
100
AcDbLine
 10
204.8549374737
 20
-110.9342998796
 30
0.0
 11
211.6105031606
 21
-102.2531517844
 31
0.0
  0
LINE
  5
23C
330
1F
100
AcDbEntity
  8
0
  6
Continuous
 62
     7
370
    25
100
AcDbLine
 10
203.5922250235
 20
-109.9516721433
 30
0.0
 11
204.8549374737
 21
-110.9342998796
 31
0.0
  0
LINE
  5
23D
330
1F
100
AcDbEntity
  8
0
  6
Continuous
 62
     7
370
    25
100
AcDbLine
 10
210.3477907104
 20
-101.2705240481
 30
0.0
 11
203.5922250235
 21
-109.9516721433
 31
0.0
  0
LINE
  5
23E
330
1F
100
AcDbEntity
  8
0
  6
Continuous
 62
     7
370
    25
100
AcDbLine
 10
211.6105031606
 20
-102.2531517844
 30
0.0
 11
210.3477907104
 21
-101.2705240481
 31
0.0
  0
LINE
  5
23F
330
1F
100
AcDbEntity
  8
0
  6
Continuous
 62
     7
370
    25
100
AcDbLine
 10
224.5848195082
 20
-126.2878582589
 30
0.0
 11
231.3403851951
 21
-117.6067101637
 31
0.0
  0
LINE
  5
240
330
1F
100
AcDbEntity
  8
0
  6
Continuous
 62
     7
370
    25
100
AcDbLine
 10
223.322107058
 20
-125.3052305226
 30
0.0
 11
224.5848195082
 21
-126.2878582589
 31
0.0
  0
LINE
  5
241
330
1F
100
AcDbEntity
  8
0
  6
Continuous
 62
     7
370
    25
100
AcDbLine
 10
230.0776727449
 20
-116.6240824274
 30
0.0
 11
223.322107058
 21
-125.3052305226
 31
0.0
  0
LINE
  5
242
330
1F
100
AcDbEntity
  8
0
  6
Continuous
 62
     7
370
    25
100
AcDbLine
 10
231.3403851951
 20
-117.6067101637
 30
0.0
 11
230.0776727449
 21
-116.6240824274
 31
0.0
  0
LINE
  5
243
330
1F
100
AcDbEntity
  8
0
  6
Continuous
 62
     7
370
    25
100
AcDbLine
 10
244.3147015427
 20
-141.6414166382
 30
0.0
 11
251.0702672295
 21
-132.960268543
 31
0.0
  0
LINE
  5
244
330
1F
100
AcDbEntity
  8
0
  6
Continuous
 62
     7
370
    25
100
AcDbLine
 10
243.0519890924
 20
-140.6587889019
 30
0.0
 11
244.3147015427
 21
-141.6414166382
 31
0.0
  0
LINE
  5
245
330
1F
100
AcDbEntity
  8
0
  6
Continuous
 62
     7
370
    25
100
AcDbLine
 10
249.8075547793
 20
-131.9776408067
 30
0.0
 11
243.0519890924
 21
-140.6587889019
 31
0.0
  0
LINE
  5
246
330
1F
100
AcDbEntity
  8
0
  6
Continuous
 62
     7
370
    25
100
AcDbLine
 10
251.0702672295
 20
-132.960268543
 30
0.0
 11
249.8075547793
 21
-131.9776408067
 31
0.0
  0
LINE
  5
247
330
1F
100
AcDbEntity
  8
0
  6
Continuous
 62
     7
370
    25
100
AcDbLine
 10
264.0445835771
 20
-156.9949750175
 30
0.0
 11
270.800149264
 21
-148.3138269223
 31
0.0
  0
LINE
  5
248
330
1F
100
AcDbEntity
  8
0
  6
Continuous
 62
     7
370
    25
100
AcDbLine
 10
262.7818711269
 20
-156.0123472812
 30
0.0
 11
264.0445835771
 21
-156.9949750175
 31
0.0
  0
LINE
  5
249
330
1F
100
AcDbEntity
  8
0
  6
Continuous
 62
     7
370
    25
100
AcDbLine
 10
269.5374368138
 20
-147.331199186
 30
0.0
 11
262.7818711269
 21
-156.0123472812
 31
0.0
  0
LINE
  5
24A
330
1F
100
AcDbEntity
  8
0
  6
Continuous
 62
     7
370
    25
100
AcDbLine
 10
270.800149264
 20
-148.3138269223
 30
0.0
 11
269.5374368138
 21
-147.331199186
 31
0.0
  0
LINE
  5
24B
330
1F
100
AcDbEntity
  8
0
  6
Continuous
 62
     7
370
    25
100
AcDbLine
 10
283.7744656116
 20
-172.3485333968
 30
0.0
 11
290.5300312985
 21
-163.6673853016
 31
0.0
  0
LINE
  5
24C
330
1F
100
AcDbEntity
  8
0
  6
Continuous
 62
     7
370
    25
100
AcDbLine
 10
282.5117531614
 20
-171.3659056605
 30
0.0
 11
283.7744656116
 21
-172.3485333968
 31
0.0
  0
LINE
  5
24D
330
1F
100
AcDbEntity
  8
0
  6
Continuous
 62
     7
370
    25
100
AcDbLine
 10
289.2673188482
 20
-162.6847575653
 30
0.0
 11
282.5117531614
 21
-171.3659056605
 31
0.0
  0
LINE
  5
24E
330
1F
100
AcDbEntity
  8
0
  6
Continuous
 62
     7
370
    25
100
AcDbLine
 10
290.5300312985
 20
-163.6673853016
 30
0.0
 11
289.2673188482
 21
-162.6847575653
 31
0.0
  0
LINE
  5
24F
330
1F
100
AcDbEntity
  8
0
  6
Continuous
 62
     7
370
    25
100
AcDbLine
 10
303.504347646
 20
-187.7020917761
 30
0.0
 11
310.2599133329
 21
-179.0209436809
 31
0.0
  0
LINE
  5
250
330
1F
100
AcDbEntity
  8
0
  6
Continuous
 62
     7
370
    25
100
AcDbLine
 10
302.2416351958
 20
-186.7194640398
 30
0.0
 11
303.504347646
 21
-187.7020917761
 31
0.0
  0
LINE
  5
251
330
1F
100
AcDbEntity
  8
0
  6
Continuous
 62
     7
370
    25
100
AcDbLine
 10
308.9972008827
 20
-178.0383159446
 30
0.0
 11
302.2416351958
 21
-186.7194640398
 31
0.0
  0
LINE
  5
252
330
1F
100
AcDbEntity
  8
0
  6
Continuous
 62
     7
370
    25
100
AcDbLine
 10
310.2599133329
 20
-179.0209436809
 30
0.0
 11
308.9972008827
 21
-178.0383159446
 31
0.0
  0
LINE
  5
253
330
1F
100
AcDbEntity
  8
0
  6
Continuous
 62
     7
370
    25
100
AcDbLine
 10
323.2342296805
 20
-203.0556501554
 30
0.0
 11
329.9897953674
 21
-194.3745020602
 31
0.0
  0
LINE
  5
254
330
1F
100
AcDbEntity
  8
0
  6
Continuous
 62
     7
370
    25
100
AcDbLine
 10
321.9715172303
 20
-202.0730224191
 30
0.0
 11
323.2342296805
 21
-203.0556501554
 31
0.0
  0
LINE
  5
255
330
1F
100
AcDbEntity
  8
0
  6
Continuous
 62
     7
370
    25
100
AcDbLine
 10
328.7270829172
 20
-193.3918743239
 30
0.0
 11
321.9715172303
 21
-202.0730224191
 31
0.0
  0
LINE
  5
256
330
1F
100
AcDbEntity
  8
0
  6
Continuous
 62
     7
370
    25
100
AcDbLine
 10
329.9897953674
 20
-194.3745020602
 30
0.0
 11
328.7270829172
 21
-193.3918743239
 31
0.0
  0
LINE
  5
257
330
1F
100
AcDbEntity
  8
0
  6
Continuous
 62
     7
370
    25
100
AcDbLine
 10
342.9641117149
 20
-218.4092085346
 30
0.0
 11
349.7196774018
 21
-209.7280604395
 31
0.0
  0
LINE
  5
258
330
1F
100
AcDbEntity
  8
0
  6
Continuous
 62
     7
370
    25
100
AcDbLine
 10
341.7013992647
 20
-217.4265807984
 30
0.0
 11
342.9641117149
 21
-218.4092085346
 31
0.0
  0
LINE
  5
259
330
1F
100
AcDbEntity
  8
0
  6
Continuous
 62
     7
370
    25
100
AcDbLine
 10
348.4569649516
 20
-208.7454327032
 30
0.0
 11
341.7013992647
 21
-217.4265807984
 31
0.0
  0
LINE
  5
25A
330
1F
100
AcDbEntity
  8
0
  6
Continuous
 62
     7
370
    25
100
AcDbLine
 10
349.7196774018
 20
-209.7280604395
 30
0.0
 11
348.4569649516
 21
-208.7454327032
 31
0.0
  0
LINE
  5
25B
330
1F
100
AcDbEntity
  8
0
  6
Continuous
 62
     7
370
    25
100
AcDbLine
 10
362.6939937494
 20
-233.7627669139
 30
0.0
 11
369.4495594363
 21
-225.0816188188
 31
0.0
  0
LINE
  5
25C
330
1F
100
AcDbEntity
  8
0
  6
Continuous
 62
     7
370
    25
100
AcDbLine
 10
361.4312812992
 20
-232.7801391777
 30
0.0
 11
362.6939937494
 21
-233.7627669139
 31
0.0
  0
LINE
  5
25D
330
1F
100
AcDbEntity
  8
0
  6
Continuous
 62
     7
370
    25
100
AcDbLine
 10
368.1868469861
 20
-224.0989910825
 30
0.0
 11
361.4312812992
 21
-232.7801391777
 31
0.0
  0
LINE
  5
25E
330
1F
100
AcDbEntity
  8
0
  6
Continuous
 62
     7
370
    25
100
AcDbLine
 10
369.4495594363
 20
-225.0816188188
 30
0.0
 11
368.1868469861
 21
-224.0989910825
 31
0.0
  0
LINE
  5
25F
330
1F
100
AcDbEntity
  8
0
  6
Continuous
 62
     7
370
    25
100
AcDbLine
 10
382.4238757838
 20
-249.1163252932
 30
0.0
 11
389.1794414707
 21
-240.4351771981
 31
0.0
  0
LINE
  5
260
330
1F
100
AcDbEntity
  8
0
  6
Continuous
 62
     7
370
    25
100
AcDbLine
 10
381.1611633336
 20
-248.133697557
 30
0.0
 11
382.4238757838
 21
-249.1163252932
 31
0.0
  0
LINE
  5
261
330
1F
100
AcDbEntity
  8
0
  6
Continuous
 62
     7
370
    25
100
AcDbLine
 10
387.9167290205
 20
-239.4525494618
 30
0.0
 11
381.1611633336
 21
-248.133697557
 31
0.0
  0
LINE
  5
262
330
1F
100
AcDbEntity
  8
0
  6
Continuous
 62
     7
370
    25
100
AcDbLine
 10
389.1794414707
 20
-240.4351771981
 30
0.0
 11
387.9167290205
 21
-239.4525494618
 31
0.0
  0
LINE
  5
263
330
1F
100
AcDbEntity
  8
0
  6
Continuous
 62
     7
370
    25
100
AcDbLine
 10
402.1537578183
 20
-264.4698836725
 30
0.0
 11
408.9093235052
 21
-255.7887355774
 31
0.0
  0
LINE
  5
264
330
1F
100
AcDbEntity
  8
0
  6
Continuous
 62
     7
370
    25
100
AcDbLine
 10
400.8910453681
 20
-263.4872559363
 30
0.0
 11
402.1537578183
 21
-264.4698836725
 31
0.0
  0
LINE
  5
265
330
1F
100
AcDbEntity
  8
0
  6
Continuous
 62
     7
370
    25
100
AcDbLine
 10
407.646611055
 20
-254.8061078411
 30
0.0
 11
400.8910453681
 21
-263.4872559363
 31
0.0
  0
LINE
  5
266
330
1F
100
AcDbEntity
  8
0
  6
Continuous
 62
     7
370
    25
100
AcDbLine
 10
408.9093235052
 20
-255.7887355774
 30
0.0
 11
407.646611055
 21
-254.8061078411
 31
0.0
  0
LINE
  5
267
330
1F
100
AcDbEntity
  8
0
  6
Continuous
 62
     7
370
    25
100
AcDbLine
 10
421.8836398527
 20
-279.8234420518
 30
0.0
 11
428.6392055396
 21
-271.1422939567
 31
0.0
  0
LINE
  5
268
330
1F
100
AcDbEntity
  8
0
  6
Continuous
 62
     7
370
    25
100
AcDbLine
 10
420.6209274025
 20
-278.8408143156
 30
0.0
 11
421.8836398527
 21
-279.8234420518
 31
0.0
  0
LINE
  5
269
330
1F
100
AcDbEntity
  8
0
  6
Continuous
 62
     7
370
    25
100
AcDbLine
 10
427.3764930894
 20
-270.1596662204
 30
0.0
 11
420.6209274025
 21
-278.8408143156
 31
0.0
  0
LINE
  5
26A
330
1F
100
AcDbEntity
  8
0
  6
Continuous
 62
     7
370
    25
100
AcDbLine
 10
428.6392055396
 20
-271.1422939567
 30
0.0
 11
427.3764930894
 21
-270.1596662204
 31
0.0
  0
LINE
  5
26B
330
1F
100
AcDbEntity
  8
0
  6
Continuous
 62
     7
370
    25
100
AcDbLine
 10
441.6135218872
 20
-295.1770004311
 30
0.0
 11
448.3690875741
 21
-286.495852336
 31
0.0
  0
LINE
  5
26C
330
1F
100
AcDbEntity
  8
0
  6
Continuous
 62
     7
370
    25
100
AcDbLine
 10
440.350809437
 20
-294.1943726949
 30
0.0
 11
441.6135218872
 21
-295.1770004311
 31
0.0
  0
LINE
  5
26D
330
1F
100
AcDbEntity
  8
0
  6
Continuous
 62
     7
370
    25
100
AcDbLine
 10
447.1063751239
 20
-285.5132245997
 30
0.0
 11
440.350809437
 21
-294.1943726949
 31
0.0
  0
LINE
  5
26E
330
1F
100
AcDbEntity
  8
0
  6
Continuous
 62
     7
370
    25
100
AcDbLine
 10
448.3690875741
 20
-286.495852336
 30
0.0
 11
447.1063751239
 21
-285.5132245997
 31
0.0
  0
LINE
  5
26F
330
1F
100
AcDbEntity
  8
0
  6
Continuous
 62
     7
370
    25
100
AcDbLine
 10
461.3434039217
 20
-310.5305588104
 30
0.0
 11
468.0989696085
 21
-301.8494107153
 31
0.0
  0
LINE
  5
270
330
1F
100
AcDbEntity
  8
0
  6
Continuous
 62
     7
370
    25
100
AcDbLine
 10
460.0806914715
 20
-309.5479310742
 30
0.0
 11
461.3434039217
 21
-310.5305588104
 31
0.0
  0
LINE
  5
271
330
1F
100
AcDbEntity
  8
0
  6
Continuous
 62
     7
370
    25
100
AcDbLine
 10
466.8362571583
 20
-300.866782979
 30
0.0
 11
460.0806914715
 21
-309.5479310742
 31
0.0
  0
LINE
  5
272
330
1F
100
AcDbEntity
  8
0
  6
Continuous
 62
     7
370
    25
100
AcDbLine
 10
468.0989696085
 20
-301.8494107153
 30
0.0
 11
466.8362571583
 21
-300.866782979
 31
0.0
  0
LINE
  5
273
330
1F
100
AcDbEntity
  8
0
  6
Continuous
 62
     7
370
    25
100
AcDbLine
 10
481.0732859561
 20
-325.8841171897
 30
0.0
 11
487.828851643
 21
-317.2029690946
 31
0.0
  0
LINE
  5
274
330
1F
100
AcDbEntity
  8
0
  6
Continuous
 62
     7
370
    25
100
AcDbLine
 10
479.8105735059
 20
-324.9014894535
 30
0.0
 11
481.0732859561
 21
-325.8841171897
 31
0.0
  0
LINE
  5
275
330
1F
100
AcDbEntity
  8
0
  6
Continuous
 62
     7
370
    25
100
AcDbLine
 10
486.5661391928
 20
-316.2203413583
 30
0.0
 11
479.8105735059
 21
-324.9014894535
 31
0.0
  0
LINE
  5
276
330
1F
100
AcDbEntity
  8
0
  6
Continuous
 62
     7
370
    25
100
AcDbLine
 10
487.828851643
 20
-317.2029690946
 30
0.0
 11
486.5661391928
 21
-316.2203413583
 31
0.0
  0
LINE
  5
277
330
1F
100
AcDbEntity
  8
0
  6
Continuous
 62
     7
370
    25
100
AcDbLine
 10
500.8031679906
 20
-341.237675569
 30
0.0
 11
507.5587336775
 21
-332.5565274739
 31
0.0
  0
LINE
  5
278
330
1F
100
AcDbEntity
  8
0
  6
Continuous
 62
     7
370
    25
100
AcDbLine
 10
499.5404555404
 20
-340.2550478328
 30
0.0
 11
500.8031679906
 21
-341.237675569
 31
0.0
  0
LINE
  5
279
330
1F
100
AcDbEntity
  8
0
  6
Continuous
 62
     7
370
    25
100
AcDbLine
 10
506.2960212273
 20
-331.5738997376
 30
0.0
 11
499.5404555404
 21
-340.2550478328
 31
0.0
  0
LINE
  5
27A
330
1F
100
AcDbEntity
  8
0
  6
Continuous
 62
     7
370
    25
100
AcDbLine
 10
507.5587336775
 20
-332.5565274739
 30
0.0
 11
506.2960212273
 21
-331.5738997376
 31
0.0
  0
LINE
  5
27B
330
1F
100
AcDbEntity
  8
0
  6
Continuous
 62
     7
370
    25
100
AcDbLine
 10
520.533050025
 20
-356.5912339483
 30
0.0
 11
527.2886157119
 21
-347.9100858532
 31
0.0
  0
LINE
  5
27C
330
1F
100
AcDbEntity
  8
0
  6
Continuous
 62
     7
370
    25
100
AcDbLine
 10
519.2703375748
 20
-355.6086062121
 30
0.0
 11
520.533050025
 21
-356.5912339483
 31
0.0
  0
LINE
  5
27D
330
1F
100
AcDbEntity
  8
0
  6
Continuous
 62
     7
370
    25
100
AcDbLine
 10
526.0259032617
 20
-346.9274581169
 30
0.0
 11
519.2703375748
 21
-355.6086062121
 31
0.0
  0
LINE
  5
27E
330
1F
100
AcDbEntity
  8
0
  6
Continuous
 62
     7
370
    25
100
AcDbLine
 10
527.2886157119
 20
-347.9100858532
 30
0.0
 11
526.0259032617
 21
-346.9274581169
 31
0.0
  0
LINE
  5
27F
330
1F
100
AcDbEntity
  8
0
  6
Continuous
 62
     7
370
    25
100
AcDbLine
 10
540.2629320595
 20
-371.9447923276
 30
0.0
 11
547.0184977464
 21
-363.2636442325
 31
0.0
  0
LINE
  5
280
330
1F
100
AcDbEntity
  8
0
  6
Continuous
 62
     7
370
    25
100
AcDbLine
 10
539.0002196093
 20
-370.9621645914
 30
0.0
 11
540.2629320595
 21
-371.9447923276
 31
0.0
  0
LINE
  5
281
330
1F
100
AcDbEntity
  8
0
  6
Continuous
 62
     7
370
    25
100
AcDbLine
 10
545.7557852962
 20
-362.2810164962
 30
0.0
 11
539.0002196093
 21
-370.9621645914
 31
0.0
  0
LINE
  5
282
330
1F
100
AcDbEntity
  8
0
  6
Continuous
 62
     7
370
    25
100
AcDbLine
 10
547.0184977464
 20
-363.2636442325
 30
0.0
 11
545.7557852962
 21
-362.2810164962
 31
0.0
  0
LINE
  5
283
330
1F
100
AcDbEntity
  8
0
  6
Continuous
 62
     7
370
    25
100
AcDbLine
 10
559.9928140939
 20
-387.2983507069
 30
0.0
 11
566.7483797808
 21
-378.6172026118
 31
0.0
  0
LINE
  5
284
330
1F
100
AcDbEntity
  8
0
  6
Continuous
 62
     7
370
    25
100
AcDbLine
 10
558.7301016437
 20
-386.3157229706
 30
0.0
 11
559.9928140939
 21
-387.2983507069
 31
0.0
  0
LINE
  5
285
330
1F
100
AcDbEntity
  8
0
  6
Continuous
 62
     7
370
    25
100
AcDbLine
 10
565.4856673306
 20
-377.6345748755
 30
0.0
 11
558.7301016437
 21
-386.3157229706
 31
0.0
  0
LINE
  5
286
330
1F
100
AcDbEntity
  8
0
  6
Continuous
 62
     7
370
    25
100
AcDbLine
 10
566.7483797808
 20
-378.6172026118
 30
0.0
 11
565.4856673306
 21
-377.6345748755
 31
0.0
  0
LINE
  5
287
330
1F
100
AcDbEntity
  8
0
  6
Continuous
 62
     7
370
    25
100
AcDbLine
 10
579.7226961284
 20
-402.6519090862
 30
0.0
 11
586.4782618153
 21
-393.9707609911
 31
0.0
  0
LINE
  5
288
330
1F
100
AcDbEntity
  8
0
  6
Continuous
 62
     7
370
    25
100
AcDbLine
 10
578.4599836782
 20
-401.6692813499
 30
0.0
 11
579.7226961284
 21
-402.6519090862
 31
0.0
  0
LINE
  5
289
330
1F
100
AcDbEntity
  8
0
  6
Continuous
 62
     7
370
    25
100
AcDbLine
 10
585.2155493651
 20
-392.9881332548
 30
0.0
 11
578.4599836782
 21
-401.6692813499
 31
0.0
  0
LINE
  5
28A
330
1F
100
AcDbEntity
  8
0
  6
Continuous
 62
     7
370
    25
100
AcDbLine
 10
586.4782618153
 20
-393.9707609911
 30
0.0
 11
585.2155493651
 21
-392.9881332548
 31
0.0
  0
LINE
  5
28B
330
1F
100
AcDbEntity
  8
0
  6
Continuous
 62
     7
370
    25
100
AcDbLine
 10
599.4525781628
 20
-418.0054674655
 30
0.0
 11
606.2081438497
 21
-409.3243193704
 31
0.0
  0
LINE
  5
28C
330
1F
100
AcDbEntity
  8
0
  6
Continuous
 62
     7
370
    25
100
AcDbLine
 10
598.1898657126
 20
-417.0228397292
 30
0.0
 11
599.4525781628
 21
-418.0054674655
 31
0.0
  0
LINE
  5
28D
330
1F
100
AcDbEntity
  8
0
  6
Continuous
 62
     7
370
    25
100
AcDbLine
 10
604.9454313995
 20
-408.3416916341
 30
0.0
 11
598.1898657126
 21
-417.0228397292
 31
0.0
  0
LINE
  5
28E
330
1F
100
AcDbEntity
  8
0
  6
Continuous
 62
     7
370
    25
100
AcDbLine
 10
606.2081438497
 20
-409.3243193704
 30
0.0
 11
604.9454313995
 21
-408.3416916341
 31
0.0
  0
LINE
  5
28F
330
1F
100
AcDbEntity
  8
0
  6
Continuous
 62
     7
370
    25
100
AcDbLine
 10
619.1824601973
 20
-433.3590258448
 30
0.0
 11
625.9380258842
 21
-424.6778777497
 31
0.0
  0
LINE
  5
290
330
1F
100
AcDbEntity
  8
0
  6
Continuous
 62
     7
370
    25
100
AcDbLine
 10
617.9197477471
 20
-432.3763981085
 30
0.0
 11
619.1824601973
 21
-433.3590258448
 31
0.0
  0
LINE
  5
291
330
1F
100
AcDbEntity
  8
0
  6
Continuous
 62
     7
370
    25
100
AcDbLine
 10
624.675313434
 20
-423.6952500134
 30
0.0
 11
617.9197477471
 21
-432.3763981085
 31
0.0
  0
LINE
  5
292
330
1F
100
AcDbEntity
  8
0
  6
Continuous
 62
     7
370
    25
100
AcDbLine
 10
625.9380258842
 20
-424.6778777497
 30
0.0
 11
624.675313434
 21
-423.6952500134
 31
0.0
  0
LINE
  5
293
330
1F
100
AcDbEntity
  8
0
  6
Continuous
 62
     7
370
    25
100
AcDbLine
 10
638.9123422317
 20
-448.7125842241
 30
0.0
 11
645.6679079186
 21
-440.031436129
 31
0.0
  0
LINE
  5
294
330
1F
100
AcDbEntity
  8
0
  6
Continuous
 62
     7
370
    25
100
AcDbLine
 10
637.6496297815
 20
-447.7299564878
 30
0.0
 11
638.9123422317
 21
-448.7125842241
 31
0.0
  0
LINE
  5
295
330
1F
100
AcDbEntity
  8
0
  6
Continuous
 62
     7
370
    25
100
AcDbLine
 10
644.4051954684
 20
-439.0488083927
 30
0.0
 11
637.6496297815
 21
-447.7299564878
 31
0.0
  0
LINE
  5
296
330
1F
100
AcDbEntity
  8
0
  6
Continuous
 62
     7
370
    25
100
AcDbLine
 10
645.6679079186
 20
-440.031436129
 30
0.0
 11
644.4051954684
 21
-439.0488083927
 31
0.0
  0
LINE
  5
297
330
1F
100
AcDbEntity
  8
0
  6
Continuous
 62
     7
370
    25
100
AcDbLine
 10
658.6422242662
 20
-464.0661426034
 30
0.0
 11
665.3977899531
 21
-455.3849945083
 31
0.0
  0
LINE
  5
298
330
1F
100
AcDbEntity
  8
0
  6
Continuous
 62
     7
370
    25
100
AcDbLine
 10
657.379511816
 20
-463.0835148671
 30
0.0
 11
658.6422242662
 21
-464.0661426034
 31
0.0
  0
LINE
  5
299
330
1F
100
AcDbEntity
  8
0
  6
Continuous
 62
     7
370
    25
100
AcDbLine
 10
664.1350775029
 20
-454.402366772
 30
0.0
 11
657.379511816
 21
-463.0835148671
 31
0.0
  0
LINE
  5
29A
330
1F
100
AcDbEntity
  8
0
  6
Continuous
 62
     7
370
    25
100
AcDbLine
 10
665.3977899531
 20
-455.3849945083
 30
0.0
 11
664.1350775029
 21
-454.402366772
 31
0.0
  0
LINE
  5
29B
330
1F
100
AcDbEntity
  8
0
  6
Continuous
 62
     7
370
    25
100
AcDbLine
 10
678.3721063007
 20
-479.4197009827
 30
0.0
 11
685.1276719875
 21
-470.7385528875
 31
0.0
  0
LINE
  5
29C
330
1F
100
AcDbEntity
  8
0
  6
Continuous
 62
     7
370
    25
100
AcDbLine
 10
677.1093938505
 20
-478.4370732464
 30
0.0
 11
678.3721063007
 21
-479.4197009827
 31
0.0
  0
LINE
  5
29D
330
1F
100
AcDbEntity
  8
0
  6
Continuous
 62
     7
370
    25
100
AcDbLine
 10
683.8649595373
 20
-469.7559251513
 30
0.0
 11
677.1093938505
 21
-478.4370732464
 31
0.0
  0
LINE
  5
29E
330
1F
100
AcDbEntity
  8
0
  6
Continuous
 62
     7
370
    25
100
AcDbLine
 10
685.1276719875
 20
-470.7385528875
 30
0.0
 11
683.8649595373
 21
-469.7559251513
 31
0.0
  0
LINE
  5
29F
330
1F
100
AcDbEntity
  8
0
  6
Continuous
 62
     7
370
    25
100
AcDbLine
 10
698.1019883351
 20
-494.773259362
 30
0.0
 11
704.857554022
 21
-486.0921112668
 31
0.0
  0
LINE
  5
2A0
330
1F
100
AcDbEntity
  8
0
  6
Continuous
 62
     7
370
    25
100
AcDbLine
 10
696.8392758849
 20
-493.7906316257
 30
0.0
 11
698.1019883351
 21
-494.773259362
 31
0.0
  0
LINE
  5
2A1
330
1F
100
AcDbEntity
  8
0
  6
Continuous
 62
     7
370
    25
100
AcDbLine
 10
703.5948415718
 20
-485.1094835306
 30
0.0
 11
696.8392758849
 21
-493.7906316257
 31
0.0
  0
LINE
  5
2A2
330
1F
100
AcDbEntity
  8
0
  6
Continuous
 62
     7
370
    25
100
AcDbLine
 10
704.857554022
 20
-486.0921112668
 30
0.0
 11
703.5948415718
 21
-485.1094835306
 31
0.0
  0
LINE
  5
2A3
330
1F
100
AcDbEntity
  8
0
  6
Continuous
 62
     7
370
    25
100
AcDbLine
 10
717.8318703696
 20
-510.1268177413
 30
0.0
 11
724.5874360565
 21
-501.4456696461
 31
0.0
  0
LINE
  5
2A4
330
1F
100
AcDbEntity
  8
0
  6
Continuous
 62
     7
370
    25
100
AcDbLine
 10
716.5691579194
 20
-509.144190005
 30
0.0
 11
717.8318703696
 21
-510.1268177413
 31
0.0
  0
LINE
  5
2A5
330
1F
100
AcDbEntity
  8
0
  6
Continuous
 62
     7
370
    25
100
AcDbLine
 10
723.3247236063
 20
-500.4630419099
 30
0.0
 11
716.5691579194
 21
-509.144190005
 31
0.0
  0
LINE
  5
2A6
330
1F
100
AcDbEntity
  8
0
  6
Continuous
 62
     7
370
    25
100
AcDbLine
 10
724.5874360565
 20
-501.4456696461
 30
0.0
 11
723.3247236063
 21
-500.4630419099
 31
0.0
  0
LINE
  5
2A7
330
1F
100
AcDbEntity
  8
0
  6
Continuous
 62
     7
370
    25
100
AcDbLine
 10
737.561752404
 20
-525.4803761206
 30
0.0
 11
744.3173180909
 21
-516.7992280254
 31
0.0
  0
LINE
  5
2A8
330
1F
100
AcDbEntity
  8
0
  6
Continuous
 62
     7
370
    25
100
AcDbLine
 10
736.2990399538
 20
-524.4977483843
 30
0.0
 11
737.561752404
 21
-525.4803761206
 31
0.0
  0
LINE
  5
2A9
330
1F
100
AcDbEntity
  8
0
  6
Continuous
 62
     7
370
    25
100
AcDbLine
 10
743.0546056407
 20
-515.8166002892
 30
0.0
 11
736.2990399538
 21
-524.4977483843
 31
0.0
  0
LINE
  5
2AA
330
1F
100
AcDbEntity
  8
0
  6
Continuous
 62
     7
370
    25
100
AcDbLine
 10
744.3173180909
 20
-516.7992280254
 30
0.0
 11
743.0546056407
 21
-515.8166002892
 31
0.0
  0
LINE
  5
2AB
330
1F
100
AcDbEntity
  8
0
  6
Continuous
 62
     7
370
    25
100
AcDbLine
 10
757.2916344385
 20
-540.8339344999
 30
0.0
 11
764.0472001254
 21
-532.1527864047
 31
0.0
  0
LINE
  5
2AC
330
1F
100
AcDbEntity
  8
0
  6
Continuous
 62
     7
370
    25
100
AcDbLine
 10
756.0289219883
 20
-539.8513067636
 30
0.0
 11
757.2916344385
 21
-540.8339344999
 31
0.0
  0
LINE
  5
2AD
330
1F
100
AcDbEntity
  8
0
  6
Continuous
 62
     7
370
    25
100
AcDbLine
 10
762.7844876752
 20
-531.1701586685
 30
0.0
 11
756.0289219883
 21
-539.8513067636
 31
0.0
  0
LINE
  5
2AE
330
1F
100
AcDbEntity
  8
0
  6
Continuous
 62
     7
370
    25
100
AcDbLine
 10
764.0472001254
 20
-532.1527864047
 30
0.0
 11
762.7844876752
 21
-531.1701586685
 31
0.0
  0
LINE
  5
2AF
330
1F
100
AcDbEntity
  8
0
  6
Continuous
 62
     7
370
    25
100
AcDbLine
 10
107.1674022651
 20
91.7963230289
 30
0.0
 11
108.4301147153
 21
90.8136952926
 31
0.0
  0
LINE
  5
2B0
330
1F
100
AcDbEntity
  8
0
  6
Continuous
 62
     7
370
    25
100
AcDbLine
 10
113.922967952
 20
100.4774711241
 30
0.0
 11
107.1674022651
 21
91.7963230289
 31
0.0
  0
LINE
  5
2B1
330
1F
100
AcDbEntity
  8
0
  6
Continuous
 62
     7
370
    25
100
AcDbLine
 10
115.1856804022
 20
99.4948433878
 30
0.0
 11
113.922967952
 21
100.4774711241
 31
0.0
  0
LINE
  5
2B2
330
1F
100
AcDbEntity
  8
0
  6
Continuous
 62
     7
370
    25
100
AcDbLine
 10
108.4301147153
 20
90.8136952926
 30
0.0
 11
115.1856804022
 21
99.4948433878
 31
0.0
  0
LINE
  5
2B3
330
1F
100
AcDbEntity
  8
0
  6
Continuous
 62
     7
370
    25
100
AcDbLine
 10
106.4258731271
 20
50.1362552703
 30
0.0
 11
107.6885855774
 21
49.1536275341
 31
0.0
  0
LINE
  5
2B4
330
1F
100
AcDbEntity
  8
0
  6
Continuous
 62
     7
370
    25
100
AcDbLine
 10
113.181438814
 20
58.8174033655
 30
0.0
 11
106.4258731271
 21
50.1362552703
 31
0.0
  0
LINE
  5
2B5
330
1F
100
AcDbEntity
  8
0
  6
Continuous
 62
     7
370
    25
100
AcDbLine
 10
114.4441512642
 20
57.8347756292
 30
0.0
 11
113.181438814
 21
58.8174033655
 31
0.0
  0
LINE
  5
2B6
330
1F
100
AcDbEntity
  8
0
  6
Continuous
 62
     7
370
    25
100
AcDbLine
 10
107.6885855774
 20
49.1536275341
 30
0.0
 11
114.4441512642
 21
57.8347756292
 31
0.0
  0
LINE
  5
2B7
330
1F
100
AcDbEntity
  8
0
  6
Continuous
 62
     7
370
    25
100
AcDbLine
 10
785.6883647251
 20
-550.260795538
 30
0.0
 11
782.5315835995
 21
-547.8042261973
 31
0.0
  0
LINE
  5
2B8
330
1F
100
AcDbEntity
  8
0
  6
Continuous
 62
     7
370
    25
100
AcDbLine
 10
785.6883647251
 20
-550.260795538
 30
0.0
 11
791.8297880768
 21
-542.3688427242
 31
0.0
  0
LINE
  5
2B9
330
1F
100
AcDbEntity
  8
0
  6
Continuous
 62
     7
370
    25
100
AcDbLine
 10
791.8297880768
 20
-542.3688427242
 30
0.0
 11
788.6730069513
 21
-539.9122733835
 31
0.0
  0
LINE
  5
2BA
330
1F
100
AcDbEntity
  8
0
  6
Continuous
 62
     7
370
    25
100
AcDbLine
 10
788.6730069513
 20
-539.9122733835
 30
0.0
 11
800.9558536547
 21
-524.1283677559
 31
0.0
  0
LINE
  5
2BB
330
1F
100
AcDbEntity
  8
0
  6
Continuous
 62
     7
370
    25
100
AcDbLine
 10
806.4802206244
 20
-528.4273641021
 30
0.0
 11
800.9558536547
 21
-524.1283677559
 31
0.0
  0
LINE
  5
2BC
330
1F
100
AcDbEntity
  8
0
  6
Continuous
 62
     7
370
    25
100
AcDbLine
 10
809.2868958575
 20
-528.0772582097
 30
0.0
 11
806.4802206244
 21
-528.4273641021
 31
0.0
  0
LINE
  5
2BD
330
1F
100
AcDbEntity
  8
0
  6
Continuous
 62
     7
370
    25
100
AcDbLine
 10
812.9717498685
 20
-523.3420865215
 30
0.0
 11
809.2868958575
 21
-528.0772582097
 31
0.0
  0
LINE
  5
2BE
330
1F
100
AcDbEntity
  8
0
  6
Continuous
 62
     7
370
    25
100
AcDbLine
 10
812.6216439761
 20
-520.5354112884
 30
0.0
 11
812.9717498685
 21
-523.3420865215
 31
0.0
  0
LINE
  5
2BF
330
1F
100
AcDbEntity
  8
0
  6
Continuous
 62
     7
370
    25
100
AcDbLine
 10
812.6216439761
 20
-520.5354112884
 30
0.0
 11
807.0972770064
 21
-516.2364149421
 31
0.0
  0
LINE
  5
2C0
330
1F
100
AcDbEntity
  8
0
  6
Continuous
 62
     7
370
    25
100
AcDbLine
 10
807.0972770064
 20
-516.2364149421
 30
0.0
 11
819.3801237099
 21
-500.4525093146
 31
0.0
  0
LINE
  5
2C1
330
1F
100
AcDbEntity
  8
0
  6
Continuous
 62
     7
370
    25
100
AcDbLine
 10
824.9044906795
 20
-504.7515056608
 30
0.0
 11
819.3801237099
 21
-500.4525093146
 31
0.0
  0
LINE
  5
2C2
330
1F
100
AcDbEntity
  8
0
  6
Continuous
 62
     7
370
    25
100
AcDbLine
 10
827.7111659126
 20
-504.4013997684
 30
0.0
 11
824.9044906795
 21
-504.7515056608
 31
0.0
  0
LINE
  5
2C3
330
1F
100
AcDbEntity
  8
0
  6
Continuous
 62
     7
370
    25
100
AcDbLine
 10
831.3960199236
 20
-499.6662280801
 30
0.0
 11
827.7111659126
 21
-504.4013997684
 31
0.0
  0
LINE
  5
2C4
330
1F
100
AcDbEntity
  8
0
  6
Continuous
 62
     7
370
    25
100
AcDbLine
 10
831.0459140312
 20
-496.859552847
 30
0.0
 11
831.3960199236
 21
-499.6662280801
 31
0.0
  0
LINE
  5
2C5
330
1F
100
AcDbEntity
  8
0
  6
Continuous
 62
     7
370
    25
100
AcDbLine
 10
831.0459140312
 20
-496.859552847
 30
0.0
 11
825.5215470616
 21
-492.5605565008
 31
0.0
  0
LINE
  5
2C6
330
1F
100
AcDbEntity
  8
0
  6
Continuous
 62
     7
370
    25
100
AcDbLine
 10
825.5215470616
 20
-492.5605565008
 30
0.0
 11
837.804393765
 21
-476.7766508732
 31
0.0
  0
LINE
  5
2C7
330
1F
100
AcDbEntity
  8
0
  6
Continuous
 62
     7
370
    25
100
AcDbLine
 10
843.3287607347
 20
-481.0756472194
 30
0.0
 11
837.804393765
 21
-476.7766508732
 31
0.0
  0
LINE
  5
2C8
330
1F
100
AcDbEntity
  8
0
  6
Continuous
 62
     7
370
    25
100
AcDbLine
 10
846.1354359678
 20
-480.725541327
 30
0.0
 11
843.3287607347
 21
-481.0756472194
 31
0.0
  0
LINE
  5
2C9
330
1F
100
AcDbEntity
  8
0
  6
Continuous
 62
     7
370
    25
100
AcDbLine
 10
849.8202899788
 20
-475.9903696388
 30
0.0
 11
846.1354359678
 21
-480.725541327
 31
0.0
  0
LINE
  5
2CA
330
1F
100
AcDbEntity
  8
0
  6
Continuous
 62
     7
370
    25
100
AcDbLine
 10
849.4701840864
 20
-473.1836944057
 30
0.0
 11
849.8202899788
 21
-475.9903696388
 31
0.0
  0
LINE
  5
2CB
330
1F
100
AcDbEntity
  8
0
  6
Continuous
 62
     7
370
    25
100
AcDbLine
 10
849.4701840864
 20
-473.1836944057
 30
0.0
 11
843.9458171167
 21
-468.8846980595
 31
0.0
  0
LINE
  5
2CC
330
1F
100
AcDbEntity
  8
0
  6
Continuous
 62
     7
370
    25
100
AcDbLine
 10
843.9458171167
 20
-468.8846980595
 30
0.0
 11
847.3235999602
 21
-464.5441240119
 31
0.0
  0
LINE
  5
2CD
330
1F
100
AcDbEntity
  8
0
  6
Continuous
 62
     7
370
    25
100
AcDbLine
 10
847.3235999602
 20
-464.5441240119
 30
0.0
 11
97.5880826509
 21
118.8910944014
 31
0.0
  0
LINE
  5
2CE
330
1F
100
AcDbEntity
  8
0
  6
Continuous
 62
     7
370
    25
100
AcDbLine
 10
97.5880826509
 20
118.8910944014
 30
0.0
 11
94.2102998075
 21
114.5505203539
 31
0.0
  0
LINE
  5
2CF
330
1F
100
AcDbEntity
  8
0
  6
Continuous
 62
     7
370
    25
100
AcDbLine
 10
88.6859328378
 20
118.8495167001
 30
0.0
 11
94.2102998075
 21
114.5505203539
 31
0.0
  0
LINE
  5
2D0
330
1F
100
AcDbEntity
  8
0
  6
Continuous
 62
     7
370
    25
100
AcDbLine
 10
85.8792576047
 20
118.4994108076
 30
0.0
 11
88.6859328378
 21
118.8495167001
 31
0.0
  0
LINE
  5
2D1
330
1F
100
AcDbEntity
  8
0
  6
Continuous
 62
     7
370
    25
100
AcDbLine
 10
85.8792576047
 20
118.4994108076
 30
0.0
 11
82.1944035937
 21
113.7642391194
 31
0.0
  0
LINE
  5
2D2
330
1F
100
AcDbEntity
  8
0
  6
Continuous
 62
     7
370
    25
100
AcDbLine
 10
82.5445094861
 20
110.9575638863
 30
0.0
 11
82.1944035937
 21
113.7642391194
 31
0.0
  0
LINE
  5
2D3
330
1F
100
AcDbEntity
  8
0
  6
Continuous
 62
     7
370
    25
100
AcDbLine
 10
82.5445094861
 20
110.9575638863
 30
0.0
 11
88.0688764557
 21
106.6585675401
 31
0.0
  0
LINE
  5
2D4
330
1F
100
AcDbEntity
  8
0
  6
Continuous
 62
     7
370
    25
100
AcDbLine
 10
88.0688764557
 20
106.6585675401
 30
0.0
 11
75.7860297523
 21
90.8746619125
 31
0.0
  0
LINE
  5
2D5
330
1F
100
AcDbEntity
  8
0
  6
Continuous
 62
     7
370
    25
100
AcDbLine
 10
70.2616627827
 20
95.1736582587
 30
0.0
 11
75.7860297523
 21
90.8746619125
 31
0.0
  0
LINE
  5
2D6
330
1F
100
AcDbEntity
  8
0
  6
Continuous
 62
     7
370
    25
100
AcDbLine
 10
67.4549875496
 20
94.8235523663
 30
0.0
 11
70.2616627827
 21
95.1736582587
 31
0.0
  0
LINE
  5
2D7
330
1F
100
AcDbEntity
  8
0
  6
Continuous
 62
     7
370
    25
100
AcDbLine
 10
67.4549875496
 20
94.8235523663
 30
0.0
 11
63.7701335385
 21
90.088380678
 31
0.0
  0
LINE
  5
2D8
330
1F
100
AcDbEntity
  8
0
  6
Continuous
 62
     7
370
    25
100
AcDbLine
 10
64.1202394309
 20
87.2817054449
 30
0.0
 11
63.7701335385
 21
90.088380678
 31
0.0
  0
LINE
  5
2D9
330
1F
100
AcDbEntity
  8
0
  6
Continuous
 62
     7
370
    25
100
AcDbLine
 10
64.1202394309
 20
87.2817054449
 30
0.0
 11
69.6446064006
 21
82.9827090987
 31
0.0
  0
LINE
  5
2DA
330
1F
100
AcDbEntity
  8
0
  6
Continuous
 62
     7
370
    25
100
AcDbLine
 10
69.6446064006
 20
82.9827090987
 30
0.0
 11
57.3617596971
 21
67.1988034712
 31
0.0
  0
LINE
  5
2DB
330
1F
100
AcDbEntity
  8
0
  6
Continuous
 62
     7
370
    25
100
AcDbLine
 10
51.8373927275
 20
71.4977998174
 30
0.0
 11
57.3617596971
 21
67.1988034712
 31
0.0
  0
LINE
  5
2DC
330
1F
100
AcDbEntity
  8
0
  6
Continuous
 62
     7
370
    25
100
AcDbLine
 10
49.0307174944
 20
71.1476939249
 30
0.0
 11
51.8373927275
 21
71.4977998174
 31
0.0
  0
LINE
  5
2DD
330
1F
100
AcDbEntity
  8
0
  6
Continuous
 62
     7
370
    25
100
AcDbLine
 10
49.0307174944
 20
71.1476939249
 30
0.0
 11
45.3458634834
 21
66.4125222367
 31
0.0
  0
LINE
  5
2DE
330
1F
100
AcDbEntity
  8
0
  6
Continuous
 62
     7
370
    25
100
AcDbLine
 10
45.6959693758
 20
63.6058470036
 30
0.0
 11
45.3458634834
 21
66.4125222367
 31
0.0
  0
LINE
  5
2DF
330
1F
100
AcDbEntity
  8
0
  6
Continuous
 62
     7
370
    25
100
AcDbLine
 10
45.6959693758
 20
63.6058470036
 30
0.0
 11
51.2203363454
 21
59.3068506574
 31
0.0
  0
LINE
  5
2E0
330
1F
100
AcDbEntity
  8
0
  6
Continuous
 62
     7
370
    25
100
AcDbLine
 10
51.2203363454
 20
59.3068506574
 30
0.0
 11
38.937489642
 21
43.5229450298
 31
0.0
  0
LINE
  5
2E1
330
1F
100
AcDbEntity
  8
0
  6
Continuous
 62
     7
370
    25
100
AcDbLine
 10
35.7807085165
 20
45.9795143705
 30
0.0
 11
38.937489642
 21
43.5229450298
 31
0.0
  0
LINE
  5
2E2
330
1F
100
AcDbEntity
  8
0
  6
Continuous
 62
     7
370
    25
100
AcDbLine
 10
35.7807085165
 20
45.9795143705
 30
0.0
 11
29.6392851648
 21
38.0875615567
 31
0.0
  0
LINE
  5
2E3
330
1F
100
AcDbEntity
  8
0
  6
Continuous
 62
     7
370
    25
100
AcDbLine
 10
29.6392851648
 20
38.0875615567
 30
0.0
 11
32.7960662903
 21
35.630992216
 31
0.0
  0
LINE
  5
2E4
330
1F
100
AcDbEntity
  8
0
  6
Continuous
 62
     7
370
    25
100
AcDbLine
 10
32.7960662903
 20
35.630992216
 30
0.0
 11
23.8910024303
 21
24.187660636
 31
0.0
  0
LINE
  5
2E5
330
1F
100
AcDbEntity
  8
0
  6
Continuous
 62
     7
370
    25
100
AcDbLine
 10
23.8910024303
 20
24.187660636
 30
0.0
 11
773.6265197396
 21
-559.2475577773
 31
0.0
  0
LINE
  5
2E6
330
1F
100
AcDbEntity
  8
0
  6
Continuous
 62
     7
370
    25
100
AcDbLine
 10
773.6265197396
 20
-559.2475577773
 30
0.0
 11
782.5315835995
 21
-547.8042261973
 31
0.0
  0
ENDSEC
  0
SECTION
  2
OBJECTS
  0
DICTIONARY
  5
C
330
0
100
AcDbDictionary
281
     1
  3
ACAD_GROUP
350
D
  3
ACAD_LAYOUT
350
1A
  3
ACAD_MLINESTYLE
350
17
  3
ACAD_PLOTSETTINGS
350
19
  3
ACAD_PLOTSTYLENAME
350
E
  3
ACAD_SCALELIST
350
47
  3
DWGPROPS
350
2E7
  0
DICTIONARY
  5
D
102
{ACAD_REACTORS
330
C
102
}
330
C
100
AcDbDictionary
281
     1
  0
DICTIONARY
  5
1A
102
{ACAD_REACTORS
330
C
102
}
330
C
100
AcDbDictionary
281
     1
  3
Layout1
350
1E
  3
Layout2
350
26
  3
Model
350
22
  0
DICTIONARY
  5
17
102
{ACAD_REACTORS
330
C
102
}
330
C
100
AcDbDictionary
281
     1
  3
Standard
350
18
  0
DICTIONARY
  5
19
102
{ACAD_REACTORS
330
C
102
}
330
C
100
AcDbDictionary
281
     1
  0
ACDBDICTIONARYWDFLT
  5
E
102
{ACAD_REACTORS
330
C
102
}
330
C
100
AcDbDictionary
281
     1
  3
Normal
350
F
100
AcDbDictionaryWithDefault
340
F
  0
DICTIONARY
  5
47
102
{ACAD_REACTORS
330
C
102
}
330
C
100
AcDbDictionary
281
     1
  3
A0
350
48
  3
A1
350
49
  3
A2
350
4A
  3
A3
350
4B
  3
A4
350
4C
  3
A5
350
4D
  3
A6
350
4E
  3
A7
350
4F
  3
A8
350
50
  3
A9
350
51
  3
B0
350
52
  3
B1
350
53
  3
B2
350
54
  3
B3
350
55
  3
B4
350
56
  3
B5
350
57
  3
B6
350
58
  0
XRECORD
  5
2E7
102
{ACAD_REACTORS
330
C
102
}
330
C
100
AcDbXrecord
280
     1
  1
DWGPROPS COOKIE
  2

  3

  4

  6

  7

  8
icrequer
  9

300
=
301
=
302
=
303
=
304
=
305
=
306
=
307
=
308
=
309
=
 40
0.0
 41
2460118.437125637
 42
2460118.437125637
  1

 90
        0
  0
LAYOUT
  5
1E
102
{ACAD_REACTORS
330
1A
102
}
330
1A
100
AcDbPlotSettings
  1

  2
none_device
  4

  6

 40
0.0
 41
0.0
 42
0.0
 43
0.0
 44
0.0
 45
0.0
 46
0.0
 47
0.0
 48
0.0
 49
0.0
140
0.0
141
0.0
142
1.0
143
1.0
 70
   688
 72
     1
 73
     0
 74
     5
  7

 75
    16
147
1.0
148
0.0
149
0.0
100
AcDbLayout
  1
Layout1
 70
     1
 71
     1
 10
0.0
 20
0.0
 11
420.0
 21
297.0
 12
0.0
 22
0.0
 32
0.0
 14
1.0000000000E+20
 24
1.0000000000E+20
 34
1.0000000000E+20
 15
-1.0000000000E+20
 25
-1.0000000000E+20
 35
-1.0000000000E+20
146
0.0
 13
0.0
 23
0.0
 33
0.0
 16
1.0
 26
0.0
 36
0.0
 17
0.0
 27
1.0
 37
0.0
 76
     0
330
1B
  0
LAYOUT
  5
26
102
{ACAD_REACTORS
330
1A
102
}
330
1A
100
AcDbPlotSettings
  1

  2
none_device
  4

  6

 40
0.0
 41
0.0
 42
0.0
 43
0.0
 44
0.0
 45
0.0
 46
0.0
 47
0.0
 48
0.0
 49
0.0
140
0.0
141
0.0
142
1.0
143
1.0
 70
   688
 72
     1
 73
     0
 74
     5
  7

 75
    16
147
1.0
148
0.0
149
0.0
100
AcDbLayout
  1
Layout2
 70
     1
 71
     2
 10
0.0
 20
0.0
 11
0.0
 21
0.0
 12
0.0
 22
0.0
 32
0.0
 14
0.0
 24
0.0
 34
0.0
 15
0.0
 25
0.0
 35
0.0
146
0.0
 13
0.0
 23
0.0
 33
0.0
 16
1.0
 26
0.0
 36
0.0
 17
0.0
 27
1.0
 37
0.0
 76
     0
330
23
  0
LAYOUT
  5
22
102
{ACAD_REACTORS
330
1A
102
}
330
1A
100
AcDbPlotSettings
  1

  2
none_device
  4
ANSI_A_(11.00_x_8.50_Inches)
  6

 40
6.35
 41
19.05
 42
6.35000508
 43
19.05000254
 44
279.4
 45
215.9
 46
-4.3415533393
 47
158.2974814837
 48
0.0
 49
0.0
140
0.0
141
0.0
142
0.0124089668
143
1.0
 70
  1696
 72
     0
 73
     0
 74
     0
  7

 75
     0
147
0.0179189148
148
-1300.4909072572
149
0.0
100
AcDbLayout
  1
Model
 70
     1
 71
     0
 10
0.0
 20
0.0
 11
420.0
 21
297.0
 12
0.0
 22
0.0
 32
0.0
 14
23.8910024303
 24
-559.2475577773
 34
0.0
 15
849.8202899788
 25
118.8910944014
 35
0.0
146
0.0
 13
0.0
 23
0.0
 33
0.0
 16
1.0
 26
0.0
 36
0.0
 17
0.0
 27
1.0
 37
0.0
 76
     0
330
1F
331
29
  0
MLINESTYLE
  5
18
102
{ACAD_REACTORS
330
17
102
}
330
17
100
AcDbMlineStyle
  2
Standard
 70
     0
  3

 62
   256
 51
90.0
 52
90.0
 71
     2
 49
0.5
 62
   256
  6
BYLAYER
 49
-0.5
 62
   256
  6
BYLAYER
  0
ACDBPLACEHOLDER
  5
F
102
{ACAD_REACTORS
330
E
102
}
330
E
  0
SCALE
  5
48
102
{ACAD_REACTORS
330
47
102
}
330
47
100
AcDbScale
 70
     0
300
1:1
140
1.0
141
1.0
290
     1
  0
SCALE
  5
49
102
{ACAD_REACTORS
330
47
102
}
330
47
100
AcDbScale
 70
     0
300
1:2
140
1.0
141
2.0
290
     0
  0
SCALE
  5
4A
102
{ACAD_REACTORS
330
47
102
}
330
47
100
AcDbScale
 70
     0
300
1:4
140
1.0
141
4.0
290
     0
  0
SCALE
  5
4B
102
{ACAD_REACTORS
330
47
102
}
330
47
100
AcDbScale
 70
     0
300
1:5
140
1.0
141
5.0
290
     0
  0
SCALE
  5
4C
102
{ACAD_REACTORS
330
47
102
}
330
47
100
AcDbScale
 70
     0
300
1:8
140
1.0
141
8.0
290
     0
  0
SCALE
  5
4D
102
{ACAD_REACTORS
330
47
102
}
330
47
100
AcDbScale
 70
     0
300
1:10
140
1.0
141
10.0
290
     0
  0
SCALE
  5
4E
102
{ACAD_REACTORS
330
47
102
}
330
47
100
AcDbScale
 70
     0
300
1:16
140
1.0
141
16.0
290
     0
  0
SCALE
  5
4F
102
{ACAD_REACTORS
330
47
102
}
330
47
100
AcDbScale
 70
     0
300
1:20
140
1.0
141
20.0
290
     0
  0
SCALE
  5
50
102
{ACAD_REACTORS
330
47
102
}
330
47
100
AcDbScale
 70
     0
300
1:30
140
1.0
141
30.0
290
     0
  0
SCALE
  5
51
102
{ACAD_REACTORS
330
47
102
}
330
47
100
AcDbScale
 70
     0
300
1:40
140
1.0
141
40.0
290
     0
  0
SCALE
  5
52
102
{ACAD_REACTORS
330
47
102
}
330
47
100
AcDbScale
 70
     0
300
1:50
140
1.0
141
50.0
290
     0
  0
SCALE
  5
53
102
{ACAD_REACTORS
330
47
102
}
330
47
100
AcDbScale
 70
     0
300
1:100
140
1.0
141
100.0
290
     0
  0
SCALE
  5
54
102
{ACAD_REACTORS
330
47
102
}
330
47
100
AcDbScale
 70
     0
300
2:1
140
2.0
141
1.0
290
     0
  0
SCALE
  5
55
102
{ACAD_REACTORS
330
47
102
}
330
47
100
AcDbScale
 70
     0
300
4:1
140
4.0
141
1.0
290
     0
  0
SCALE
  5
56
102
{ACAD_REACTORS
330
47
102
}
330
47
100
AcDbScale
 70
     0
300
8:1
140
8.0
141
1.0
290
     0
  0
SCALE
  5
57
102
{ACAD_REACTORS
330
47
102
}
330
47
100
AcDbScale
 70
     0
300
10:1
140
10.0
141
1.0
290
     0
  0
SCALE
  5
58
102
{ACAD_REACTORS
330
47
102
}
330
47
100
AcDbScale
 70
     0
300
100:1
140
100.0
141
1.0
290
     0
  0
ENDSEC
  0
EOF
