  0
SECTION
  2
HEADER
  9
$ACADVER
  1
AC1015
  9
$ACADMAINTVER
 70
     6
  9
$DWGCODEPAGE
  3
ANSI_1252
  9
$INSBASE
 10
0.0
 20
0.0
 30
0.0
  9
$EXTMIN
 10
-133.0919779601
 20
-653.7324325247
 30
0.0
  9
$EXTMAX
 10
146.8812313214
 20
-8.8539257636
 30
0.0
  9
$LIMMIN
 10
0.0
 20
0.0
  9
$LIMMAX
 10
420.0
 20
297.0
  9
$ORTHOMODE
 70
     0
  9
$REGENMODE
 70
     1
  9
$FILLMODE
 70
     1
  9
$QTEXTMODE
 70
     0
  9
$MIRRTEXT
 70
     1
  9
$LTSCALE
 40
1.0
  9
$ATTMODE
 70
     1
  9
$TEXTSIZE
 40
3.5
  9
$TRACEWID
 40
1.0
  9
$TEXTSTYLE
  7
Standard
  9
$CLAYER
  8
0
  9
$CELTYPE
  6
ByLayer
  9
$CECOLOR
 62
   256
  9
$CELTSCALE
 40
1.0
  9
$DISPSILH
 70
     0
  9
$DIMSCALE
 40
1.0
  9
$DIMASZ
 40
3.556
  9
$DIMEXO
 40
0.0
  9
$DIMDLI
 40
3.75
  9
$DIMRND
 40
0.0
  9
$DIMDLE
 40
0.0
  9
$DIMEXE
 40
1.0
  9
$DIMTP
 40
0.0
  9
$DIMTM
 40
0.0
  9
$DIMTXT
 40
3.5
  9
$DIMCEN
 40
2.5
  9
$DIMTSZ
 40
0.0
  9
$DIMTOL
 70
     0
  9
$DIMLIM
 70
     0
  9
$DIMTIH
 70
     1
  9
$DIMTOH
 70
     1
  9
$DIMSE1
 70
     0
  9
$DIMSE2
 70
     0
  9
$DIMTAD
 70
     1
  9
$DIMZIN
 70
     0
  9
$DIMBLK
  1

  9
$DIMASO
 70
     1
  9
$DIMSHO
 70
     1
  9
$DIMPOST
  1

  9
$DIMAPOST
  1

  9
$DIMALT
 70
     0
  9
$DIMALTD
 70
     3
  9
$DIMALTF
 40
0.0393700787
  9
$DIMLFAC
 40
1.0
  9
$DIMTOFL
 70
     1
  9
$DIMTVP
 40
0.0
  9
$DIMTIX
 70
     0
  9
$DIMSOXD
 70
     0
  9
$DIMSAH
 70
     0
  9
$DIMBLK1
  1

  9
$DIMBLK2
  1

  9
$DIMSTYLE
  2
ISO-25
  9
$DIMCLRD
 70
     0
  9
$DIMCLRE
 70
     0
  9
$DIMCLRT
 70
     0
  9
$DIMTFAC
 40
1.0
  9
$DIMGAP
 40
1.524
  9
$DIMJUST
 70
     0
  9
$DIMSD1
 70
     0
  9
$DIMSD2
 70
     0
  9
$DIMTOLJ
 70
     0
  9
$DIMTZIN
 70
     0
  9
$DIMALTZ
 70
     0
  9
$DIMALTTZ
 70
     0
  9
$DIMUPT
 70
     0
  9
$DIMDEC
 70
     2
  9
$DIMTDEC
 70
     2
  9
$DIMALTU
 70
     2
  9
$DIMALTTD
 70
     3
  9
$DIMTXSTY
  7
Standard
  9
$DIMAUNIT
 70
     0
  9
$DIMADEC
 70
     0
  9
$DIMALTRND
 40
0.0
  9
$DIMAZIN
 70
     0
  9
$DIMDSEP
 70
    44
  9
$DIMATFIT
 70
     3
  9
$DIMFRAC
 70
     0
  9
$DIMLDRBLK
  1

  9
$DIMLUNIT
 70
     2
  9
$DIMLWD
 70
    -2
  9
$DIMLWE
 70
    -2
  9
$DIMTMOVE
 70
     0
  9
$LUNITS
 70
     2
  9
$LUPREC
 70
     0
  9
$SKETCHINC
 40
1.0
  9
$FILLETRAD
 40
0.0
  9
$AUNITS
 70
     0
  9
$AUPREC
 70
     0
  9
$MENU
  1
.
  9
$ELEVATION
 40
0.0
  9
$PELEVATION
 40
0.0
  9
$THICKNESS
 40
0.0
  9
$LIMCHECK
 70
     0
  9
$CHAMFERA
 40
0.0
  9
$CHAMFERB
 40
0.0
  9
$CHAMFERC
 40
0.0
  9
$CHAMFERD
 40
0.0
  9
$SKPOLY
 70
     0
  9
$TDCREATE
 40
2460118.520751273
  9
$TDUCREATE
 40
2460118.43741794
  9
$TDUPDATE
 40
2460118.520751273
  9
$TDUUPDATE
 40
2460118.43741794
  9
$TDINDWG
 40
0.0000000116
  9
$TDUSRTIMER
 40
0.0000000116
  9
$USRTIMER
 70
     1
  9
$ANGBASE
 50
0.0
  9
$ANGDIR
 70
     0
  9
$PDMODE
 70
     0
  9
$PDSIZE
 40
-1.0
  9
$PLINEWID
 40
0.0
  9
$SPLFRAME
 70
     0
  9
$SPLINETYPE
 70
     6
  9
$SPLINESEGS
 70
     8
  9
$HANDSEED
  5
2DC
  9
$SURFTAB1
 70
     6
  9
$SURFTAB2
 70
     6
  9
$SURFTYPE
 70
     6
  9
$SURFU
 70
     6
  9
$SURFV
 70
     6
  9
$UCSBASE
  2

  9
$UCSNAME
  2

  9
$UCSORG
 10
0.0
 20
0.0
 30
0.0
  9
$UCSXDIR
 10
1.0
 20
0.0
 30
0.0
  9
$UCSYDIR
 10
0.0
 20
1.0
 30
0.0
  9
$UCSORTHOREF
  2

  9
$UCSORTHOVIEW
 70
     0
  9
$UCSORGTOP
 10
0.0
 20
0.0
 30
0.0
  9
$UCSORGBOTTOM
 10
0.0
 20
0.0
 30
0.0
  9
$UCSORGLEFT
 10
0.0
 20
0.0
 30
0.0
  9
$UCSORGRIGHT
 10
0.0
 20
0.0
 30
0.0
  9
$UCSORGFRONT
 10
0.0
 20
0.0
 30
0.0
  9
$UCSORGBACK
 10
0.0
 20
0.0
 30
0.0
  9
$PUCSBASE
  2

  9
$PUCSNAME
  2

  9
$PUCSORG
 10
0.0
 20
0.0
 30
0.0
  9
$PUCSXDIR
 10
1.0
 20
0.0
 30
0.0
  9
$PUCSYDIR
 10
0.0
 20
1.0
 30
0.0
  9
$PUCSORTHOREF
  2

  9
$PUCSORTHOVIEW
 70
     0
  9
$PUCSORGTOP
 10
0.0
 20
0.0
 30
0.0
  9
$PUCSORGBOTTOM
 10
0.0
 20
0.0
 30
0.0
  9
$PUCSORGLEFT
 10
0.0
 20
0.0
 30
0.0
  9
$PUCSORGRIGHT
 10
0.0
 20
0.0
 30
0.0
  9
$PUCSORGFRONT
 10
0.0
 20
0.0
 30
0.0
  9
$PUCSORGBACK
 10
0.0
 20
0.0
 30
0.0
  9
$USERI1
 70
     0
  9
$USERI2
 70
     0
  9
$USERI3
 70
     0
  9
$USERI4
 70
     0
  9
$USERI5
 70
     0
  9
$USERR1
 40
0.0
  9
$USERR2
 40
0.0
  9
$USERR3
 40
0.0
  9
$USERR4
 40
0.0
  9
$USERR5
 40
0.0
  9
$WORLDVIEW
 70
     1
  9
$SHADEDGE
 70
     3
  9
$SHADEDIF
 70
    70
  9
$TILEMODE
 70
     1
  9
$MAXACTVP
 70
    64
  9
$PINSBASE
 10
0.0
 20
0.0
 30
0.0
  9
$PLIMCHECK
 70
     0
  9
$PEXTMIN
 10
1.0000000000E+20
 20
1.0000000000E+20
 30
1.0000000000E+20
  9
$PEXTMAX
 10
-1.0000000000E+20
 20
-1.0000000000E+20
 30
-1.0000000000E+20
  9
$PLIMMIN
 10
0.0
 20
0.0
  9
$PLIMMAX
 10
420.0
 20
297.0
  9
$UNITMODE
 70
     0
  9
$VISRETAIN
 70
     1
  9
$PLINEGEN
 70
     0
  9
$PSLTSCALE
 70
     1
  9
$TREEDEPTH
 70
  3020
  9
$CMLSTYLE
  2
Standard
  9
$CMLJUST
 70
     0
  9
$CMLSCALE
 40
20.0
  9
$PROXYGRAPHICS
 70
     1
  9
$MEASUREMENT
 70
     1
  9
$CELWEIGHT
370
    -1
  9
$ENDCAPS
280
     0
  9
$JOINSTYLE
280
     0
  9
$LWDISPLAY
290
     1
  9
$INSUNITS
 70
     4
  9
$HYPERLINKBASE
  1

  9
$STYLESHEET
  1

  9
$XEDIT
290
     1
  9
$CEPSNTYPE
380
     0
  9
$PSTYLEMODE
290
     1
  9
$FINGERPRINTGUID
  2
{9628bb38-2ede-4a9d-a210-ae5ee8318da6}
  9
$VERSIONGUID
  2
{FAEB1C32-E019-11D5-929B-00C0DF256EC4}
  9
$EXTNAMES
290
     1
  9
$PSVPSCALE
 40
0.0
  9
$OLESTARTUP
290
     0
  0
ENDSEC
  0
SECTION
  2
CLASSES
  0
CLASS
  1
ACDBDICTIONARYWDFLT
  2
AcDbDictionaryWithDefault
  3
ObjectDBX Classes
 90
        0
280
     0
281
     0
  0
CLASS
  1
VISUALSTYLE
  2
AcDbVisualStyle
  3
ObjectDBX Classes
 90
     4095
280
     0
281
     0
  0
CLASS
  1
MATERIAL
  2
AcDbMaterial
  3
ObjectDBX Classes
 90
     1153
280
     0
281
     0
  0
CLASS
  1
SCALE
  2
AcDbScale
  3
ObjectDBX Classes
 90
     1153
280
     0
281
     0
  0
CLASS
  1
TABLESTYLE
  2
AcDbTableStyle
  3
ObjectDBX Classes
 90
     4095
280
     0
281
     0
  0
CLASS
  1
MLEADERSTYLE
  2
AcDbMLeaderStyle
  3
ACDB_MLEADERSTYLE_CLASS
 90
     4095
280
     0
281
     0
  0
CLASS
  1
SUN
  2
AcDbSun
  3
SCENEOE
 90
     1153
280
     0
281
     0
  0
CLASS
  1
ACDBPLACEHOLDER
  2
AcDbPlaceHolder
  3
ObjectDBX Classes
 90
        0
280
     0
281
     0
  0
CLASS
  1
LAYOUT
  2
AcDbLayout
  3
ObjectDBX Classes
 90
        0
280
     0
281
     0
  0
ENDSEC
  0
SECTION
  2
TABLES
  0
TABLE
  2
VPORT
  5
8
330
0
100
AcDbSymbolTable
 70
     1
  0
VPORT
  5
29
330
8
100
AcDbSymbolTableRecord
100
AcDbViewportTableRecord
  2
*Active
 70
     0
 10
0.0
 20
0.0
 11
1.0
 21
1.0
 12
6.8946266807
 22
-331.2931791442
 13
0.0
 23
0.0
 14
10.0
 24
10.0
 15
10.0
 25
10.0
 16
0.0
 26
0.0
 36
1.0
 17
0.0
 27
0.0
 37
0.0
 40
657.7760768962
 41
0.4341487681
 42
50.0
 43
0.0
 44
0.0
 50
0.0
 51
0.0
 71
     0
 72
   100
 73
     1
 74
     3
 75
     0
 76
     0
 77
     0
 78
     0
281
     0
 65
     1
110
0.0
120
0.0
130
0.0
111
1.0
121
0.0
131
0.0
112
0.0
122
1.0
132
0.0
 79
     0
146
0.0
  0
ENDTAB
  0
TABLE
  2
LTYPE
  5
5
330
0
100
AcDbSymbolTable
 70
     6
  0
LTYPE
  5
14
330
5
100
AcDbSymbolTableRecord
100
AcDbLinetypeTableRecord
  2
ByBlock
 70
     0
  3

 72
    65
 73
     0
 40
0.0
  0
LTYPE
  5
15
330
5
100
AcDbSymbolTableRecord
100
AcDbLinetypeTableRecord
  2
ByLayer
 70
     0
  3

 72
    65
 73
     0
 40
0.0
  0
LTYPE
  5
16
330
5
100
AcDbSymbolTableRecord
100
AcDbLinetypeTableRecord
  2
Continuous
 70
     0
  3
Solid line
 72
    65
 73
     0
 40
0.0
  0
LTYPE
  5
5E
330
5
100
AcDbSymbolTableRecord
100
AcDbLinetypeTableRecord
  2
HIDDEN
 70
     0
  3
Hidden __ __ __ __ __ __ __ __ __ __ __ __ __ __
 72
    65
 73
     2
 40
1.905
 49
1.27
 74
     0
 49
-0.635
 74
     0
  0
LTYPE
  5
5F
330
5
100
AcDbSymbolTableRecord
100
AcDbLinetypeTableRecord
  2
PHANTOM
 70
     0
  3
Phantom ______  __  __  ______  __  __  ______
 72
    65
 73
     6
 40
12.7
 49
6.35
 74
     0
 49
-1.27
 74
     0
 49
1.27
 74
     0
 49
-1.27
 74
     0
 49
1.27
 74
     0
 49
-1.27
 74
     0
  0
LTYPE
  5
60
330
5
100
AcDbSymbolTableRecord
100
AcDbLinetypeTableRecord
  2
CENTER
 70
     0
  3
Center ____ _ ____ _ ____ _ ____ _ ____ _ ____
 72
    65
 73
     4
 40
10.16
 49
6.35
 74
     0
 49
-1.27
 74
     0
 49
1.27
 74
     0
 49
-1.27
 74
     0
  0
LTYPE
  5
61
330
5
100
AcDbSymbolTableRecord
100
AcDbLinetypeTableRecord
  2
CENTERX2
 70
     0
  3
Center (2x) ________  __  ________  __  _____
 72
    65
 73
     4
 40
20.32
 49
12.7
 74
     0
 49
-2.54
 74
     0
 49
2.54
 74
     0
 49
-2.54
 74
     0
  0
LTYPE
  5
62
330
5
100
AcDbSymbolTableRecord
100
AcDbLinetypeTableRecord
  2
DOT2
 70
     0
  3
Dot (.5x) ........................................
 72
    65
 73
     2
 40
0.635
 49
0.0
 74
     0
 49
-0.635
 74
     0
  0
ENDTAB
  0
TABLE
  2
LAYER
  5
2
330
0
100
AcDbSymbolTable
 70
     1
  0
LAYER
  5
10
330
2
100
AcDbSymbolTableRecord
100
AcDbLayerTableRecord
  2
0
 70
     0
 62
     7
  6
Continuous
370
    -3
390
F
  0
ENDTAB
  0
TABLE
  2
STYLE
  5
3
330
0
100
AcDbSymbolTable
 70
     1
  0
STYLE
  5
11
330
3
100
AcDbSymbolTableRecord
100
AcDbTextStyleTableRecord
  2
Standard
 70
     0
 40
0.0
 41
1.0
 50
0.0
 71
     0
 42
3.5
  3
txt
  4

  0
ENDTAB
  0
TABLE
  2
VIEW
  5
6
330
0
100
AcDbSymbolTable
 70
     0
  0
ENDTAB
  0
TABLE
  2
UCS
  5
7
330
0
100
AcDbSymbolTable
 70
     0
  0
ENDTAB
  0
TABLE
  2
APPID
  5
9
330
0
100
AcDbSymbolTable
 70
     1
  0
APPID
  5
12
330
9
100
AcDbSymbolTableRecord
100
AcDbRegAppTableRecord
  2
ACAD
 70
     0
  0
ENDTAB
  0
TABLE
  2
DIMSTYLE
  5
A
330
0
100
AcDbSymbolTable
 70
     1
100
AcDbDimStyleTable
  0
DIMSTYLE
105
27
330
A
100
AcDbSymbolTableRecord
100
AcDbDimStyleTableRecord
  2
ISO-25
 70
     0
 41
2.5
 42
0.625
 43
3.75
 44
1.25
 73
     0
 74
     0
 77
     1
 78
     8
140
2.5
141
2.5
143
0.0393700787
147
0.625
171
     3
172
     1
178
     0
271
     2
272
     2
274
     3
278
    44
283
     0
284
     8
340
11
  0
ENDTAB
  0
TABLE
  2
BLOCK_RECORD
  5
1
330
0
100
AcDbSymbolTable
 70
     1
  0
BLOCK_RECORD
  5
1F
330
1
100
AcDbSymbolTableRecord
100
AcDbBlockTableRecord
  2
*Model_Space
340
22
  0
BLOCK_RECORD
  5
1B
330
1
100
AcDbSymbolTableRecord
100
AcDbBlockTableRecord
  2
*Paper_Space
340
1E
  0
BLOCK_RECORD
  5
23
330
1
100
AcDbSymbolTableRecord
100
AcDbBlockTableRecord
  2
*Paper_Space0
340
26
  0
ENDTAB
  0
ENDSEC
  0
SECTION
  2
BLOCKS
  0
BLOCK
  5
20
330
1F
100
AcDbEntity
  8
0
100
AcDbBlockBegin
  2
*Model_Space
 70
     0
 10
0.0
 20
0.0
 30
0.0
  3
*Model_Space
  1

  0
ENDBLK
  5
21
330
1F
100
AcDbEntity
  8
0
100
AcDbBlockEnd
  0
BLOCK
  5
1C
330
1B
100
AcDbEntity
 67
     1
  8
0
100
AcDbBlockBegin
  2
*Paper_Space
 70
     0
 10
0.0
 20
0.0
 30
0.0
  3
*Paper_Space
  1

  0
ENDBLK
  5
1D
330
1B
100
AcDbEntity
 67
     1
  8
0
100
AcDbBlockEnd
  0
BLOCK
  5
24
330
23
100
AcDbEntity
  8
0
100
AcDbBlockBegin
  2
*Paper_Space0
 70
     0
 10
0.0
 20
0.0
 30
0.0
  3
*Paper_Space0
  1

  0
ENDBLK
  5
25
330
23
100
AcDbEntity
  8
0
100
AcDbBlockEnd
  0
ENDSEC
  0
SECTION
  2
ENTITIES
  0
LINE
  5
63
330
1F
100
AcDbEntity
  8
0
  6
Continuous
 62
     7
370
    25
100
AcDbLine
 10
34.1001656887
 20
-159.7911419184
 30
0.0
 11
53.346728875
 21
-165.2289544858
 31
0.0
  0
ARC
  5
64
330
1F
100
AcDbEntity
  8
0
  6
Continuous
 62
     7
370
    25
100
AcDbCircle
 10
34.9158375738
 20
-156.9041574405
 30
0.0
 40
3.000000000000016
100
AcDbArc
 50
74.2231987215
 51
254.2231987215
  0
LINE
  5
65
330
1F
100
AcDbEntity
  8
0
  6
Continuous
 62
     7
370
    25
100
AcDbLine
 10
54.9780726452
 20
-159.4549855299
 30
0.0
 11
35.7315094589
 21
-154.0171729625
 31
0.0
  0
ARC
  5
66
330
1F
100
AcDbEntity
  8
0
  6
Continuous
 62
     7
370
    25
100
AcDbCircle
 10
54.1624007601
 20
-162.3419700079
 30
0.0
 40
3.00000000000002
100
AcDbArc
 50
254.2231987215
 51
74.2231987215
  0
LINE
  5
67
330
1F
100
AcDbEntity
  8
0
  6
Continuous
 62
     7
370
    25
100
AcDbLine
 10
20.5056342702
 20
-207.907549884
 30
0.0
 11
39.7521974564
 21
-213.3453624514
 31
0.0
  0
ARC
  5
68
330
1F
100
AcDbEntity
  8
0
  6
Continuous
 62
     7
370
    25
100
AcDbCircle
 10
21.3213061553
 20
-205.020565406
 30
0.0
 40
2.999999999999993
100
AcDbArc
 50
74.2231987215
 51
254.2231987215
  0
LINE
  5
69
330
1F
100
AcDbEntity
  8
0
  6
Continuous
 62
     7
370
    25
100
AcDbLine
 10
41.3835412267
 20
-207.5713934955
 30
0.0
 11
22.1369780404
 21
-202.1335809281
 31
0.0
  0
ARC
  5
6A
330
1F
100
AcDbEntity
  8
0
  6
Continuous
 62
     7
370
    25
100
AcDbCircle
 10
40.5678693416
 20
-210.4583779734
 30
0.0
 40
2.999999999999995
100
AcDbArc
 50
254.2231987215
 51
74.2231987215
  0
LINE
  5
6B
330
1F
100
AcDbEntity
  8
0
  6
Continuous
 62
     7
370
    25
100
AcDbLine
 10
6.9111028517
 20
-256.0239578496
 30
0.0
 11
26.1576660379
 21
-261.461770417
 31
0.0
  0
ARC
  5
6C
330
1F
100
AcDbEntity
  8
0
  6
Continuous
 62
     7
370
    25
100
AcDbCircle
 10
7.7267747368
 20
-253.1369733716
 30
0.0
 40
3.000000000000046
100
AcDbArc
 50
74.2231987215
 51
254.2231987215
  0
LINE
  5
6D
330
1F
100
AcDbEntity
  8
0
  6
Continuous
 62
     7
370
    25
100
AcDbLine
 10
27.7890098081
 20
-255.6878014611
 30
0.0
 11
8.5424466219
 21
-250.2499888937
 31
0.0
  0
ARC
  5
6E
330
1F
100
AcDbEntity
  8
0
  6
Continuous
 62
     7
370
    25
100
AcDbCircle
 10
26.973337923
 20
-258.574785939
 30
0.0
 40
3.0
100
AcDbArc
 50
254.2231987215
 51
74.2231987215
  0
LINE
  5
6F
330
1F
100
AcDbEntity
  8
0
  6
Continuous
 62
     7
370
    25
100
AcDbLine
 10
-6.6834285668
 20
-304.1403658151
 30
0.0
 11
12.5631346194
 21
-309.5781783826
 31
0.0
  0
ARC
  5
70
330
1F
100
AcDbEntity
  8
0
  6
Continuous
 62
     7
370
    25
100
AcDbCircle
 10
-5.8677566817
 20
-301.2533813372
 30
0.0
 40
2.999999999999996
100
AcDbArc
 50
74.2231987215
 51
254.2231987215
  0
LINE
  5
71
330
1F
100
AcDbEntity
  8
0
  6
Continuous
 62
     7
370
    25
100
AcDbLine
 10
14.1944783896
 20
-303.8042094267
 30
0.0
 11
-5.0520847966
 21
-298.3663968593
 31
0.0
  0
ARC
  5
72
330
1F
100
AcDbEntity
  8
0
  6
Continuous
 62
     7
370
    25
100
AcDbCircle
 10
13.3788065045
 20
-306.6911939046
 30
0.0
 40
3.000000000000047
100
AcDbArc
 50
254.2231987215
 51
74.2231987215
  0
LINE
  5
73
330
1F
100
AcDbEntity
  8
0
  6
Continuous
 62
     7
370
    25
100
AcDbLine
 10
-20.2779599854
 20
-352.2567737807
 30
0.0
 11
-1.0313967991
 21
-357.6945863481
 31
0.0
  0
ARC
  5
74
330
1F
100
AcDbEntity
  8
0
  6
Continuous
 62
     7
370
    25
100
AcDbCircle
 10
-19.4622881002
 20
-349.3697893028
 30
0.0
 40
2.999999999999995
100
AcDbArc
 50
74.2231987215
 51
254.2231987215
  0
LINE
  5
75
330
1F
100
AcDbEntity
  8
0
  6
Continuous
 62
     7
370
    25
100
AcDbLine
 10
0.5999469711
 20
-351.9206173923
 30
0.0
 11
-18.6466162151
 21
-346.4828048249
 31
0.0
  0
ARC
  5
76
330
1F
100
AcDbEntity
  8
0
  6
Continuous
 62
     7
370
    25
100
AcDbCircle
 10
-0.215724914
 20
-354.8076018702
 30
0.0
 40
3.000000000000058
100
AcDbArc
 50
254.2231987215
 51
74.2231987215
  0
LINE
  5
77
330
1F
100
AcDbEntity
  8
0
  6
Continuous
 62
     7
370
    25
100
AcDbLine
 10
-33.8724914039
 20
-400.3731817463
 30
0.0
 11
-14.6259282176
 21
-405.8109943137
 31
0.0
  0
ARC
  5
78
330
1F
100
AcDbEntity
  8
0
  6
Continuous
 62
     7
370
    25
100
AcDbCircle
 10
-33.0568195188
 20
-397.4861972684
 30
0.0
 40
2.999999999999999
100
AcDbArc
 50
74.2231987215
 51
254.2231987215
  0
LINE
  5
79
330
1F
100
AcDbEntity
  8
0
  6
Continuous
 62
     7
370
    25
100
AcDbLine
 10
-12.9945844474
 20
-400.0370253579
 30
0.0
 11
-32.2411476337
 21
-394.5992127905
 31
0.0
  0
ARC
  5
7A
330
1F
100
AcDbEntity
  8
0
  6
Continuous
 62
     7
370
    25
100
AcDbCircle
 10
-13.8102563325
 20
-402.9240098358
 30
0.0
 40
3.0
100
AcDbArc
 50
254.2231987215
 51
74.2231987215
  0
LINE
  5
7B
330
1F
100
AcDbEntity
  8
0
  6
Continuous
 62
     7
370
    25
100
AcDbLine
 10
-47.4670228224
 20
-448.4895897119
 30
0.0
 11
-28.2204596362
 21
-453.9274022793
 31
0.0
  0
ARC
  5
7C
330
1F
100
AcDbEntity
  8
0
  6
Continuous
 62
     7
370
    25
100
AcDbCircle
 10
-46.6513509373
 20
-445.602605234
 30
0.0
 40
2.999999999999999
100
AcDbArc
 50
74.2231987215
 51
254.2231987215
  0
LINE
  5
7D
330
1F
100
AcDbEntity
  8
0
  6
Continuous
 62
     7
370
    25
100
AcDbLine
 10
-26.5891158659
 20
-448.1534333234
 30
0.0
 11
-45.8356790522
 21
-442.715620756
 31
0.0
  0
ARC
  5
7E
330
1F
100
AcDbEntity
  8
0
  6
Continuous
 62
     7
370
    25
100
AcDbCircle
 10
-27.4047877511
 20
-451.0404178014
 30
0.0
 40
2.999999999999999
100
AcDbArc
 50
254.2231987215
 51
74.2231987215
  0
LINE
  5
7F
330
1F
100
AcDbEntity
  8
0
  6
Continuous
 62
     7
370
    25
100
AcDbLine
 10
-61.0615542409
 20
-496.6059976775
 30
0.0
 11
-41.8149910547
 21
-502.0438102449
 31
0.0
  0
ARC
  5
80
330
1F
100
AcDbEntity
  8
0
  6
Continuous
 62
     7
370
    25
100
AcDbCircle
 10
-60.2458823558
 20
-493.7190131996
 30
0.0
 40
3.000000000000036
100
AcDbArc
 50
74.2231987215
 51
254.2231987215
  0
LINE
  5
81
330
1F
100
AcDbEntity
  8
0
  6
Continuous
 62
     7
370
    25
100
AcDbLine
 10
-40.1836472845
 20
-496.269841289
 30
0.0
 11
-59.4302104707
 21
-490.8320287216
 31
0.0
  0
ARC
  5
82
330
1F
100
AcDbEntity
  8
0
  6
Continuous
 62
     7
370
    25
100
AcDbCircle
 10
-40.9993191696
 20
-499.156825767
 30
0.0
 40
2.999999999999995
100
AcDbArc
 50
254.2231987215
 51
74.2231987215
  0
LINE
  5
83
330
1F
100
AcDbEntity
  8
0
  6
Continuous
 62
     7
370
    25
100
AcDbLine
 10
-74.6560856594
 20
-544.7224056431
 30
0.0
 11
-55.4095224732
 21
-550.1602182105
 31
0.0
  0
ARC
  5
84
330
1F
100
AcDbEntity
  8
0
  6
Continuous
 62
     7
370
    25
100
AcDbCircle
 10
-73.8404137743
 20
-541.8354211652
 30
0.0
 40
2.999999999999997
100
AcDbArc
 50
74.2231987215
 51
254.2231987215
  0
LINE
  5
85
330
1F
100
AcDbEntity
  8
0
  6
Continuous
 62
     7
370
    25
100
AcDbLine
 10
-53.778178703
 20
-544.3862492546
 30
0.0
 11
-73.0247418892
 21
-538.9484366872
 31
0.0
  0
ARC
  5
86
330
1F
100
AcDbEntity
  8
0
  6
Continuous
 62
     7
370
    25
100
AcDbCircle
 10
-54.5938505881
 20
-547.2732337326
 30
0.0
 40
2.999999999999995
100
AcDbArc
 50
254.2231987215
 51
74.2231987215
  0
LINE
  5
87
330
1F
100
AcDbEntity
  8
0
  6
Continuous
 62
     7
370
    25
100
AcDbLine
 10
-88.250617078
 20
-592.8388136087
 30
0.0
 11
-69.0040538917
 21
-598.2766261761
 31
0.0
  0
ARC
  5
88
330
1F
100
AcDbEntity
  8
0
  6
Continuous
 62
     7
370
    25
100
AcDbCircle
 10
-87.4349451929
 20
-589.9518291307
 30
0.0
 40
2.999999999999997
100
AcDbArc
 50
74.2231987215
 51
254.2231987215
  0
LINE
  5
89
330
1F
100
AcDbEntity
  8
0
  6
Continuous
 62
     7
370
    25
100
AcDbLine
 10
-67.3727101215
 20
-592.5026572202
 30
0.0
 11
-86.6192733077
 21
-587.0648446528
 31
0.0
  0
ARC
  5
8A
330
1F
100
AcDbEntity
  8
0
  6
Continuous
 62
     7
370
    25
100
AcDbCircle
 10
-68.1883820066
 20
-595.3896416981
 30
0.0
 40
2.999999999999997
100
AcDbArc
 50
254.2231987215
 51
74.2231987215
  0
ARC
  5
8B
330
1F
100
AcDbEntity
  8
0
  6
Continuous
 62
     7
370
    25
100
AcDbCircle
 10
62.1049004109
 20
-60.6713415093
 30
0.0
 40
3.000000000000007
100
AcDbArc
 50
74.2231987215
 51
254.2231987215
  0
LINE
  5
8C
330
1F
100
AcDbEntity
  8
0
  6
Continuous
 62
     7
370
    25
100
AcDbLine
 10
82.1671354822
 20
-63.2221695987
 30
0.0
 11
62.920572296
 21
-57.7843570313
 31
0.0
  0
ARC
  5
8D
330
1F
100
AcDbEntity
  8
0
  6
Continuous
 62
     7
370
    25
100
AcDbCircle
 10
81.3514635971
 20
-66.1091540767
 30
0.0
 40
2.999999999999989
100
AcDbArc
 50
254.2231987215
 51
74.2231987215
  0
LINE
  5
8E
330
1F
100
AcDbEntity
  8
0
  6
Continuous
 62
     7
370
    25
100
AcDbLine
 10
61.2892285258
 20
-63.5583259872
 30
0.0
 11
80.535791712
 21
-68.9961385546
 31
0.0
  0
ARC
  5
8F
330
1F
100
AcDbEntity
  8
0
  6
Continuous
 62
     7
370
    25
100
AcDbCircle
 10
48.5103689924
 20
-108.7877494749
 30
0.0
 40
3.000000000000003
100
AcDbArc
 50
74.2231987215
 51
254.2231987215
  0
LINE
  5
90
330
1F
100
AcDbEntity
  8
0
  6
Continuous
 62
     7
370
    25
100
AcDbLine
 10
68.5726040637
 20
-111.3385775643
 30
0.0
 11
49.3260408775
 21
-105.9007649969
 31
0.0
  0
ARC
  5
91
330
1F
100
AcDbEntity
  8
0
  6
Continuous
 62
     7
370
    25
100
AcDbCircle
 10
67.7569321786
 20
-114.2255620423
 30
0.0
 40
2.999999999999979
100
AcDbArc
 50
254.2231987215
 51
74.2231987215
  0
LINE
  5
92
330
1F
100
AcDbEntity
  8
0
  6
Continuous
 62
     7
370
    25
100
AcDbLine
 10
47.6946971072
 20
-111.6747339528
 30
0.0
 11
66.9412602935
 21
-117.1125465202
 31
0.0
  0
ARC
  5
93
330
1F
100
AcDbEntity
  8
0
  6
Continuous
 62
     7
370
    25
100
AcDbCircle
 10
93.8007610741
 20
-95.6051706269
 30
0.0
 40
3.000000000000015
100
AcDbArc
 50
74.2231987215
 51
254.2231987215
  0
LINE
  5
94
330
1F
100
AcDbEntity
  8
0
  6
Continuous
 62
     7
370
    25
100
AcDbLine
 10
113.8629961454
 20
-98.1559987164
 30
0.0
 11
94.6164329592
 21
-92.718186149
 31
0.0
  0
ARC
  5
95
330
1F
100
AcDbEntity
  8
0
  6
Continuous
 62
     7
370
    25
100
AcDbCircle
 10
113.0473242603
 20
-101.0429831943
 30
0.0
 40
2.999999999999983
100
AcDbArc
 50
254.2231987215
 51
74.2231987215
  0
LINE
  5
96
330
1F
100
AcDbEntity
  8
0
  6
Continuous
 62
     7
370
    25
100
AcDbLine
 10
92.985089189
 20
-98.4921551048
 30
0.0
 11
112.2316523752
 21
-103.9299676722
 31
0.0
  0
ARC
  5
97
330
1F
100
AcDbEntity
  8
0
  6
Continuous
 62
     7
370
    25
100
AcDbCircle
 10
107.3952924926
 20
-47.4887626613
 30
0.0
 40
3.000000000000007
100
AcDbArc
 50
74.2231987215
 51
254.2231987215
  0
LINE
  5
98
330
1F
100
AcDbEntity
  8
0
  6
Continuous
 62
     7
370
    25
100
AcDbLine
 10
127.457527564
 20
-50.0395907508
 30
0.0
 11
108.2109643777
 21
-44.6017781834
 31
0.0
  0
ARC
  5
99
330
1F
100
AcDbEntity
  8
0
  6
Continuous
 62
     7
370
    25
100
AcDbCircle
 10
126.6418556788
 20
-52.9265752287
 30
0.0
 40
2.99999999999999
100
AcDbArc
 50
254.2231987215
 51
74.2231987215
  0
LINE
  5
9A
330
1F
100
AcDbEntity
  8
0
  6
Continuous
 62
     7
370
    25
100
AcDbLine
 10
106.5796206075
 20
-50.3757471392
 30
0.0
 11
125.8261837937
 21
-55.8135597066
 31
0.0
  0
LINE
  5
9B
330
1F
100
AcDbEntity
  8
0
  6
Continuous
 62
     7
370
    25
100
AcDbLine
 10
97.0961303783
 20
-82.7155758986
 30
0.0
 11
86.5105206259
 21
-79.7247789865
 31
0.0
  0
LINE
  5
9C
330
1F
100
AcDbEntity
  8
0
  6
Continuous
 62
     7
370
    25
100
AcDbLine
 10
96.6611053729
 20
-84.2553009535
 30
0.0
 11
97.0961303783
 21
-82.7155758986
 31
0.0
  0
LINE
  5
9D
330
1F
100
AcDbEntity
  8
0
  6
Continuous
 62
     7
370
    25
100
AcDbLine
 10
86.0754956205
 20
-81.2645040414
 30
0.0
 11
96.6611053729
 21
-84.2553009535
 31
0.0
  0
LINE
  5
9E
330
1F
100
AcDbEntity
  8
0
  6
Continuous
 62
     7
370
    25
100
AcDbLine
 10
86.5105206259
 20
-79.7247789865
 30
0.0
 11
86.0754956205
 21
-81.2645040414
 31
0.0
  0
LINE
  5
9F
330
1F
100
AcDbEntity
  8
0
  6
Continuous
 62
     7
370
    25
100
AcDbLine
 10
135.971001398
 20
-67.7203928615
 30
0.0
 11
125.3853916455
 21
-64.7295959494
 31
0.0
  0
LINE
  5
A0
330
1F
100
AcDbEntity
  8
0
  6
Continuous
 62
     7
370
    25
100
AcDbLine
 10
135.5359763926
 20
-69.2601179164
 30
0.0
 11
135.971001398
 21
-67.7203928615
 31
0.0
  0
LINE
  5
A1
330
1F
100
AcDbEntity
  8
0
  6
Continuous
 62
     7
370
    25
100
AcDbLine
 10
124.9503666401
 20
-66.2693210043
 30
0.0
 11
135.5359763926
 21
-69.2601179164
 31
0.0
  0
LINE
  5
A2
330
1F
100
AcDbEntity
  8
0
  6
Continuous
 62
     7
370
    25
100
AcDbLine
 10
125.3853916455
 20
-64.7295959494
 30
0.0
 11
124.9503666401
 21
-66.2693210043
 31
0.0
  0
LINE
  5
A3
330
1F
100
AcDbEntity
  8
0
  6
Continuous
 62
     7
370
    25
100
AcDbLine
 10
-126.4792666161
 20
-625.1624946257
 30
0.0
 11
-124.5760322175
 21
-618.4261975106
 31
0.0
  0
LINE
  5
A4
330
1F
100
AcDbEntity
  8
0
  6
Continuous
 62
     7
370
    25
100
AcDbLine
 10
-126.4792666161
 20
-625.1624946257
 30
0.0
 11
-125.0983915542
 21
-627.6309322011
 31
0.0
  0
LINE
  5
A5
330
1F
100
AcDbEntity
  8
0
  6
Continuous
 62
     7
370
    25
100
AcDbLine
 10
-125.0983915542
 20
-627.6309322011
 30
0.0
 11
-119.3244225983
 21
-629.2622759713
 31
0.0
  0
LINE
  5
A6
330
1F
100
AcDbEntity
  8
0
  6
Continuous
 62
     7
370
    25
100
AcDbLine
 10
-119.3244225983
 20
-629.2622759713
 30
0.0
 11
-116.8559850229
 21
-627.8814009094
 31
0.0
  0
LINE
  5
A7
330
1F
100
AcDbEntity
  8
0
  6
Continuous
 62
     7
370
    25
100
AcDbLine
 10
-116.8559850229
 20
-627.8814009094
 30
0.0
 11
-114.9527506244
 21
-621.1451037943
 31
0.0
  0
LINE
  5
A8
330
1F
100
AcDbEntity
  8
0
  6
Continuous
 62
     7
370
    25
100
AcDbLine
 10
-114.9527506244
 20
-621.1451037943
 30
0.0
 11
-95.7061874381
 21
-626.5829163617
 31
0.0
  0
LINE
  5
A9
330
1F
100
AcDbEntity
  8
0
  6
Continuous
 62
     7
370
    25
100
AcDbLine
 10
-97.6094218367
 20
-633.3192134769
 30
0.0
 11
-95.7061874381
 21
-626.5829163617
 31
0.0
  0
LINE
  5
AA
330
1F
100
AcDbEntity
  8
0
  6
Continuous
 62
     7
370
    25
100
AcDbLine
 10
-97.6094218367
 20
-633.3192134769
 30
0.0
 11
-96.2285467748
 21
-635.7876510522
 31
0.0
  0
LINE
  5
AB
330
1F
100
AcDbEntity
  8
0
  6
Continuous
 62
     7
370
    25
100
AcDbLine
 10
-96.2285467748
 20
-635.7876510522
 30
0.0
 11
-90.454577819
 21
-637.4189948224
 31
0.0
  0
LINE
  5
AC
330
1F
100
AcDbEntity
  8
0
  6
Continuous
 62
     7
370
    25
100
AcDbLine
 10
-90.454577819
 20
-637.4189948224
 30
0.0
 11
-87.9861402436
 21
-636.0381197606
 31
0.0
  0
LINE
  5
AD
330
1F
100
AcDbEntity
  8
0
  6
Continuous
 62
     7
370
    25
100
AcDbLine
 10
-87.9861402436
 20
-636.0381197606
 30
0.0
 11
-86.082905845
 21
-629.3018226454
 31
0.0
  0
LINE
  5
AE
330
1F
100
AcDbEntity
  8
0
  6
Continuous
 62
     7
370
    25
100
AcDbLine
 10
-86.082905845
 20
-629.3018226454
 30
0.0
 11
-66.8363426588
 21
-634.7396352128
 31
0.0
  0
LINE
  5
AF
330
1F
100
AcDbEntity
  8
0
  6
Continuous
 62
     7
370
    25
100
AcDbLine
 10
-68.7395770574
 20
-641.475932328
 30
0.0
 11
-66.8363426588
 21
-634.7396352128
 31
0.0
  0
LINE
  5
B0
330
1F
100
AcDbEntity
  8
0
  6
Continuous
 62
     7
370
    25
100
AcDbLine
 10
-68.7395770574
 20
-641.475932328
 30
0.0
 11
-67.3587019955
 21
-643.9443699033
 31
0.0
  0
LINE
  5
B1
330
1F
100
AcDbEntity
  8
0
  6
Continuous
 62
     7
370
    25
100
AcDbLine
 10
-67.3587019955
 20
-643.9443699033
 30
0.0
 11
-61.5847330396
 21
-645.5757136736
 31
0.0
  0
LINE
  5
B2
330
1F
100
AcDbEntity
  8
0
  6
Continuous
 62
     7
370
    25
100
AcDbLine
 10
-61.5847330396
 20
-645.5757136736
 30
0.0
 11
-59.1162954642
 21
-644.1948386117
 31
0.0
  0
LINE
  5
B3
330
1F
100
AcDbEntity
  8
0
  6
Continuous
 62
     7
370
    25
100
AcDbLine
 10
-59.1162954642
 20
-644.1948386117
 30
0.0
 11
-57.2130610656
 21
-637.4585414965
 31
0.0
  0
LINE
  5
B4
330
1F
100
AcDbEntity
  8
0
  6
Continuous
 62
     7
370
    25
100
AcDbLine
 10
-57.2130610656
 20
-637.4585414965
 30
0.0
 11
-37.9664978794
 21
-642.8963540639
 31
0.0
  0
LINE
  5
B5
330
1F
100
AcDbEntity
  8
0
  6
Continuous
 62
     7
370
    25
100
AcDbLine
 10
-39.869732278
 20
-649.6326511791
 30
0.0
 11
-37.9664978794
 21
-642.8963540639
 31
0.0
  0
LINE
  5
B6
330
1F
100
AcDbEntity
  8
0
  6
Continuous
 62
     7
370
    25
100
AcDbLine
 10
-39.869732278
 20
-649.6326511791
 30
0.0
 11
-38.4888572161
 21
-652.1010887544
 31
0.0
  0
LINE
  5
B7
330
1F
100
AcDbEntity
  8
0
  6
Continuous
 62
     7
370
    25
100
AcDbLine
 10
-38.4888572161
 20
-652.1010887544
 30
0.0
 11
-32.7148882603
 21
-653.7324325247
 31
0.0
  0
LINE
  5
B8
330
1F
100
AcDbEntity
  8
0
  6
Continuous
 62
     7
370
    25
100
AcDbLine
 10
-32.7148882603
 20
-653.7324325247
 30
0.0
 11
-30.2464506849
 21
-652.3515574628
 31
0.0
  0
LINE
  5
B9
330
1F
100
AcDbEntity
  8
0
  6
Continuous
 62
     7
370
    25
100
AcDbLine
 10
-30.2464506849
 20
-652.3515574628
 30
0.0
 11
-28.3432162863
 21
-645.6152603476
 31
0.0
  0
LINE
  5
BA
330
1F
100
AcDbEntity
  8
0
  6
Continuous
 62
     7
370
    25
100
AcDbLine
 10
-28.3432162863
 20
-645.6152603476
 30
0.0
 11
-23.0504114101
 21
-647.1106588036
 31
0.0
  0
LINE
  5
BB
330
1F
100
AcDbEntity
  8
0
  6
Continuous
 62
     7
370
    25
100
AcDbLine
 10
-23.0504114101
 20
-647.1106588036
 30
0.0
 11
146.8812313214
 21
-45.6555592338
 31
0.0
  0
LINE
  5
BC
330
1F
100
AcDbEntity
  8
0
  6
Continuous
 62
     7
370
    25
100
AcDbLine
 10
146.8812313214
 20
-45.6555592338
 30
0.0
 11
141.5884264452
 21
-44.1601607778
 31
0.0
  0
LINE
  5
BD
330
1F
100
AcDbEntity
  8
0
  6
Continuous
 62
     7
370
    25
100
AcDbLine
 10
143.4916608438
 20
-37.4238636626
 30
0.0
 11
141.5884264452
 21
-44.1601607778
 31
0.0
  0
LINE
  5
BE
330
1F
100
AcDbEntity
  8
0
  6
Continuous
 62
     7
370
    25
100
AcDbLine
 10
143.4916608438
 20
-37.4238636626
 30
0.0
 11
142.1107857819
 21
-34.9554260872
 31
0.0
  0
LINE
  5
BF
330
1F
100
AcDbEntity
  8
0
  6
Continuous
 62
     7
370
    25
100
AcDbLine
 10
136.3368168261
 20
-33.324082317
 30
0.0
 11
142.1107857819
 21
-34.9554260872
 31
0.0
  0
LINE
  5
C0
330
1F
100
AcDbEntity
  8
0
  6
Continuous
 62
     7
370
    25
100
AcDbLine
 10
136.3368168261
 20
-33.324082317
 30
0.0
 11
133.8683792507
 21
-34.7049573789
 31
0.0
  0
LINE
  5
C1
330
1F
100
AcDbEntity
  8
0
  6
Continuous
 62
     7
370
    25
100
AcDbLine
 10
133.8683792507
 20
-34.7049573789
 30
0.0
 11
131.9651448521
 21
-41.4412544941
 31
0.0
  0
LINE
  5
C2
330
1F
100
AcDbEntity
  8
0
  6
Continuous
 62
     7
370
    25
100
AcDbLine
 10
131.9651448521
 20
-41.4412544941
 30
0.0
 11
112.7185816659
 21
-36.0034419266
 31
0.0
  0
LINE
  5
C3
330
1F
100
AcDbEntity
  8
0
  6
Continuous
 62
     7
370
    25
100
AcDbLine
 10
114.6218160645
 20
-29.2671448115
 30
0.0
 11
112.7185816659
 21
-36.0034419266
 31
0.0
  0
LINE
  5
C4
330
1F
100
AcDbEntity
  8
0
  6
Continuous
 62
     7
370
    25
100
AcDbLine
 10
114.6218160645
 20
-29.2671448115
 30
0.0
 11
113.2409410026
 21
-26.7987072361
 31
0.0
  0
LINE
  5
C5
330
1F
100
AcDbEntity
  8
0
  6
Continuous
 62
     7
370
    25
100
AcDbLine
 10
107.4669720467
 20
-25.1673634659
 30
0.0
 11
113.2409410026
 21
-26.7987072361
 31
0.0
  0
LINE
  5
C6
330
1F
100
AcDbEntity
  8
0
  6
Continuous
 62
     7
370
    25
100
AcDbLine
 10
107.4669720467
 20
-25.1673634659
 30
0.0
 11
104.9985344713
 21
-26.5482385278
 31
0.0
  0
LINE
  5
C7
330
1F
100
AcDbEntity
  8
0
  6
Continuous
 62
     7
370
    25
100
AcDbLine
 10
104.9985344713
 20
-26.5482385278
 30
0.0
 11
103.0953000727
 21
-33.2845356429
 31
0.0
  0
LINE
  5
C8
330
1F
100
AcDbEntity
  8
0
  6
Continuous
 62
     7
370
    25
100
AcDbLine
 10
103.0953000727
 20
-33.2845356429
 30
0.0
 11
83.8487368865
 21
-27.8467230755
 31
0.0
  0
LINE
  5
C9
330
1F
100
AcDbEntity
  8
0
  6
Continuous
 62
     7
370
    25
100
AcDbLine
 10
85.7519712851
 20
-21.1104259603
 30
0.0
 11
83.8487368865
 21
-27.8467230755
 31
0.0
  0
LINE
  5
CA
330
1F
100
AcDbEntity
  8
0
  6
Continuous
 62
     7
370
    25
100
AcDbLine
 10
85.7519712851
 20
-21.1104259603
 30
0.0
 11
84.3710962232
 21
-18.641988385
 31
0.0
  0
LINE
  5
CB
330
1F
100
AcDbEntity
  8
0
  6
Continuous
 62
     7
370
    25
100
AcDbLine
 10
78.5971272673
 20
-17.0106446148
 30
0.0
 11
84.3710962232
 21
-18.641988385
 31
0.0
  0
LINE
  5
CC
330
1F
100
AcDbEntity
  8
0
  6
Continuous
 62
     7
370
    25
100
AcDbLine
 10
78.5971272673
 20
-17.0106446148
 30
0.0
 11
76.128689692
 21
-18.3915196766
 31
0.0
  0
LINE
  5
CD
330
1F
100
AcDbEntity
  8
0
  6
Continuous
 62
     7
370
    25
100
AcDbLine
 10
76.128689692
 20
-18.3915196766
 30
0.0
 11
74.2254552934
 21
-25.1278167918
 31
0.0
  0
LINE
  5
CE
330
1F
100
AcDbEntity
  8
0
  6
Continuous
 62
     7
370
    25
100
AcDbLine
 10
74.2254552934
 20
-25.1278167918
 30
0.0
 11
54.9788921072
 21
-19.6900042244
 31
0.0
  0
LINE
  5
CF
330
1F
100
AcDbEntity
  8
0
  6
Continuous
 62
     7
370
    25
100
AcDbLine
 10
56.8821265057
 20
-12.9537071092
 30
0.0
 11
54.9788921072
 21
-19.6900042244
 31
0.0
  0
LINE
  5
D0
330
1F
100
AcDbEntity
  8
0
  6
Continuous
 62
     7
370
    25
100
AcDbLine
 10
56.8821265057
 20
-12.9537071092
 30
0.0
 11
55.5012514439
 21
-10.4852695339
 31
0.0
  0
LINE
  5
D1
330
1F
100
AcDbEntity
  8
0
  6
Continuous
 62
     7
370
    25
100
AcDbLine
 10
49.727282488
 20
-8.8539257636
 30
0.0
 11
55.5012514439
 21
-10.4852695339
 31
0.0
  0
LINE
  5
D2
330
1F
100
AcDbEntity
  8
0
  6
Continuous
 62
     7
370
    25
100
AcDbLine
 10
49.727282488
 20
-8.8539257636
 30
0.0
 11
47.2588449126
 21
-10.2348008255
 31
0.0
  0
LINE
  5
D3
330
1F
100
AcDbEntity
  8
0
  6
Continuous
 62
     7
370
    25
100
AcDbLine
 10
47.2588449126
 20
-10.2348008255
 30
0.0
 11
45.355610514
 21
-16.9710979407
 31
0.0
  0
LINE
  5
D4
330
1F
100
AcDbEntity
  8
0
  6
Continuous
 62
     7
370
    25
100
AcDbLine
 10
45.355610514
 20
-16.9710979407
 30
0.0
 11
41.0251337971
 21
-15.747590113
 31
0.0
  0
LINE
  5
D5
330
1F
100
AcDbEntity
  8
0
  6
Continuous
 62
     7
370
    25
100
AcDbLine
 10
41.0251337971
 20
-15.747590113
 30
0.0
 11
35.5873212297
 21
-34.9941532993
 31
0.0
  0
LINE
  5
D6
330
1F
100
AcDbEntity
  8
0
  6
Continuous
 62
     7
370
    25
100
AcDbLine
 10
35.5873212297
 20
-34.9941532993
 30
0.0
 11
25.9640396366
 21
-32.2752470156
 31
0.0
  0
LINE
  5
D7
330
1F
100
AcDbEntity
  8
0
  6
Continuous
 62
     7
370
    25
100
AcDbLine
 10
25.9640396366
 20
-32.2752470156
 30
0.0
 11
23.2451333529
 21
-41.8985286087
 31
0.0
  0
LINE
  5
D8
330
1F
100
AcDbEntity
  8
0
  6
Continuous
 62
     7
370
    25
100
AcDbLine
 10
23.2451333529
 20
-41.8985286087
 30
0.0
 11
32.868414946
 21
-44.6174348924
 31
0.0
  0
LINE
  5
D9
330
1F
100
AcDbEntity
  8
0
  6
Continuous
 62
     7
370
    25
100
AcDbLine
 10
32.868414946
 20
-44.6174348924
 30
0.0
 11
28.7900555205
 21
-59.0523572821
 31
0.0
  0
LINE
  5
DA
330
1F
100
AcDbEntity
  8
0
  6
Continuous
 62
     7
370
    25
100
AcDbLine
 10
28.7900555205
 20
-59.0523572821
 30
0.0
 11
19.1667739273
 21
-56.3334509984
 31
0.0
  0
LINE
  5
DB
330
1F
100
AcDbEntity
  8
0
  6
Continuous
 62
     7
370
    25
100
AcDbLine
 10
19.1667739273
 20
-56.3334509984
 30
0.0
 11
16.4478676436
 21
-65.9567325915
 31
0.0
  0
LINE
  5
DC
330
1F
100
AcDbEntity
  8
0
  6
Continuous
 62
     7
370
    25
100
AcDbLine
 10
16.4478676436
 20
-65.9567325915
 30
0.0
 11
26.0711492368
 21
-68.6756388752
 31
0.0
  0
LINE
  5
DD
330
1F
100
AcDbEntity
  8
0
  6
Continuous
 62
     7
370
    25
100
AcDbLine
 10
26.0711492368
 20
-68.6756388752
 30
0.0
 11
21.9927898112
 21
-83.1105612649
 31
0.0
  0
LINE
  5
DE
330
1F
100
AcDbEntity
  8
0
  6
Continuous
 62
     7
370
    25
100
AcDbLine
 10
21.9927898112
 20
-83.1105612649
 30
0.0
 11
12.3695082181
 21
-80.3916549812
 31
0.0
  0
LINE
  5
DF
330
1F
100
AcDbEntity
  8
0
  6
Continuous
 62
     7
370
    25
100
AcDbLine
 10
12.3695082181
 20
-80.3916549812
 30
0.0
 11
9.6506019344
 21
-90.0149365743
 31
0.0
  0
LINE
  5
E0
330
1F
100
AcDbEntity
  8
0
  6
Continuous
 62
     7
370
    25
100
AcDbLine
 10
9.6506019344
 20
-90.0149365743
 30
0.0
 11
19.2738835275
 21
-92.733842858
 31
0.0
  0
LINE
  5
E1
330
1F
100
AcDbEntity
  8
0
  6
Continuous
 62
     7
370
    25
100
AcDbLine
 10
19.2738835275
 20
-92.733842858
 30
0.0
 11
15.1955241019
 21
-107.1687652477
 31
0.0
  0
LINE
  5
E2
330
1F
100
AcDbEntity
  8
0
  6
Continuous
 62
     7
370
    25
100
AcDbLine
 10
15.1955241019
 20
-107.1687652477
 30
0.0
 11
5.5722425088
 21
-104.449858964
 31
0.0
  0
LINE
  5
E3
330
1F
100
AcDbEntity
  8
0
  6
Continuous
 62
     7
370
    25
100
AcDbLine
 10
5.5722425088
 20
-104.449858964
 30
0.0
 11
2.8533362251
 21
-114.0731405571
 31
0.0
  0
LINE
  5
E4
330
1F
100
AcDbEntity
  8
0
  6
Continuous
 62
     7
370
    25
100
AcDbLine
 10
2.8533362251
 20
-114.0731405571
 30
0.0
 11
12.4766178182
 21
-116.7920468408
 31
0.0
  0
LINE
  5
E5
330
1F
100
AcDbEntity
  8
0
  6
Continuous
 62
     7
370
    25
100
AcDbLine
 10
12.4766178182
 20
-116.7920468408
 30
0.0
 11
8.3982583927
 21
-131.2269692305
 31
0.0
  0
LINE
  5
E6
330
1F
100
AcDbEntity
  8
0
  6
Continuous
 62
     7
370
    25
100
AcDbLine
 10
8.3982583927
 20
-131.2269692305
 30
0.0
 11
-1.2250232004
 21
-128.5080629468
 31
0.0
  0
LINE
  5
E7
330
1F
100
AcDbEntity
  8
0
  6
Continuous
 62
     7
370
    25
100
AcDbLine
 10
-1.2250232004
 20
-128.5080629468
 30
0.0
 11
-3.9439294841
 21
-138.1313445399
 31
0.0
  0
LINE
  5
E8
330
1F
100
AcDbEntity
  8
0
  6
Continuous
 62
     7
370
    25
100
AcDbLine
 10
-3.9439294841
 20
-138.1313445399
 30
0.0
 11
5.679352109
 21
-140.8502508236
 31
0.0
  0
LINE
  5
E9
330
1F
100
AcDbEntity
  8
0
  6
Continuous
 62
     7
370
    25
100
AcDbLine
 10
5.679352109
 20
-140.8502508236
 30
0.0
 11
1.6009926834
 21
-155.2851732132
 31
0.0
  0
LINE
  5
EA
330
1F
100
AcDbEntity
  8
0
  6
Continuous
 62
     7
370
    25
100
AcDbLine
 10
1.6009926834
 20
-155.2851732132
 30
0.0
 11
-8.0222889097
 21
-152.5662669295
 31
0.0
  0
LINE
  5
EB
330
1F
100
AcDbEntity
  8
0
  6
Continuous
 62
     7
370
    25
100
AcDbLine
 10
-8.0222889097
 20
-152.5662669295
 30
0.0
 11
-10.7411951934
 21
-162.1895485227
 31
0.0
  0
LINE
  5
EC
330
1F
100
AcDbEntity
  8
0
  6
Continuous
 62
     7
370
    25
100
AcDbLine
 10
-10.7411951934
 20
-162.1895485227
 30
0.0
 11
-1.1179136003
 21
-164.9084548064
 31
0.0
  0
LINE
  5
ED
330
1F
100
AcDbEntity
  8
0
  6
Continuous
 62
     7
370
    25
100
AcDbLine
 10
-1.1179136003
 20
-164.9084548064
 30
0.0
 11
-5.1962730258
 21
-179.343377196
 31
0.0
  0
LINE
  5
EE
330
1F
100
AcDbEntity
  8
0
  6
Continuous
 62
     7
370
    25
100
AcDbLine
 10
-5.1962730258
 20
-179.343377196
 30
0.0
 11
-14.819554619
 21
-176.6244709123
 31
0.0
  0
LINE
  5
EF
330
1F
100
AcDbEntity
  8
0
  6
Continuous
 62
     7
370
    25
100
AcDbLine
 10
-14.819554619
 20
-176.6244709123
 30
0.0
 11
-17.5384609027
 21
-186.2477525055
 31
0.0
  0
LINE
  5
F0
330
1F
100
AcDbEntity
  8
0
  6
Continuous
 62
     7
370
    25
100
AcDbLine
 10
-17.5384609027
 20
-186.2477525055
 30
0.0
 11
-7.9151793095
 21
-188.9666587892
 31
0.0
  0
LINE
  5
F1
330
1F
100
AcDbEntity
  8
0
  6
Continuous
 62
     7
370
    25
100
AcDbLine
 10
-7.9151793095
 20
-188.9666587892
 30
0.0
 11
-11.9935387351
 21
-203.4015811788
 31
0.0
  0
LINE
  5
F2
330
1F
100
AcDbEntity
  8
0
  6
Continuous
 62
     7
370
    25
100
AcDbLine
 10
-11.9935387351
 20
-203.4015811788
 30
0.0
 11
-21.6168203282
 21
-200.6826748951
 31
0.0
  0
LINE
  5
F3
330
1F
100
AcDbEntity
  8
0
  6
Continuous
 62
     7
370
    25
100
AcDbLine
 10
-21.6168203282
 20
-200.6826748951
 30
0.0
 11
-24.3357266119
 21
-210.3059564883
 31
0.0
  0
LINE
  5
F4
330
1F
100
AcDbEntity
  8
0
  6
Continuous
 62
     7
370
    25
100
AcDbLine
 10
-24.3357266119
 20
-210.3059564883
 30
0.0
 11
-14.7124450188
 21
-213.024862772
 31
0.0
  0
LINE
  5
F5
330
1F
100
AcDbEntity
  8
0
  6
Continuous
 62
     7
370
    25
100
AcDbLine
 10
-14.7124450188
 20
-213.024862772
 30
0.0
 11
-18.7908044444
 21
-227.4597851616
 31
0.0
  0
LINE
  5
F6
330
1F
100
AcDbEntity
  8
0
  6
Continuous
 62
     7
370
    25
100
AcDbLine
 10
-18.7908044444
 20
-227.4597851616
 30
0.0
 11
-28.4140860375
 21
-224.7408788779
 31
0.0
  0
LINE
  5
F7
330
1F
100
AcDbEntity
  8
0
  6
Continuous
 62
     7
370
    25
100
AcDbLine
 10
-28.4140860375
 20
-224.7408788779
 30
0.0
 11
-31.1329923212
 21
-234.364160471
 31
0.0
  0
LINE
  5
F8
330
1F
100
AcDbEntity
  8
0
  6
Continuous
 62
     7
370
    25
100
AcDbLine
 10
-31.1329923212
 20
-234.364160471
 30
0.0
 11
-21.5097107281
 21
-237.0830667547
 31
0.0
  0
LINE
  5
F9
330
1F
100
AcDbEntity
  8
0
  6
Continuous
 62
     7
370
    25
100
AcDbLine
 10
-21.5097107281
 20
-237.0830667547
 30
0.0
 11
-25.5880701536
 21
-251.5179891444
 31
0.0
  0
LINE
  5
FA
330
1F
100
AcDbEntity
  8
0
  6
Continuous
 62
     7
370
    25
100
AcDbLine
 10
-25.5880701536
 20
-251.5179891444
 30
0.0
 11
-35.2113517467
 21
-248.7990828607
 31
0.0
  0
LINE
  5
FB
330
1F
100
AcDbEntity
  8
0
  6
Continuous
 62
     7
370
    25
100
AcDbLine
 10
-35.2113517467
 20
-248.7990828607
 30
0.0
 11
-37.9302580304
 21
-258.4223644538
 31
0.0
  0
LINE
  5
FC
330
1F
100
AcDbEntity
  8
0
  6
Continuous
 62
     7
370
    25
100
AcDbLine
 10
-37.9302580304
 20
-258.4223644538
 30
0.0
 11
-28.3069764373
 21
-261.1412707375
 31
0.0
  0
LINE
  5
FD
330
1F
100
AcDbEntity
  8
0
  6
Continuous
 62
     7
370
    25
100
AcDbLine
 10
-28.3069764373
 20
-261.1412707375
 30
0.0
 11
-32.3853358629
 21
-275.5761931272
 31
0.0
  0
LINE
  5
FE
330
1F
100
AcDbEntity
  8
0
  6
Continuous
 62
     7
370
    25
100
AcDbLine
 10
-32.3853358629
 20
-275.5761931272
 30
0.0
 11
-42.008617456
 21
-272.8572868435
 31
0.0
  0
LINE
  5
FF
330
1F
100
AcDbEntity
  8
0
  6
Continuous
 62
     7
370
    25
100
AcDbLine
 10
-42.008617456
 20
-272.8572868435
 30
0.0
 11
-44.7275237397
 21
-282.4805684366
 31
0.0
  0
LINE
  5
100
330
1F
100
AcDbEntity
  8
0
  6
Continuous
 62
     7
370
    25
100
AcDbLine
 10
-44.7275237397
 20
-282.4805684366
 30
0.0
 11
-35.1042421466
 21
-285.1994747203
 31
0.0
  0
LINE
  5
101
330
1F
100
AcDbEntity
  8
0
  6
Continuous
 62
     7
370
    25
100
AcDbLine
 10
-35.1042421466
 20
-285.1994747203
 30
0.0
 11
-39.1826015721
 21
-299.63439711
 31
0.0
  0
LINE
  5
102
330
1F
100
AcDbEntity
  8
0
  6
Continuous
 62
     7
370
    25
100
AcDbLine
 10
-39.1826015721
 20
-299.63439711
 30
0.0
 11
-48.8058831653
 21
-296.9154908263
 31
0.0
  0
LINE
  5
103
330
1F
100
AcDbEntity
  8
0
  6
Continuous
 62
     7
370
    25
100
AcDbLine
 10
-48.8058831653
 20
-296.9154908263
 30
0.0
 11
-51.524789449
 21
-306.5387724194
 31
0.0
  0
LINE
  5
104
330
1F
100
AcDbEntity
  8
0
  6
Continuous
 62
     7
370
    25
100
AcDbLine
 10
-51.524789449
 20
-306.5387724194
 30
0.0
 11
-41.9015078558
 21
-309.2576787031
 31
0.0
  0
LINE
  5
105
330
1F
100
AcDbEntity
  8
0
  6
Continuous
 62
     7
370
    25
100
AcDbLine
 10
-41.9015078558
 20
-309.2576787031
 30
0.0
 11
-45.9798672814
 21
-323.6926010928
 31
0.0
  0
LINE
  5
106
330
1F
100
AcDbEntity
  8
0
  6
Continuous
 62
     7
370
    25
100
AcDbLine
 10
-45.9798672814
 20
-323.6926010928
 30
0.0
 11
-55.6031488745
 21
-320.9736948091
 31
0.0
  0
LINE
  5
107
330
1F
100
AcDbEntity
  8
0
  6
Continuous
 62
     7
370
    25
100
AcDbLine
 10
-55.6031488745
 20
-320.9736948091
 30
0.0
 11
-58.3220551582
 21
-330.5969764022
 31
0.0
  0
LINE
  5
108
330
1F
100
AcDbEntity
  8
0
  6
Continuous
 62
     7
370
    25
100
AcDbLine
 10
-58.3220551582
 20
-330.5969764022
 30
0.0
 11
-48.6987735651
 21
-333.3158826859
 31
0.0
  0
LINE
  5
109
330
1F
100
AcDbEntity
  8
0
  6
Continuous
 62
     7
370
    25
100
AcDbLine
 10
-48.6987735651
 20
-333.3158826859
 30
0.0
 11
-52.7771329907
 21
-347.7508050756
 31
0.0
  0
LINE
  5
10A
330
1F
100
AcDbEntity
  8
0
  6
Continuous
 62
     7
370
    25
100
AcDbLine
 10
-52.7771329907
 20
-347.7508050756
 30
0.0
 11
-62.4004145838
 21
-345.0318987919
 31
0.0
  0
LINE
  5
10B
330
1F
100
AcDbEntity
  8
0
  6
Continuous
 62
     7
370
    25
100
AcDbLine
 10
-62.4004145838
 20
-345.0318987919
 30
0.0
 11
-65.1193208675
 21
-354.655180385
 31
0.0
  0
LINE
  5
10C
330
1F
100
AcDbEntity
  8
0
  6
Continuous
 62
     7
370
    25
100
AcDbLine
 10
-65.1193208675
 20
-354.655180385
 30
0.0
 11
-55.4960392744
 21
-357.3740866687
 31
0.0
  0
LINE
  5
10D
330
1F
100
AcDbEntity
  8
0
  6
Continuous
 62
     7
370
    25
100
AcDbLine
 10
-55.4960392744
 20
-357.3740866687
 30
0.0
 11
-59.5743986999
 21
-371.8090090584
 31
0.0
  0
LINE
  5
10E
330
1F
100
AcDbEntity
  8
0
  6
Continuous
 62
     7
370
    25
100
AcDbLine
 10
-59.5743986999
 20
-371.8090090584
 30
0.0
 11
-69.197680293
 21
-369.0901027747
 31
0.0
  0
LINE
  5
10F
330
1F
100
AcDbEntity
  8
0
  6
Continuous
 62
     7
370
    25
100
AcDbLine
 10
-69.197680293
 20
-369.0901027747
 30
0.0
 11
-71.9165865767
 21
-378.7133843678
 31
0.0
  0
LINE
  5
110
330
1F
100
AcDbEntity
  8
0
  6
Continuous
 62
     7
370
    25
100
AcDbLine
 10
-71.9165865767
 20
-378.7133843678
 30
0.0
 11
-62.2933049836
 21
-381.4322906515
 31
0.0
  0
LINE
  5
111
330
1F
100
AcDbEntity
  8
0
  6
Continuous
 62
     7
370
    25
100
AcDbLine
 10
-62.2933049836
 20
-381.4322906515
 30
0.0
 11
-66.3716644092
 21
-395.8672130412
 31
0.0
  0
LINE
  5
112
330
1F
100
AcDbEntity
  8
0
  6
Continuous
 62
     7
370
    25
100
AcDbLine
 10
-66.3716644092
 20
-395.8672130412
 30
0.0
 11
-75.9949460023
 21
-393.1483067575
 31
0.0
  0
LINE
  5
113
330
1F
100
AcDbEntity
  8
0
  6
Continuous
 62
     7
370
    25
100
AcDbLine
 10
-75.9949460023
 20
-393.1483067575
 30
0.0
 11
-78.713852286
 21
-402.7715883506
 31
0.0
  0
LINE
  5
114
330
1F
100
AcDbEntity
  8
0
  6
Continuous
 62
     7
370
    25
100
AcDbLine
 10
-78.713852286
 20
-402.7715883506
 30
0.0
 11
-69.0905706929
 21
-405.4904946343
 31
0.0
  0
LINE
  5
115
330
1F
100
AcDbEntity
  8
0
  6
Continuous
 62
     7
370
    25
100
AcDbLine
 10
-69.0905706929
 20
-405.4904946343
 30
0.0
 11
-73.1689301184
 21
-419.925417024
 31
0.0
  0
LINE
  5
116
330
1F
100
AcDbEntity
  8
0
  6
Continuous
 62
     7
370
    25
100
AcDbLine
 10
-73.1689301184
 20
-419.925417024
 30
0.0
 11
-82.7922117116
 21
-417.2065107403
 31
0.0
  0
LINE
  5
117
330
1F
100
AcDbEntity
  8
0
  6
Continuous
 62
     7
370
    25
100
AcDbLine
 10
-82.7922117116
 20
-417.2065107403
 30
0.0
 11
-85.5111179953
 21
-426.8297923334
 31
0.0
  0
LINE
  5
118
330
1F
100
AcDbEntity
  8
0
  6
Continuous
 62
     7
370
    25
100
AcDbLine
 10
-85.5111179953
 20
-426.8297923334
 30
0.0
 11
-75.8878364021
 21
-429.5486986171
 31
0.0
  0
LINE
  5
119
330
1F
100
AcDbEntity
  8
0
  6
Continuous
 62
     7
370
    25
100
AcDbLine
 10
-75.8878364021
 20
-429.5486986171
 30
0.0
 11
-79.9661958277
 21
-443.9836210068
 31
0.0
  0
LINE
  5
11A
330
1F
100
AcDbEntity
  8
0
  6
Continuous
 62
     7
370
    25
100
AcDbLine
 10
-79.9661958277
 20
-443.9836210068
 30
0.0
 11
-89.5894774208
 21
-441.2647147231
 31
0.0
  0
LINE
  5
11B
330
1F
100
AcDbEntity
  8
0
  6
Continuous
 62
     7
370
    25
100
AcDbLine
 10
-89.5894774208
 20
-441.2647147231
 30
0.0
 11
-92.3083837045
 21
-450.8879963162
 31
0.0
  0
LINE
  5
11C
330
1F
100
AcDbEntity
  8
0
  6
Continuous
 62
     7
370
    25
100
AcDbLine
 10
-92.3083837045
 20
-450.8879963162
 30
0.0
 11
-82.6851021114
 21
-453.6069025999
 31
0.0
  0
LINE
  5
11D
330
1F
100
AcDbEntity
  8
0
  6
Continuous
 62
     7
370
    25
100
AcDbLine
 10
-82.6851021114
 20
-453.6069025999
 30
0.0
 11
-86.763461537
 21
-468.0418249896
 31
0.0
  0
LINE
  5
11E
330
1F
100
AcDbEntity
  8
0
  6
Continuous
 62
     7
370
    25
100
AcDbLine
 10
-86.763461537
 20
-468.0418249896
 30
0.0
 11
-96.3867431301
 21
-465.3229187059
 31
0.0
  0
LINE
  5
11F
330
1F
100
AcDbEntity
  8
0
  6
Continuous
 62
     7
370
    25
100
AcDbLine
 10
-96.3867431301
 20
-465.3229187059
 30
0.0
 11
-99.1056494138
 21
-474.946200299
 31
0.0
  0
LINE
  5
120
330
1F
100
AcDbEntity
  8
0
  6
Continuous
 62
     7
370
    25
100
AcDbLine
 10
-99.1056494138
 20
-474.946200299
 30
0.0
 11
-89.4823678207
 21
-477.6651065827
 31
0.0
  0
LINE
  5
121
330
1F
100
AcDbEntity
  8
0
  6
Continuous
 62
     7
370
    25
100
AcDbLine
 10
-89.4823678207
 20
-477.6651065827
 30
0.0
 11
-93.5607272462
 21
-492.1000289724
 31
0.0
  0
LINE
  5
122
330
1F
100
AcDbEntity
  8
0
  6
Continuous
 62
     7
370
    25
100
AcDbLine
 10
-93.5607272462
 20
-492.1000289724
 30
0.0
 11
-103.1840088393
 21
-489.3811226887
 31
0.0
  0
LINE
  5
123
330
1F
100
AcDbEntity
  8
0
  6
Continuous
 62
     7
370
    25
100
AcDbLine
 10
-103.1840088393
 20
-489.3811226887
 30
0.0
 11
-105.902915123
 21
-499.0044042818
 31
0.0
  0
LINE
  5
124
330
1F
100
AcDbEntity
  8
0
  6
Continuous
 62
     7
370
    25
100
AcDbLine
 10
-105.902915123
 20
-499.0044042818
 30
0.0
 11
-96.2796335299
 21
-501.7233105655
 31
0.0
  0
LINE
  5
125
330
1F
100
AcDbEntity
  8
0
  6
Continuous
 62
     7
370
    25
100
AcDbLine
 10
-96.2796335299
 20
-501.7233105655
 30
0.0
 11
-100.3579929555
 21
-516.1582329552
 31
0.0
  0
LINE
  5
126
330
1F
100
AcDbEntity
  8
0
  6
Continuous
 62
     7
370
    25
100
AcDbLine
 10
-100.3579929555
 20
-516.1582329552
 30
0.0
 11
-109.9812745486
 21
-513.4393266715
 31
0.0
  0
LINE
  5
127
330
1F
100
AcDbEntity
  8
0
  6
Continuous
 62
     7
370
    25
100
AcDbLine
 10
-109.9812745486
 20
-513.4393266715
 30
0.0
 11
-112.7001808323
 21
-523.0626082646
 31
0.0
  0
LINE
  5
128
330
1F
100
AcDbEntity
  8
0
  6
Continuous
 62
     7
370
    25
100
AcDbLine
 10
-112.7001808323
 20
-523.0626082646
 30
0.0
 11
-103.0768992392
 21
-525.7815145483
 31
0.0
  0
LINE
  5
129
330
1F
100
AcDbEntity
  8
0
  6
Continuous
 62
     7
370
    25
100
AcDbLine
 10
-103.0768992392
 20
-525.7815145483
 30
0.0
 11
-107.1552586647
 21
-540.2164369379
 31
0.0
  0
LINE
  5
12A
330
1F
100
AcDbEntity
  8
0
  6
Continuous
 62
     7
370
    25
100
AcDbLine
 10
-107.1552586647
 20
-540.2164369379
 30
0.0
 11
-116.7785402579
 21
-537.4975306542
 31
0.0
  0
LINE
  5
12B
330
1F
100
AcDbEntity
  8
0
  6
Continuous
 62
     7
370
    25
100
AcDbLine
 10
-116.7785402579
 20
-537.4975306542
 30
0.0
 11
-119.4974465416
 21
-547.1208122474
 31
0.0
  0
LINE
  5
12C
330
1F
100
AcDbEntity
  8
0
  6
Continuous
 62
     7
370
    25
100
AcDbLine
 10
-119.4974465416
 20
-547.1208122474
 30
0.0
 11
-109.8741649484
 21
-549.8397185311
 31
0.0
  0
LINE
  5
12D
330
1F
100
AcDbEntity
  8
0
  6
Continuous
 62
     7
370
    25
100
AcDbLine
 10
-109.8741649484
 20
-549.8397185311
 30
0.0
 11
-113.952524374
 21
-564.2746409207
 31
0.0
  0
LINE
  5
12E
330
1F
100
AcDbEntity
  8
0
  6
Continuous
 62
     7
370
    25
100
AcDbLine
 10
-113.952524374
 20
-564.2746409207
 30
0.0
 11
-123.5758059671
 21
-561.555734637
 31
0.0
  0
LINE
  5
12F
330
1F
100
AcDbEntity
  8
0
  6
Continuous
 62
     7
370
    25
100
AcDbLine
 10
-123.5758059671
 20
-561.555734637
 30
0.0
 11
-126.2947122508
 21
-571.1790162302
 31
0.0
  0
LINE
  5
130
330
1F
100
AcDbEntity
  8
0
  6
Continuous
 62
     7
370
    25
100
AcDbLine
 10
-126.2947122508
 20
-571.1790162302
 30
0.0
 11
-116.6714306577
 21
-573.8979225139
 31
0.0
  0
LINE
  5
131
330
1F
100
AcDbEntity
  8
0
  6
Continuous
 62
     7
370
    25
100
AcDbLine
 10
-116.6714306577
 20
-573.8979225139
 30
0.0
 11
-120.7497900833
 21
-588.3328449035
 31
0.0
  0
LINE
  5
132
330
1F
100
AcDbEntity
  8
0
  6
Continuous
 62
     7
370
    25
100
AcDbLine
 10
-120.7497900833
 20
-588.3328449035
 30
0.0
 11
-130.3730716764
 21
-585.6139386198
 31
0.0
  0
LINE
  5
133
330
1F
100
AcDbEntity
  8
0
  6
Continuous
 62
     7
370
    25
100
AcDbLine
 10
-130.3730716764
 20
-585.6139386198
 30
0.0
 11
-133.0919779601
 21
-595.237220213
 31
0.0
  0
LINE
  5
134
330
1F
100
AcDbEntity
  8
0
  6
Continuous
 62
     7
370
    25
100
AcDbLine
 10
-133.0919779601
 20
-595.237220213
 30
0.0
 11
-123.468696367
 21
-597.9561264967
 31
0.0
  0
LINE
  5
135
330
1F
100
AcDbEntity
  8
0
  6
Continuous
 62
     7
370
    25
100
AcDbLine
 10
-123.468696367
 20
-597.9561264967
 30
0.0
 11
-128.9065089344
 21
-617.2026896829
 31
0.0
  0
LINE
  5
136
330
1F
100
AcDbEntity
  8
0
  6
Continuous
 62
     7
370
    25
100
AcDbLine
 10
-128.9065089344
 20
-617.2026896829
 30
0.0
 11
-124.5760322175
 21
-618.4261975106
 31
0.0
  0
LINE
  5
137
330
1F
100
AcDbEntity
  8
0
  6
Continuous
 62
     7
370
    25
100
AcDbLine
 10
90.298864669
 20
-106.7737798814
 30
0.0
 11
79.7132549166
 21
-103.7829829693
 31
0.0
  0
LINE
  5
138
330
1F
100
AcDbEntity
  8
0
  6
Continuous
 62
     7
370
    25
100
AcDbLine
 10
89.8638396637
 20
-108.3135049363
 30
0.0
 11
90.298864669
 21
-106.7737798814
 31
0.0
  0
LINE
  5
139
330
1F
100
AcDbEntity
  8
0
  6
Continuous
 62
     7
370
    25
100
AcDbLine
 10
79.2782299112
 20
-105.3227080242
 30
0.0
 11
89.8638396637
 21
-108.3135049363
 31
0.0
  0
LINE
  5
13A
330
1F
100
AcDbEntity
  8
0
  6
Continuous
 62
     7
370
    25
100
AcDbLine
 10
79.7132549166
 20
-103.7829829693
 30
0.0
 11
79.2782299112
 21
-105.3227080242
 31
0.0
  0
LINE
  5
13B
330
1F
100
AcDbEntity
  8
0
  6
Continuous
 62
     7
370
    25
100
AcDbLine
 10
83.5015989598
 20
-130.8319838642
 30
0.0
 11
72.9159892074
 21
-127.8411869521
 31
0.0
  0
LINE
  5
13C
330
1F
100
AcDbEntity
  8
0
  6
Continuous
 62
     7
370
    25
100
AcDbLine
 10
83.0665739544
 20
-132.3717089191
 30
0.0
 11
83.5015989598
 21
-130.8319838642
 31
0.0
  0
LINE
  5
13D
330
1F
100
AcDbEntity
  8
0
  6
Continuous
 62
     7
370
    25
100
AcDbLine
 10
72.480964202
 20
-129.380912007
 30
0.0
 11
83.0665739544
 21
-132.3717089191
 31
0.0
  0
LINE
  5
13E
330
1F
100
AcDbEntity
  8
0
  6
Continuous
 62
     7
370
    25
100
AcDbLine
 10
72.9159892074
 20
-127.8411869521
 30
0.0
 11
72.480964202
 21
-129.380912007
 31
0.0
  0
LINE
  5
13F
330
1F
100
AcDbEntity
  8
0
  6
Continuous
 62
     7
370
    25
100
AcDbLine
 10
76.7043332505
 20
-154.890187847
 30
0.0
 11
66.1187234981
 21
-151.8993909349
 31
0.0
  0
LINE
  5
140
330
1F
100
AcDbEntity
  8
0
  6
Continuous
 62
     7
370
    25
100
AcDbLine
 10
76.2693082451
 20
-156.4299129019
 30
0.0
 11
76.7043332505
 21
-154.890187847
 31
0.0
  0
LINE
  5
141
330
1F
100
AcDbEntity
  8
0
  6
Continuous
 62
     7
370
    25
100
AcDbLine
 10
65.6836984927
 20
-153.4391159898
 30
0.0
 11
76.2693082451
 21
-156.4299129019
 31
0.0
  0
LINE
  5
142
330
1F
100
AcDbEntity
  8
0
  6
Continuous
 62
     7
370
    25
100
AcDbLine
 10
66.1187234981
 20
-151.8993909349
 30
0.0
 11
65.6836984927
 21
-153.4391159898
 31
0.0
  0
LINE
  5
143
330
1F
100
AcDbEntity
  8
0
  6
Continuous
 62
     7
370
    25
100
AcDbLine
 10
69.9070675413
 20
-178.9483918298
 30
0.0
 11
59.3214577888
 21
-175.9575949177
 31
0.0
  0
LINE
  5
144
330
1F
100
AcDbEntity
  8
0
  6
Continuous
 62
     7
370
    25
100
AcDbLine
 10
69.4720425359
 20
-180.4881168847
 30
0.0
 11
69.9070675413
 21
-178.9483918298
 31
0.0
  0
LINE
  5
145
330
1F
100
AcDbEntity
  8
0
  6
Continuous
 62
     7
370
    25
100
AcDbLine
 10
58.8864327834
 20
-177.4973199726
 30
0.0
 11
69.4720425359
 21
-180.4881168847
 31
0.0
  0
LINE
  5
146
330
1F
100
AcDbEntity
  8
0
  6
Continuous
 62
     7
370
    25
100
AcDbLine
 10
59.3214577888
 20
-175.9575949177
 30
0.0
 11
58.8864327834
 21
-177.4973199726
 31
0.0
  0
LINE
  5
147
330
1F
100
AcDbEntity
  8
0
  6
Continuous
 62
     7
370
    25
100
AcDbLine
 10
63.109801832
 20
-203.0065958126
 30
0.0
 11
52.5241920796
 21
-200.0157989005
 31
0.0
  0
LINE
  5
148
330
1F
100
AcDbEntity
  8
0
  6
Continuous
 62
     7
370
    25
100
AcDbLine
 10
62.6747768266
 20
-204.5463208675
 30
0.0
 11
63.109801832
 21
-203.0065958126
 31
0.0
  0
LINE
  5
149
330
1F
100
AcDbEntity
  8
0
  6
Continuous
 62
     7
370
    25
100
AcDbLine
 10
52.0891670742
 20
-201.5555239554
 30
0.0
 11
62.6747768266
 21
-204.5463208675
 31
0.0
  0
LINE
  5
14A
330
1F
100
AcDbEntity
  8
0
  6
Continuous
 62
     7
370
    25
100
AcDbLine
 10
52.5241920796
 20
-200.0157989005
 30
0.0
 11
52.0891670742
 21
-201.5555239554
 31
0.0
  0
LINE
  5
14B
330
1F
100
AcDbEntity
  8
0
  6
Continuous
 62
     7
370
    25
100
AcDbLine
 10
56.3125361227
 20
-227.0647997953
 30
0.0
 11
45.7269263703
 21
-224.0740028833
 31
0.0
  0
LINE
  5
14C
330
1F
100
AcDbEntity
  8
0
  6
Continuous
 62
     7
370
    25
100
AcDbLine
 10
55.8775111174
 20
-228.6045248502
 30
0.0
 11
56.3125361227
 21
-227.0647997953
 31
0.0
  0
LINE
  5
14D
330
1F
100
AcDbEntity
  8
0
  6
Continuous
 62
     7
370
    25
100
AcDbLine
 10
45.2919013649
 20
-225.6137279382
 30
0.0
 11
55.8775111174
 21
-228.6045248502
 31
0.0
  0
LINE
  5
14E
330
1F
100
AcDbEntity
  8
0
  6
Continuous
 62
     7
370
    25
100
AcDbLine
 10
45.7269263703
 20
-224.0740028833
 30
0.0
 11
45.2919013649
 21
-225.6137279382
 31
0.0
  0
LINE
  5
14F
330
1F
100
AcDbEntity
  8
0
  6
Continuous
 62
     7
370
    25
100
AcDbLine
 10
49.5152704135
 20
-251.1230037781
 30
0.0
 11
38.9296606611
 21
-248.1322068661
 31
0.0
  0
LINE
  5
150
330
1F
100
AcDbEntity
  8
0
  6
Continuous
 62
     7
370
    25
100
AcDbLine
 10
49.0802454081
 20
-252.662728833
 30
0.0
 11
49.5152704135
 21
-251.1230037781
 31
0.0
  0
LINE
  5
151
330
1F
100
AcDbEntity
  8
0
  6
Continuous
 62
     7
370
    25
100
AcDbLine
 10
38.4946356557
 20
-249.671931921
 30
0.0
 11
49.0802454081
 21
-252.662728833
 31
0.0
  0
LINE
  5
152
330
1F
100
AcDbEntity
  8
0
  6
Continuous
 62
     7
370
    25
100
AcDbLine
 10
38.9296606611
 20
-248.1322068661
 30
0.0
 11
38.4946356557
 21
-249.671931921
 31
0.0
  0
LINE
  5
153
330
1F
100
AcDbEntity
  8
0
  6
Continuous
 62
     7
370
    25
100
AcDbLine
 10
42.7180047042
 20
-275.1812077609
 30
0.0
 11
32.1323949518
 21
-272.1904108489
 31
0.0
  0
LINE
  5
154
330
1F
100
AcDbEntity
  8
0
  6
Continuous
 62
     7
370
    25
100
AcDbLine
 10
42.2829796988
 20
-276.7209328158
 30
0.0
 11
42.7180047042
 21
-275.1812077609
 31
0.0
  0
LINE
  5
155
330
1F
100
AcDbEntity
  8
0
  6
Continuous
 62
     7
370
    25
100
AcDbLine
 10
31.6973699464
 20
-273.7301359038
 30
0.0
 11
42.2829796988
 21
-276.7209328158
 31
0.0
  0
LINE
  5
156
330
1F
100
AcDbEntity
  8
0
  6
Continuous
 62
     7
370
    25
100
AcDbLine
 10
32.1323949518
 20
-272.1904108489
 30
0.0
 11
31.6973699464
 21
-273.7301359038
 31
0.0
  0
LINE
  5
157
330
1F
100
AcDbEntity
  8
0
  6
Continuous
 62
     7
370
    25
100
AcDbLine
 10
35.920738995
 20
-299.2394117437
 30
0.0
 11
25.3351292425
 21
-296.2486148317
 31
0.0
  0
LINE
  5
158
330
1F
100
AcDbEntity
  8
0
  6
Continuous
 62
     7
370
    25
100
AcDbLine
 10
35.4857139896
 20
-300.7791367986
 30
0.0
 11
35.920738995
 21
-299.2394117437
 31
0.0
  0
LINE
  5
159
330
1F
100
AcDbEntity
  8
0
  6
Continuous
 62
     7
370
    25
100
AcDbLine
 10
24.9001042371
 20
-297.7883398866
 30
0.0
 11
35.4857139896
 21
-300.7791367986
 31
0.0
  0
LINE
  5
15A
330
1F
100
AcDbEntity
  8
0
  6
Continuous
 62
     7
370
    25
100
AcDbLine
 10
25.3351292425
 20
-296.2486148317
 30
0.0
 11
24.9001042371
 21
-297.7883398866
 31
0.0
  0
LINE
  5
15B
330
1F
100
AcDbEntity
  8
0
  6
Continuous
 62
     7
370
    25
100
AcDbLine
 10
29.1234732857
 20
-323.2976157265
 30
0.0
 11
18.5378635333
 21
-320.3068188144
 31
0.0
  0
LINE
  5
15C
330
1F
100
AcDbEntity
  8
0
  6
Continuous
 62
     7
370
    25
100
AcDbLine
 10
28.6884482803
 20
-324.8373407814
 30
0.0
 11
29.1234732857
 21
-323.2976157265
 31
0.0
  0
LINE
  5
15D
330
1F
100
AcDbEntity
  8
0
  6
Continuous
 62
     7
370
    25
100
AcDbLine
 10
18.1028385279
 20
-321.8465438693
 30
0.0
 11
28.6884482803
 21
-324.8373407814
 31
0.0
  0
LINE
  5
15E
330
1F
100
AcDbEntity
  8
0
  6
Continuous
 62
     7
370
    25
100
AcDbLine
 10
18.5378635333
 20
-320.3068188144
 30
0.0
 11
18.1028385279
 21
-321.8465438693
 31
0.0
  0
LINE
  5
15F
330
1F
100
AcDbEntity
  8
0
  6
Continuous
 62
     7
370
    25
100
AcDbLine
 10
22.3262075764
 20
-347.3558197093
 30
0.0
 11
11.740597824
 21
-344.3650227972
 31
0.0
  0
LINE
  5
160
330
1F
100
AcDbEntity
  8
0
  6
Continuous
 62
     7
370
    25
100
AcDbLine
 10
21.8911825711
 20
-348.8955447642
 30
0.0
 11
22.3262075764
 21
-347.3558197093
 31
0.0
  0
LINE
  5
161
330
1F
100
AcDbEntity
  8
0
  6
Continuous
 62
     7
370
    25
100
AcDbLine
 10
11.3055728186
 20
-345.9047478521
 30
0.0
 11
21.8911825711
 21
-348.8955447642
 31
0.0
  0
LINE
  5
162
330
1F
100
AcDbEntity
  8
0
  6
Continuous
 62
     7
370
    25
100
AcDbLine
 10
11.740597824
 20
-344.3650227972
 30
0.0
 11
11.3055728186
 21
-345.9047478521
 31
0.0
  0
LINE
  5
163
330
1F
100
AcDbEntity
  8
0
  6
Continuous
 62
     7
370
    25
100
AcDbLine
 10
15.5289418672
 20
-371.4140236921
 30
0.0
 11
4.9433321148
 21
-368.42322678
 31
0.0
  0
LINE
  5
164
330
1F
100
AcDbEntity
  8
0
  6
Continuous
 62
     7
370
    25
100
AcDbLine
 10
15.0939168618
 20
-372.953748747
 30
0.0
 11
15.5289418672
 21
-371.4140236921
 31
0.0
  0
LINE
  5
165
330
1F
100
AcDbEntity
  8
0
  6
Continuous
 62
     7
370
    25
100
AcDbLine
 10
4.5083071094
 20
-369.9629518349
 30
0.0
 11
15.0939168618
 21
-372.953748747
 31
0.0
  0
LINE
  5
166
330
1F
100
AcDbEntity
  8
0
  6
Continuous
 62
     7
370
    25
100
AcDbLine
 10
4.9433321148
 20
-368.42322678
 30
0.0
 11
4.5083071094
 21
-369.9629518349
 31
0.0
  0
LINE
  5
167
330
1F
100
AcDbEntity
  8
0
  6
Continuous
 62
     7
370
    25
100
AcDbLine
 10
8.7316761579
 20
-395.4722276749
 30
0.0
 11
-1.8539335945
 21
-392.4814307628
 31
0.0
  0
LINE
  5
168
330
1F
100
AcDbEntity
  8
0
  6
Continuous
 62
     7
370
    25
100
AcDbLine
 10
8.2966511525
 20
-397.0119527298
 30
0.0
 11
8.7316761579
 21
-395.4722276749
 31
0.0
  0
LINE
  5
169
330
1F
100
AcDbEntity
  8
0
  6
Continuous
 62
     7
370
    25
100
AcDbLine
 10
-2.2889585999
 20
-394.0211558177
 30
0.0
 11
8.2966511525
 21
-397.0119527298
 31
0.0
  0
LINE
  5
16A
330
1F
100
AcDbEntity
  8
0
  6
Continuous
 62
     7
370
    25
100
AcDbLine
 10
-1.8539335945
 20
-392.4814307628
 30
0.0
 11
-2.2889585999
 21
-394.0211558177
 31
0.0
  0
LINE
  5
16B
330
1F
100
AcDbEntity
  8
0
  6
Continuous
 62
     7
370
    25
100
AcDbLine
 10
1.9344104487
 20
-419.5304316577
 30
0.0
 11
-8.6511993038
 21
-416.5396347456
 31
0.0
  0
LINE
  5
16C
330
1F
100
AcDbEntity
  8
0
  6
Continuous
 62
     7
370
    25
100
AcDbLine
 10
1.4993854433
 20
-421.0701567126
 30
0.0
 11
1.9344104487
 21
-419.5304316577
 31
0.0
  0
LINE
  5
16D
330
1F
100
AcDbEntity
  8
0
  6
Continuous
 62
     7
370
    25
100
AcDbLine
 10
-9.0862243092
 20
-418.0793598005
 30
0.0
 11
1.4993854433
 21
-421.0701567126
 31
0.0
  0
LINE
  5
16E
330
1F
100
AcDbEntity
  8
0
  6
Continuous
 62
     7
370
    25
100
AcDbLine
 10
-8.6511993038
 20
-416.5396347456
 30
0.0
 11
-9.0862243092
 21
-418.0793598005
 31
0.0
  0
LINE
  5
16F
330
1F
100
AcDbEntity
  8
0
  6
Continuous
 62
     7
370
    25
100
AcDbLine
 10
-4.8628552606
 20
-443.5886356405
 30
0.0
 11
-15.448465013
 21
-440.5978387284
 31
0.0
  0
LINE
  5
170
330
1F
100
AcDbEntity
  8
0
  6
Continuous
 62
     7
370
    25
100
AcDbLine
 10
-5.297880266
 20
-445.1283606954
 30
0.0
 11
-4.8628552606
 21
-443.5886356405
 31
0.0
  0
LINE
  5
171
330
1F
100
AcDbEntity
  8
0
  6
Continuous
 62
     7
370
    25
100
AcDbLine
 10
-15.8834900184
 20
-442.1375637833
 30
0.0
 11
-5.297880266
 21
-445.1283606954
 31
0.0
  0
LINE
  5
172
330
1F
100
AcDbEntity
  8
0
  6
Continuous
 62
     7
370
    25
100
AcDbLine
 10
-15.448465013
 20
-440.5978387284
 30
0.0
 11
-15.8834900184
 21
-442.1375637833
 31
0.0
  0
LINE
  5
173
330
1F
100
AcDbEntity
  8
0
  6
Continuous
 62
     7
370
    25
100
AcDbLine
 10
-11.6601209699
 20
-467.6468396233
 30
0.0
 11
-22.2457307223
 21
-464.6560427112
 31
0.0
  0
LINE
  5
174
330
1F
100
AcDbEntity
  8
0
  6
Continuous
 62
     7
370
    25
100
AcDbLine
 10
-12.0951459752
 20
-469.1865646782
 30
0.0
 11
-11.6601209699
 21
-467.6468396233
 31
0.0
  0
LINE
  5
175
330
1F
100
AcDbEntity
  8
0
  6
Continuous
 62
     7
370
    25
100
AcDbLine
 10
-22.6807557277
 20
-466.1957677661
 30
0.0
 11
-12.0951459752
 21
-469.1865646782
 31
0.0
  0
LINE
  5
176
330
1F
100
AcDbEntity
  8
0
  6
Continuous
 62
     7
370
    25
100
AcDbLine
 10
-22.2457307223
 20
-464.6560427112
 30
0.0
 11
-22.6807557277
 21
-466.1957677661
 31
0.0
  0
LINE
  5
177
330
1F
100
AcDbEntity
  8
0
  6
Continuous
 62
     7
370
    25
100
AcDbLine
 10
-18.4573866791
 20
-491.7050436061
 30
0.0
 11
-29.0429964315
 21
-488.714246694
 31
0.0
  0
LINE
  5
178
330
1F
100
AcDbEntity
  8
0
  6
Continuous
 62
     7
370
    25
100
AcDbLine
 10
-18.8924116845
 20
-493.244768661
 30
0.0
 11
-18.4573866791
 21
-491.7050436061
 31
0.0
  0
LINE
  5
179
330
1F
100
AcDbEntity
  8
0
  6
Continuous
 62
     7
370
    25
100
AcDbLine
 10
-29.4780214369
 20
-490.2539717489
 30
0.0
 11
-18.8924116845
 21
-493.244768661
 31
0.0
  0
LINE
  5
17A
330
1F
100
AcDbEntity
  8
0
  6
Continuous
 62
     7
370
    25
100
AcDbLine
 10
-29.0429964315
 20
-488.714246694
 30
0.0
 11
-29.4780214369
 21
-490.2539717489
 31
0.0
  0
LINE
  5
17B
330
1F
100
AcDbEntity
  8
0
  6
Continuous
 62
     7
370
    25
100
AcDbLine
 10
-25.2546523884
 20
-515.7632475889
 30
0.0
 11
-35.8402621408
 21
-512.7724506768
 31
0.0
  0
LINE
  5
17C
330
1F
100
AcDbEntity
  8
0
  6
Continuous
 62
     7
370
    25
100
AcDbLine
 10
-25.6896773938
 20
-517.3029726438
 30
0.0
 11
-25.2546523884
 21
-515.7632475889
 31
0.0
  0
LINE
  5
17D
330
1F
100
AcDbEntity
  8
0
  6
Continuous
 62
     7
370
    25
100
AcDbLine
 10
-36.2752871462
 20
-514.3121757317
 30
0.0
 11
-25.6896773938
 21
-517.3029726438
 31
0.0
  0
LINE
  5
17E
330
1F
100
AcDbEntity
  8
0
  6
Continuous
 62
     7
370
    25
100
AcDbLine
 10
-35.8402621408
 20
-512.7724506768
 30
0.0
 11
-36.2752871462
 21
-514.3121757317
 31
0.0
  0
LINE
  5
17F
330
1F
100
AcDbEntity
  8
0
  6
Continuous
 62
     7
370
    25
100
AcDbLine
 10
-32.0519180976
 20
-539.8214515717
 30
0.0
 11
-42.6375278501
 21
-536.8306546596
 31
0.0
  0
LINE
  5
180
330
1F
100
AcDbEntity
  8
0
  6
Continuous
 62
     7
370
    25
100
AcDbLine
 10
-32.486943103
 20
-541.3611766266
 30
0.0
 11
-32.0519180976
 21
-539.8214515717
 31
0.0
  0
LINE
  5
181
330
1F
100
AcDbEntity
  8
0
  6
Continuous
 62
     7
370
    25
100
AcDbLine
 10
-43.0725528555
 20
-538.3703797145
 30
0.0
 11
-32.486943103
 21
-541.3611766266
 31
0.0
  0
LINE
  5
182
330
1F
100
AcDbEntity
  8
0
  6
Continuous
 62
     7
370
    25
100
AcDbLine
 10
-42.6375278501
 20
-536.8306546596
 30
0.0
 11
-43.0725528555
 21
-538.3703797145
 31
0.0
  0
LINE
  5
183
330
1F
100
AcDbEntity
  8
0
  6
Continuous
 62
     7
370
    25
100
AcDbLine
 10
-38.8491838069
 20
-563.8796555545
 30
0.0
 11
-49.4347935593
 21
-560.8888586424
 31
0.0
  0
LINE
  5
184
330
1F
100
AcDbEntity
  8
0
  6
Continuous
 62
     7
370
    25
100
AcDbLine
 10
-39.2842088123
 20
-565.4193806094
 30
0.0
 11
-38.8491838069
 21
-563.8796555545
 31
0.0
  0
LINE
  5
185
330
1F
100
AcDbEntity
  8
0
  6
Continuous
 62
     7
370
    25
100
AcDbLine
 10
-49.8698185647
 20
-562.4285836973
 30
0.0
 11
-39.2842088123
 21
-565.4193806094
 31
0.0
  0
LINE
  5
186
330
1F
100
AcDbEntity
  8
0
  6
Continuous
 62
     7
370
    25
100
AcDbLine
 10
-49.4347935593
 20
-560.8888586424
 30
0.0
 11
-49.8698185647
 21
-562.4285836973
 31
0.0
  0
LINE
  5
187
330
1F
100
AcDbEntity
  8
0
  6
Continuous
 62
     7
370
    25
100
AcDbLine
 10
-45.6464495162
 20
-587.9378595373
 30
0.0
 11
-56.2320592686
 21
-584.9470626252
 31
0.0
  0
LINE
  5
188
330
1F
100
AcDbEntity
  8
0
  6
Continuous
 62
     7
370
    25
100
AcDbLine
 10
-46.0814745216
 20
-589.4775845922
 30
0.0
 11
-45.6464495162
 21
-587.9378595373
 31
0.0
  0
LINE
  5
189
330
1F
100
AcDbEntity
  8
0
  6
Continuous
 62
     7
370
    25
100
AcDbLine
 10
-56.667084274
 20
-586.4867876801
 30
0.0
 11
-46.0814745216
 21
-589.4775845922
 31
0.0
  0
LINE
  5
18A
330
1F
100
AcDbEntity
  8
0
  6
Continuous
 62
     7
370
    25
100
AcDbLine
 10
-56.2320592686
 20
-584.9470626252
 30
0.0
 11
-56.667084274
 21
-586.4867876801
 31
0.0
  0
LINE
  5
18B
330
1F
100
AcDbEntity
  8
0
  6
Continuous
 62
     7
370
    25
100
AcDbLine
 10
65.0185250679
 20
-73.6525549529
 30
0.0
 11
54.4329153155
 21
-70.6617580408
 31
0.0
  0
LINE
  5
18C
330
1F
100
AcDbEntity
  8
0
  6
Continuous
 62
     7
370
    25
100
AcDbLine
 10
64.5835000625
 20
-75.1922800078
 30
0.0
 11
65.0185250679
 21
-73.6525549529
 31
0.0
  0
LINE
  5
18D
330
1F
100
AcDbEntity
  8
0
  6
Continuous
 62
     7
370
    25
100
AcDbLine
 10
53.9978903101
 20
-72.2014830957
 30
0.0
 11
64.5835000625
 21
-75.1922800078
 31
0.0
  0
LINE
  5
18E
330
1F
100
AcDbEntity
  8
0
  6
Continuous
 62
     7
370
    25
100
AcDbLine
 10
54.4329153155
 20
-70.6617580408
 30
0.0
 11
53.9978903101
 21
-72.2014830957
 31
0.0
  0
LINE
  5
18F
330
1F
100
AcDbEntity
  8
0
  6
Continuous
 62
     7
370
    25
100
AcDbLine
 10
58.2212593587
 20
-97.7107589357
 30
0.0
 11
47.6356496062
 21
-94.7199620236
 31
0.0
  0
LINE
  5
190
330
1F
100
AcDbEntity
  8
0
  6
Continuous
 62
     7
370
    25
100
AcDbLine
 10
57.7862343533
 20
-99.2504839906
 30
0.0
 11
58.2212593587
 21
-97.7107589357
 31
0.0
  0
LINE
  5
191
330
1F
100
AcDbEntity
  8
0
  6
Continuous
 62
     7
370
    25
100
AcDbLine
 10
47.2006246008
 20
-96.2596870785
 30
0.0
 11
57.7862343533
 21
-99.2504839906
 31
0.0
  0
LINE
  5
192
330
1F
100
AcDbEntity
  8
0
  6
Continuous
 62
     7
370
    25
100
AcDbLine
 10
47.6356496062
 20
-94.7199620236
 30
0.0
 11
47.2006246008
 21
-96.2596870785
 31
0.0
  0
LINE
  5
193
330
1F
100
AcDbEntity
  8
0
  6
Continuous
 62
     7
370
    25
100
AcDbLine
 10
51.4239936494
 20
-121.7689629185
 30
0.0
 11
40.838383897
 21
-118.7781660064
 31
0.0
  0
LINE
  5
194
330
1F
100
AcDbEntity
  8
0
  6
Continuous
 62
     7
370
    25
100
AcDbLine
 10
50.988968644
 20
-123.3086879734
 30
0.0
 11
51.4239936494
 21
-121.7689629185
 31
0.0
  0
LINE
  5
195
330
1F
100
AcDbEntity
  8
0
  6
Continuous
 62
     7
370
    25
100
AcDbLine
 10
40.4033588916
 20
-120.3178910613
 30
0.0
 11
50.988968644
 21
-123.3086879734
 31
0.0
  0
LINE
  5
196
330
1F
100
AcDbEntity
  8
0
  6
Continuous
 62
     7
370
    25
100
AcDbLine
 10
40.838383897
 20
-118.7781660064
 30
0.0
 11
40.4033588916
 21
-120.3178910613
 31
0.0
  0
LINE
  5
197
330
1F
100
AcDbEntity
  8
0
  6
Continuous
 62
     7
370
    25
100
AcDbLine
 10
44.6267279401
 20
-145.8271669013
 30
0.0
 11
34.0411181877
 21
-142.8363699892
 31
0.0
  0
LINE
  5
198
330
1F
100
AcDbEntity
  8
0
  6
Continuous
 62
     7
370
    25
100
AcDbLine
 10
44.1917029347
 20
-147.3668919562
 30
0.0
 11
44.6267279401
 21
-145.8271669013
 31
0.0
  0
LINE
  5
199
330
1F
100
AcDbEntity
  8
0
  6
Continuous
 62
     7
370
    25
100
AcDbLine
 10
33.6060931823
 20
-144.3760950441
 30
0.0
 11
44.1917029347
 21
-147.3668919562
 31
0.0
  0
LINE
  5
19A
330
1F
100
AcDbEntity
  8
0
  6
Continuous
 62
     7
370
    25
100
AcDbLine
 10
34.0411181877
 20
-142.8363699892
 30
0.0
 11
33.6060931823
 21
-144.3760950441
 31
0.0
  0
LINE
  5
19B
330
1F
100
AcDbEntity
  8
0
  6
Continuous
 62
     7
370
    25
100
AcDbLine
 10
37.8294622309
 20
-169.8853708841
 30
0.0
 11
27.2438524784
 21
-166.894573972
 31
0.0
  0
LINE
  5
19C
330
1F
100
AcDbEntity
  8
0
  6
Continuous
 62
     7
370
    25
100
AcDbLine
 10
37.3944372255
 20
-171.425095939
 30
0.0
 11
37.8294622309
 21
-169.8853708841
 31
0.0
  0
LINE
  5
19D
330
1F
100
AcDbEntity
  8
0
  6
Continuous
 62
     7
370
    25
100
AcDbLine
 10
26.8088274731
 20
-168.4342990269
 30
0.0
 11
37.3944372255
 21
-171.425095939
 31
0.0
  0
LINE
  5
19E
330
1F
100
AcDbEntity
  8
0
  6
Continuous
 62
     7
370
    25
100
AcDbLine
 10
27.2438524784
 20
-166.894573972
 30
0.0
 11
26.8088274731
 21
-168.4342990269
 31
0.0
  0
LINE
  5
19F
330
1F
100
AcDbEntity
  8
0
  6
Continuous
 62
     7
370
    25
100
AcDbLine
 10
31.0321965216
 20
-193.9435748669
 30
0.0
 11
20.4465867692
 21
-190.9527779548
 31
0.0
  0
LINE
  5
1A0
330
1F
100
AcDbEntity
  8
0
  6
Continuous
 62
     7
370
    25
100
AcDbLine
 10
30.5971715162
 20
-195.4832999218
 30
0.0
 11
31.0321965216
 21
-193.9435748669
 31
0.0
  0
LINE
  5
1A1
330
1F
100
AcDbEntity
  8
0
  6
Continuous
 62
     7
370
    25
100
AcDbLine
 10
20.0115617638
 20
-192.4925030097
 30
0.0
 11
30.5971715162
 21
-195.4832999218
 31
0.0
  0
LINE
  5
1A2
330
1F
100
AcDbEntity
  8
0
  6
Continuous
 62
     7
370
    25
100
AcDbLine
 10
20.4465867692
 20
-190.9527779548
 30
0.0
 11
20.0115617638
 21
-192.4925030097
 31
0.0
  0
LINE
  5
1A3
330
1F
100
AcDbEntity
  8
0
  6
Continuous
 62
     7
370
    25
100
AcDbLine
 10
24.2349308124
 20
-218.0017788497
 30
0.0
 11
13.6493210599
 21
-215.0109819376
 31
0.0
  0
LINE
  5
1A4
330
1F
100
AcDbEntity
  8
0
  6
Continuous
 62
     7
370
    25
100
AcDbLine
 10
23.799905807
 20
-219.5415039046
 30
0.0
 11
24.2349308124
 21
-218.0017788497
 31
0.0
  0
LINE
  5
1A5
330
1F
100
AcDbEntity
  8
0
  6
Continuous
 62
     7
370
    25
100
AcDbLine
 10
13.2142960545
 20
-216.5507069925
 30
0.0
 11
23.799905807
 21
-219.5415039046
 31
0.0
  0
LINE
  5
1A6
330
1F
100
AcDbEntity
  8
0
  6
Continuous
 62
     7
370
    25
100
AcDbLine
 10
13.6493210599
 20
-215.0109819376
 30
0.0
 11
13.2142960545
 21
-216.5507069925
 31
0.0
  0
LINE
  5
1A7
330
1F
100
AcDbEntity
  8
0
  6
Continuous
 62
     7
370
    25
100
AcDbLine
 10
17.4376651031
 20
-242.0599828325
 30
0.0
 11
6.8520553507
 21
-239.0691859204
 31
0.0
  0
LINE
  5
1A8
330
1F
100
AcDbEntity
  8
0
  6
Continuous
 62
     7
370
    25
100
AcDbLine
 10
17.0026400977
 20
-243.5997078874
 30
0.0
 11
17.4376651031
 21
-242.0599828325
 31
0.0
  0
LINE
  5
1A9
330
1F
100
AcDbEntity
  8
0
  6
Continuous
 62
     7
370
    25
100
AcDbLine
 10
6.4170303453
 20
-240.6089109753
 30
0.0
 11
17.0026400977
 21
-243.5997078874
 31
0.0
  0
LINE
  5
1AA
330
1F
100
AcDbEntity
  8
0
  6
Continuous
 62
     7
370
    25
100
AcDbLine
 10
6.8520553507
 20
-239.0691859204
 30
0.0
 11
6.4170303453
 21
-240.6089109753
 31
0.0
  0
LINE
  5
1AB
330
1F
100
AcDbEntity
  8
0
  6
Continuous
 62
     7
370
    25
100
AcDbLine
 10
10.6403993938
 20
-266.1181868153
 30
0.0
 11
0.0547896414
 21
-263.1273899032
 31
0.0
  0
LINE
  5
1AC
330
1F
100
AcDbEntity
  8
0
  6
Continuous
 62
     7
370
    25
100
AcDbLine
 10
10.2053743884
 20
-267.6579118702
 30
0.0
 11
10.6403993938
 21
-266.1181868153
 31
0.0
  0
LINE
  5
1AD
330
1F
100
AcDbEntity
  8
0
  6
Continuous
 62
     7
370
    25
100
AcDbLine
 10
-0.380235364
 20
-264.6671149581
 30
0.0
 11
10.2053743884
 21
-267.6579118702
 31
0.0
  0
LINE
  5
1AE
330
1F
100
AcDbEntity
  8
0
  6
Continuous
 62
     7
370
    25
100
AcDbLine
 10
0.0547896414
 20
-263.1273899032
 30
0.0
 11
-0.380235364
 21
-264.6671149581
 31
0.0
  0
LINE
  5
1AF
330
1F
100
AcDbEntity
  8
0
  6
Continuous
 62
     7
370
    25
100
AcDbLine
 10
3.8431336846
 20
-290.176390798
 30
0.0
 11
-6.7424760679
 21
-287.185593886
 31
0.0
  0
LINE
  5
1B0
330
1F
100
AcDbEntity
  8
0
  6
Continuous
 62
     7
370
    25
100
AcDbLine
 10
3.4081086792
 20
-291.7161158529
 30
0.0
 11
3.8431336846
 21
-290.176390798
 31
0.0
  0
LINE
  5
1B1
330
1F
100
AcDbEntity
  8
0
  6
Continuous
 62
     7
370
    25
100
AcDbLine
 10
-7.1775010732
 20
-288.7253189409
 30
0.0
 11
3.4081086792
 21
-291.7161158529
 31
0.0
  0
LINE
  5
1B2
330
1F
100
AcDbEntity
  8
0
  6
Continuous
 62
     7
370
    25
100
AcDbLine
 10
-6.7424760679
 20
-287.185593886
 30
0.0
 11
-7.1775010732
 21
-288.7253189409
 31
0.0
  0
LINE
  5
1B3
330
1F
100
AcDbEntity
  8
0
  6
Continuous
 62
     7
370
    25
100
AcDbLine
 10
-2.9541320247
 20
-314.2345947808
 30
0.0
 11
-13.5397417771
 21
-311.2437978688
 31
0.0
  0
LINE
  5
1B4
330
1F
100
AcDbEntity
  8
0
  6
Continuous
 62
     7
370
    25
100
AcDbLine
 10
-3.3891570301
 20
-315.7743198357
 30
0.0
 11
-2.9541320247
 21
-314.2345947808
 31
0.0
  0
LINE
  5
1B5
330
1F
100
AcDbEntity
  8
0
  6
Continuous
 62
     7
370
    25
100
AcDbLine
 10
-13.9747667825
 20
-312.7835229237
 30
0.0
 11
-3.3891570301
 21
-315.7743198357
 31
0.0
  0
LINE
  5
1B6
330
1F
100
AcDbEntity
  8
0
  6
Continuous
 62
     7
370
    25
100
AcDbLine
 10
-13.5397417771
 20
-311.2437978688
 30
0.0
 11
-13.9747667825
 21
-312.7835229237
 31
0.0
  0
LINE
  5
1B7
330
1F
100
AcDbEntity
  8
0
  6
Continuous
 62
     7
370
    25
100
AcDbLine
 10
-9.7513977339
 20
-338.2927987636
 30
0.0
 11
-20.3370074864
 21
-335.3020018516
 31
0.0
  0
LINE
  5
1B8
330
1F
100
AcDbEntity
  8
0
  6
Continuous
 62
     7
370
    25
100
AcDbLine
 10
-10.1864227393
 20
-339.8325238185
 30
0.0
 11
-9.7513977339
 21
-338.2927987636
 31
0.0
  0
LINE
  5
1B9
330
1F
100
AcDbEntity
  8
0
  6
Continuous
 62
     7
370
    25
100
AcDbLine
 10
-20.7720324918
 20
-336.8417269065
 30
0.0
 11
-10.1864227393
 21
-339.8325238185
 31
0.0
  0
LINE
  5
1BA
330
1F
100
AcDbEntity
  8
0
  6
Continuous
 62
     7
370
    25
100
AcDbLine
 10
-20.3370074864
 20
-335.3020018516
 30
0.0
 11
-20.7720324918
 21
-336.8417269065
 31
0.0
  0
LINE
  5
1BB
330
1F
100
AcDbEntity
  8
0
  6
Continuous
 62
     7
370
    25
100
AcDbLine
 10
-16.5486634432
 20
-362.3510027464
 30
0.0
 11
-27.1342731956
 21
-359.3602058344
 31
0.0
  0
LINE
  5
1BC
330
1F
100
AcDbEntity
  8
0
  6
Continuous
 62
     7
370
    25
100
AcDbLine
 10
-16.9836884486
 20
-363.8907278013
 30
0.0
 11
-16.5486634432
 21
-362.3510027464
 31
0.0
  0
LINE
  5
1BD
330
1F
100
AcDbEntity
  8
0
  6
Continuous
 62
     7
370
    25
100
AcDbLine
 10
-27.569298201
 20
-360.8999308893
 30
0.0
 11
-16.9836884486
 21
-363.8907278013
 31
0.0
  0
LINE
  5
1BE
330
1F
100
AcDbEntity
  8
0
  6
Continuous
 62
     7
370
    25
100
AcDbLine
 10
-27.1342731956
 20
-359.3602058344
 30
0.0
 11
-27.569298201
 21
-360.8999308893
 31
0.0
  0
LINE
  5
1BF
330
1F
100
AcDbEntity
  8
0
  6
Continuous
 62
     7
370
    25
100
AcDbLine
 10
-23.3459291525
 20
-386.4092067292
 30
0.0
 11
-33.9315389049
 21
-383.4184098171
 31
0.0
  0
LINE
  5
1C0
330
1F
100
AcDbEntity
  8
0
  6
Continuous
 62
     7
370
    25
100
AcDbLine
 10
-23.7809541579
 20
-387.9489317841
 30
0.0
 11
-23.3459291525
 21
-386.4092067292
 31
0.0
  0
LINE
  5
1C1
330
1F
100
AcDbEntity
  8
0
  6
Continuous
 62
     7
370
    25
100
AcDbLine
 10
-34.3665639103
 20
-384.958134872
 30
0.0
 11
-23.7809541579
 21
-387.9489317841
 31
0.0
  0
LINE
  5
1C2
330
1F
100
AcDbEntity
  8
0
  6
Continuous
 62
     7
370
    25
100
AcDbLine
 10
-33.9315389049
 20
-383.4184098171
 30
0.0
 11
-34.3665639103
 21
-384.958134872
 31
0.0
  0
LINE
  5
1C3
330
1F
100
AcDbEntity
  8
0
  6
Continuous
 62
     7
370
    25
100
AcDbLine
 10
-30.1431948617
 20
-410.467410712
 30
0.0
 11
-40.7288046142
 21
-407.4766137999
 31
0.0
  0
LINE
  5
1C4
330
1F
100
AcDbEntity
  8
0
  6
Continuous
 62
     7
370
    25
100
AcDbLine
 10
-30.5782198671
 20
-412.0071357669
 30
0.0
 11
-30.1431948617
 21
-410.467410712
 31
0.0
  0
LINE
  5
1C5
330
1F
100
AcDbEntity
  8
0
  6
Continuous
 62
     7
370
    25
100
AcDbLine
 10
-41.1638296195
 20
-409.0163388548
 30
0.0
 11
-30.5782198671
 21
-412.0071357669
 31
0.0
  0
LINE
  5
1C6
330
1F
100
AcDbEntity
  8
0
  6
Continuous
 62
     7
370
    25
100
AcDbLine
 10
-40.7288046142
 20
-407.4766137999
 30
0.0
 11
-41.1638296195
 21
-409.0163388548
 31
0.0
  0
LINE
  5
1C7
330
1F
100
AcDbEntity
  8
0
  6
Continuous
 62
     7
370
    25
100
AcDbLine
 10
-36.940460571
 20
-434.5256146948
 30
0.0
 11
-47.5260703234
 21
-431.5348177827
 31
0.0
  0
LINE
  5
1C8
330
1F
100
AcDbEntity
  8
0
  6
Continuous
 62
     7
370
    25
100
AcDbLine
 10
-37.3754855764
 20
-436.0653397497
 30
0.0
 11
-36.940460571
 21
-434.5256146948
 31
0.0
  0
LINE
  5
1C9
330
1F
100
AcDbEntity
  8
0
  6
Continuous
 62
     7
370
    25
100
AcDbLine
 10
-47.9610953288
 20
-433.0745428376
 30
0.0
 11
-37.3754855764
 21
-436.0653397497
 31
0.0
  0
LINE
  5
1CA
330
1F
100
AcDbEntity
  8
0
  6
Continuous
 62
     7
370
    25
100
AcDbLine
 10
-47.5260703234
 20
-431.5348177827
 30
0.0
 11
-47.9610953288
 21
-433.0745428376
 31
0.0
  0
LINE
  5
1CB
330
1F
100
AcDbEntity
  8
0
  6
Continuous
 62
     7
370
    25
100
AcDbLine
 10
-43.7377262802
 20
-458.5838186776
 30
0.0
 11
-54.3233360327
 21
-455.5930217655
 31
0.0
  0
LINE
  5
1CC
330
1F
100
AcDbEntity
  8
0
  6
Continuous
 62
     7
370
    25
100
AcDbLine
 10
-44.1727512856
 20
-460.1235437325
 30
0.0
 11
-43.7377262802
 21
-458.5838186776
 31
0.0
  0
LINE
  5
1CD
330
1F
100
AcDbEntity
  8
0
  6
Continuous
 62
     7
370
    25
100
AcDbLine
 10
-54.7583610381
 20
-457.1327468204
 30
0.0
 11
-44.1727512856
 21
-460.1235437325
 31
0.0
  0
LINE
  5
1CE
330
1F
100
AcDbEntity
  8
0
  6
Continuous
 62
     7
370
    25
100
AcDbLine
 10
-54.3233360327
 20
-455.5930217655
 30
0.0
 11
-54.7583610381
 21
-457.1327468204
 31
0.0
  0
LINE
  5
1CF
330
1F
100
AcDbEntity
  8
0
  6
Continuous
 62
     7
370
    25
100
AcDbLine
 10
-50.5349919895
 20
-482.6420226604
 30
0.0
 11
-61.1206017419
 21
-479.6512257483
 31
0.0
  0
LINE
  5
1D0
330
1F
100
AcDbEntity
  8
0
  6
Continuous
 62
     7
370
    25
100
AcDbLine
 10
-50.9700169949
 20
-484.1817477153
 30
0.0
 11
-50.5349919895
 21
-482.6420226604
 31
0.0
  0
LINE
  5
1D1
330
1F
100
AcDbEntity
  8
0
  6
Continuous
 62
     7
370
    25
100
AcDbLine
 10
-61.5556267473
 20
-481.1909508032
 30
0.0
 11
-50.9700169949
 21
-484.1817477153
 31
0.0
  0
LINE
  5
1D2
330
1F
100
AcDbEntity
  8
0
  6
Continuous
 62
     7
370
    25
100
AcDbLine
 10
-61.1206017419
 20
-479.6512257483
 30
0.0
 11
-61.5556267473
 21
-481.1909508032
 31
0.0
  0
LINE
  5
1D3
330
1F
100
AcDbEntity
  8
0
  6
Continuous
 62
     7
370
    25
100
AcDbLine
 10
-57.3322576988
 20
-506.7002266432
 30
0.0
 11
-67.9178674512
 21
-503.7094297311
 31
0.0
  0
LINE
  5
1D4
330
1F
100
AcDbEntity
  8
0
  6
Continuous
 62
     7
370
    25
100
AcDbLine
 10
-57.7672827042
 20
-508.2399516981
 30
0.0
 11
-57.3322576988
 21
-506.7002266432
 31
0.0
  0
LINE
  5
1D5
330
1F
100
AcDbEntity
  8
0
  6
Continuous
 62
     7
370
    25
100
AcDbLine
 10
-68.3528924566
 20
-505.249154786
 30
0.0
 11
-57.7672827042
 21
-508.2399516981
 31
0.0
  0
LINE
  5
1D6
330
1F
100
AcDbEntity
  8
0
  6
Continuous
 62
     7
370
    25
100
AcDbLine
 10
-67.9178674512
 20
-503.7094297311
 30
0.0
 11
-68.3528924566
 21
-505.249154786
 31
0.0
  0
LINE
  5
1D7
330
1F
100
AcDbEntity
  8
0
  6
Continuous
 62
     7
370
    25
100
AcDbLine
 10
-64.129523408
 20
-530.758430626
 30
0.0
 11
-74.7151331605
 21
-527.7676337139
 31
0.0
  0
LINE
  5
1D8
330
1F
100
AcDbEntity
  8
0
  6
Continuous
 62
     7
370
    25
100
AcDbLine
 10
-64.5645484134
 20
-532.2981556809
 30
0.0
 11
-64.129523408
 21
-530.758430626
 31
0.0
  0
LINE
  5
1D9
330
1F
100
AcDbEntity
  8
0
  6
Continuous
 62
     7
370
    25
100
AcDbLine
 10
-75.1501581659
 20
-529.3073587688
 30
0.0
 11
-64.5645484134
 21
-532.2981556809
 31
0.0
  0
LINE
  5
1DA
330
1F
100
AcDbEntity
  8
0
  6
Continuous
 62
     7
370
    25
100
AcDbLine
 10
-74.7151331605
 20
-527.7676337139
 30
0.0
 11
-75.1501581659
 21
-529.3073587688
 31
0.0
  0
LINE
  5
1DB
330
1F
100
AcDbEntity
  8
0
  6
Continuous
 62
     7
370
    25
100
AcDbLine
 10
-70.9267891173
 20
-554.8166346088
 30
0.0
 11
-81.5123988697
 21
-551.8258376967
 31
0.0
  0
LINE
  5
1DC
330
1F
100
AcDbEntity
  8
0
  6
Continuous
 62
     7
370
    25
100
AcDbLine
 10
-71.3618141227
 20
-556.3563596637
 30
0.0
 11
-70.9267891173
 21
-554.8166346088
 31
0.0
  0
LINE
  5
1DD
330
1F
100
AcDbEntity
  8
0
  6
Continuous
 62
     7
370
    25
100
AcDbLine
 10
-81.9474238751
 20
-553.3655627516
 30
0.0
 11
-71.3618141227
 21
-556.3563596637
 31
0.0
  0
LINE
  5
1DE
330
1F
100
AcDbEntity
  8
0
  6
Continuous
 62
     7
370
    25
100
AcDbLine
 10
-81.5123988697
 20
-551.8258376967
 30
0.0
 11
-81.9474238751
 21
-553.3655627516
 31
0.0
  0
LINE
  5
1DF
330
1F
100
AcDbEntity
  8
0
  6
Continuous
 62
     7
370
    25
100
AcDbLine
 10
-77.7240548265
 20
-578.8748385916
 30
0.0
 11
-88.309664579
 21
-575.8840416795
 31
0.0
  0
LINE
  5
1E0
330
1F
100
AcDbEntity
  8
0
  6
Continuous
 62
     7
370
    25
100
AcDbLine
 10
-78.1590798319
 20
-580.4145636465
 30
0.0
 11
-77.7240548265
 21
-578.8748385916
 31
0.0
  0
LINE
  5
1E1
330
1F
100
AcDbEntity
  8
0
  6
Continuous
 62
     7
370
    25
100
AcDbLine
 10
-88.7446895844
 20
-577.4237667344
 30
0.0
 11
-78.1590798319
 21
-580.4145636465
 31
0.0
  0
LINE
  5
1E2
330
1F
100
AcDbEntity
  8
0
  6
Continuous
 62
     7
370
    25
100
AcDbLine
 10
-88.309664579
 20
-575.8840416795
 30
0.0
 11
-88.7446895844
 21
-577.4237667344
 31
0.0
  0
LINE
  5
1E3
330
1F
100
AcDbEntity
  8
0
  6
Continuous
 62
     7
370
    25
100
AcDbLine
 10
129.1737356887
 20
-91.7785968443
 30
0.0
 11
118.5881259363
 21
-88.7877999322
 31
0.0
  0
LINE
  5
1E4
330
1F
100
AcDbEntity
  8
0
  6
Continuous
 62
     7
370
    25
100
AcDbLine
 10
128.7387106833
 20
-93.3183218992
 30
0.0
 11
129.1737356887
 21
-91.7785968443
 31
0.0
  0
LINE
  5
1E5
330
1F
100
AcDbEntity
  8
0
  6
Continuous
 62
     7
370
    25
100
AcDbLine
 10
118.1531009309
 20
-90.3275249871
 30
0.0
 11
128.7387106833
 21
-93.3183218992
 31
0.0
  0
LINE
  5
1E6
330
1F
100
AcDbEntity
  8
0
  6
Continuous
 62
     7
370
    25
100
AcDbLine
 10
118.5881259363
 20
-88.7877999322
 30
0.0
 11
118.1531009309
 21
-90.3275249871
 31
0.0
  0
LINE
  5
1E7
330
1F
100
AcDbEntity
  8
0
  6
Continuous
 62
     7
370
    25
100
AcDbLine
 10
122.3764699794
 20
-115.8368008271
 30
0.0
 11
111.790860227
 21
-112.846003915
 31
0.0
  0
LINE
  5
1E8
330
1F
100
AcDbEntity
  8
0
  6
Continuous
 62
     7
370
    25
100
AcDbLine
 10
121.941444974
 20
-117.376525882
 30
0.0
 11
122.3764699794
 21
-115.8368008271
 31
0.0
  0
LINE
  5
1E9
330
1F
100
AcDbEntity
  8
0
  6
Continuous
 62
     7
370
    25
100
AcDbLine
 10
111.3558352216
 20
-114.3857289699
 30
0.0
 11
121.941444974
 21
-117.376525882
 31
0.0
  0
LINE
  5
1EA
330
1F
100
AcDbEntity
  8
0
  6
Continuous
 62
     7
370
    25
100
AcDbLine
 10
111.790860227
 20
-112.846003915
 30
0.0
 11
111.3558352216
 21
-114.3857289699
 31
0.0
  0
LINE
  5
1EB
330
1F
100
AcDbEntity
  8
0
  6
Continuous
 62
     7
370
    25
100
AcDbLine
 10
115.5792042702
 20
-139.8950048099
 30
0.0
 11
104.9935945178
 21
-136.9042078978
 31
0.0
  0
LINE
  5
1EC
330
1F
100
AcDbEntity
  8
0
  6
Continuous
 62
     7
370
    25
100
AcDbLine
 10
115.1441792648
 20
-141.4347298647
 30
0.0
 11
115.5792042702
 21
-139.8950048099
 31
0.0
  0
LINE
  5
1ED
330
1F
100
AcDbEntity
  8
0
  6
Continuous
 62
     7
370
    25
100
AcDbLine
 10
104.5585695124
 20
-138.4439329527
 30
0.0
 11
115.1441792648
 21
-141.4347298647
 31
0.0
  0
LINE
  5
1EE
330
1F
100
AcDbEntity
  8
0
  6
Continuous
 62
     7
370
    25
100
AcDbLine
 10
104.9935945178
 20
-136.9042078978
 30
0.0
 11
104.5585695124
 21
-138.4439329527
 31
0.0
  0
LINE
  5
1EF
330
1F
100
AcDbEntity
  8
0
  6
Continuous
 62
     7
370
    25
100
AcDbLine
 10
108.7819385609
 20
-163.9532087926
 30
0.0
 11
98.1963288085
 21
-160.9624118806
 31
0.0
  0
LINE
  5
1F0
330
1F
100
AcDbEntity
  8
0
  6
Continuous
 62
     7
370
    25
100
AcDbLine
 10
108.3469135555
 20
-165.4929338475
 30
0.0
 11
108.7819385609
 21
-163.9532087926
 31
0.0
  0
LINE
  5
1F1
330
1F
100
AcDbEntity
  8
0
  6
Continuous
 62
     7
370
    25
100
AcDbLine
 10
97.7613038031
 20
-162.5021369355
 30
0.0
 11
108.3469135555
 21
-165.4929338475
 31
0.0
  0
LINE
  5
1F2
330
1F
100
AcDbEntity
  8
0
  6
Continuous
 62
     7
370
    25
100
AcDbLine
 10
98.1963288085
 20
-160.9624118806
 30
0.0
 11
97.7613038031
 21
-162.5021369355
 31
0.0
  0
LINE
  5
1F3
330
1F
100
AcDbEntity
  8
0
  6
Continuous
 62
     7
370
    25
100
AcDbLine
 10
101.9846728517
 20
-188.0114127754
 30
0.0
 11
91.3990630992
 21
-185.0206158634
 31
0.0
  0
LINE
  5
1F4
330
1F
100
AcDbEntity
  8
0
  6
Continuous
 62
     7
370
    25
100
AcDbLine
 10
101.5496478463
 20
-189.5511378303
 30
0.0
 11
101.9846728517
 21
-188.0114127754
 31
0.0
  0
LINE
  5
1F5
330
1F
100
AcDbEntity
  8
0
  6
Continuous
 62
     7
370
    25
100
AcDbLine
 10
90.9640380938
 20
-186.5603409183
 30
0.0
 11
101.5496478463
 21
-189.5511378303
 31
0.0
  0
LINE
  5
1F6
330
1F
100
AcDbEntity
  8
0
  6
Continuous
 62
     7
370
    25
100
AcDbLine
 10
91.3990630992
 20
-185.0206158634
 30
0.0
 11
90.9640380938
 21
-186.5603409183
 31
0.0
  0
LINE
  5
1F7
330
1F
100
AcDbEntity
  8
0
  6
Continuous
 62
     7
370
    25
100
AcDbLine
 10
95.1874071424
 20
-212.0696167582
 30
0.0
 11
84.60179739
 21
-209.0788198462
 31
0.0
  0
LINE
  5
1F8
330
1F
100
AcDbEntity
  8
0
  6
Continuous
 62
     7
370
    25
100
AcDbLine
 10
94.752382137
 20
-213.6093418131
 30
0.0
 11
95.1874071424
 21
-212.0696167582
 31
0.0
  0
LINE
  5
1F9
330
1F
100
AcDbEntity
  8
0
  6
Continuous
 62
     7
370
    25
100
AcDbLine
 10
84.1667723846
 20
-210.6185449011
 30
0.0
 11
94.752382137
 21
-213.6093418131
 31
0.0
  0
LINE
  5
1FA
330
1F
100
AcDbEntity
  8
0
  6
Continuous
 62
     7
370
    25
100
AcDbLine
 10
84.60179739
 20
-209.0788198462
 30
0.0
 11
84.1667723846
 21
-210.6185449011
 31
0.0
  0
LINE
  5
1FB
330
1F
100
AcDbEntity
  8
0
  6
Continuous
 62
     7
370
    25
100
AcDbLine
 10
88.3901414331
 20
-236.127820741
 30
0.0
 11
77.8045316807
 21
-233.137023829
 31
0.0
  0
LINE
  5
1FC
330
1F
100
AcDbEntity
  8
0
  6
Continuous
 62
     7
370
    25
100
AcDbLine
 10
87.9551164277
 20
-237.6675457959
 30
0.0
 11
88.3901414331
 21
-236.127820741
 31
0.0
  0
LINE
  5
1FD
330
1F
100
AcDbEntity
  8
0
  6
Continuous
 62
     7
370
    25
100
AcDbLine
 10
77.3695066753
 20
-234.6767488838
 30
0.0
 11
87.9551164277
 21
-237.6675457959
 31
0.0
  0
LINE
  5
1FE
330
1F
100
AcDbEntity
  8
0
  6
Continuous
 62
     7
370
    25
100
AcDbLine
 10
77.8045316807
 20
-233.137023829
 30
0.0
 11
77.3695066753
 21
-234.6767488838
 31
0.0
  0
LINE
  5
1FF
330
1F
100
AcDbEntity
  8
0
  6
Continuous
 62
     7
370
    25
100
AcDbLine
 10
81.5928757239
 20
-260.1860247238
 30
0.0
 11
71.0072659714
 21
-257.1952278117
 31
0.0
  0
LINE
  5
200
330
1F
100
AcDbEntity
  8
0
  6
Continuous
 62
     7
370
    25
100
AcDbLine
 10
81.1578507185
 20
-261.7257497787
 30
0.0
 11
81.5928757239
 21
-260.1860247238
 31
0.0
  0
LINE
  5
201
330
1F
100
AcDbEntity
  8
0
  6
Continuous
 62
     7
370
    25
100
AcDbLine
 10
70.5722409661
 20
-258.7349528666
 30
0.0
 11
81.1578507185
 21
-261.7257497787
 31
0.0
  0
LINE
  5
202
330
1F
100
AcDbEntity
  8
0
  6
Continuous
 62
     7
370
    25
100
AcDbLine
 10
71.0072659714
 20
-257.1952278117
 30
0.0
 11
70.5722409661
 21
-258.7349528666
 31
0.0
  0
LINE
  5
203
330
1F
100
AcDbEntity
  8
0
  6
Continuous
 62
     7
370
    25
100
AcDbLine
 10
74.7956100146
 20
-284.2442287066
 30
0.0
 11
64.2100002622
 21
-281.2534317945
 31
0.0
  0
LINE
  5
204
330
1F
100
AcDbEntity
  8
0
  6
Continuous
 62
     7
370
    25
100
AcDbLine
 10
74.3605850092
 20
-285.7839537615
 30
0.0
 11
74.7956100146
 21
-284.2442287066
 31
0.0
  0
LINE
  5
205
330
1F
100
AcDbEntity
  8
0
  6
Continuous
 62
     7
370
    25
100
AcDbLine
 10
63.7749752568
 20
-282.7931568494
 30
0.0
 11
74.3605850092
 21
-285.7839537615
 31
0.0
  0
LINE
  5
206
330
1F
100
AcDbEntity
  8
0
  6
Continuous
 62
     7
370
    25
100
AcDbLine
 10
64.2100002622
 20
-281.2534317945
 30
0.0
 11
63.7749752568
 21
-282.7931568494
 31
0.0
  0
LINE
  5
207
330
1F
100
AcDbEntity
  8
0
  6
Continuous
 62
     7
370
    25
100
AcDbLine
 10
67.9983443054
 20
-308.3024326894
 30
0.0
 11
57.4127345529
 21
-305.3116357773
 31
0.0
  0
LINE
  5
208
330
1F
100
AcDbEntity
  8
0
  6
Continuous
 62
     7
370
    25
100
AcDbLine
 10
67.5633193
 20
-309.8421577443
 30
0.0
 11
67.9983443054
 21
-308.3024326894
 31
0.0
  0
LINE
  5
209
330
1F
100
AcDbEntity
  8
0
  6
Continuous
 62
     7
370
    25
100
AcDbLine
 10
56.9777095475
 20
-306.8513608322
 30
0.0
 11
67.5633193
 21
-309.8421577443
 31
0.0
  0
LINE
  5
20A
330
1F
100
AcDbEntity
  8
0
  6
Continuous
 62
     7
370
    25
100
AcDbLine
 10
57.4127345529
 20
-305.3116357773
 30
0.0
 11
56.9777095475
 21
-306.8513608322
 31
0.0
  0
LINE
  5
20B
330
1F
100
AcDbEntity
  8
0
  6
Continuous
 62
     7
370
    25
100
AcDbLine
 10
61.2010785961
 20
-332.3606366722
 30
0.0
 11
50.6154688437
 21
-329.3698397601
 31
0.0
  0
LINE
  5
20C
330
1F
100
AcDbEntity
  8
0
  6
Continuous
 62
     7
370
    25
100
AcDbLine
 10
60.7660535907
 20
-333.9003617271
 30
0.0
 11
61.2010785961
 21
-332.3606366722
 31
0.0
  0
LINE
  5
20D
330
1F
100
AcDbEntity
  8
0
  6
Continuous
 62
     7
370
    25
100
AcDbLine
 10
50.1804438383
 20
-330.909564815
 30
0.0
 11
60.7660535907
 21
-333.9003617271
 31
0.0
  0
LINE
  5
20E
330
1F
100
AcDbEntity
  8
0
  6
Continuous
 62
     7
370
    25
100
AcDbLine
 10
50.6154688437
 20
-329.3698397601
 30
0.0
 11
50.1804438383
 21
-330.909564815
 31
0.0
  0
LINE
  5
20F
330
1F
100
AcDbEntity
  8
0
  6
Continuous
 62
     7
370
    25
100
AcDbLine
 10
54.4038128868
 20
-356.418840655
 30
0.0
 11
43.8182031344
 21
-353.4280437429
 31
0.0
  0
LINE
  5
210
330
1F
100
AcDbEntity
  8
0
  6
Continuous
 62
     7
370
    25
100
AcDbLine
 10
53.9687878814
 20
-357.9585657099
 30
0.0
 11
54.4038128868
 21
-356.418840655
 31
0.0
  0
LINE
  5
211
330
1F
100
AcDbEntity
  8
0
  6
Continuous
 62
     7
370
    25
100
AcDbLine
 10
43.383178129
 20
-354.9677687978
 30
0.0
 11
53.9687878814
 21
-357.9585657099
 31
0.0
  0
LINE
  5
212
330
1F
100
AcDbEntity
  8
0
  6
Continuous
 62
     7
370
    25
100
AcDbLine
 10
43.8182031344
 20
-353.4280437429
 30
0.0
 11
43.383178129
 21
-354.9677687978
 31
0.0
  0
LINE
  5
213
330
1F
100
AcDbEntity
  8
0
  6
Continuous
 62
     7
370
    25
100
AcDbLine
 10
47.6065471776
 20
-380.4770446378
 30
0.0
 11
37.0209374251
 21
-377.4862477257
 31
0.0
  0
LINE
  5
214
330
1F
100
AcDbEntity
  8
0
  6
Continuous
 62
     7
370
    25
100
AcDbLine
 10
47.1715221722
 20
-382.0167696927
 30
0.0
 11
47.6065471776
 21
-380.4770446378
 31
0.0
  0
LINE
  5
215
330
1F
100
AcDbEntity
  8
0
  6
Continuous
 62
     7
370
    25
100
AcDbLine
 10
36.5859124198
 20
-379.0259727806
 30
0.0
 11
47.1715221722
 21
-382.0167696927
 31
0.0
  0
LINE
  5
216
330
1F
100
AcDbEntity
  8
0
  6
Continuous
 62
     7
370
    25
100
AcDbLine
 10
37.0209374251
 20
-377.4862477257
 30
0.0
 11
36.5859124198
 21
-379.0259727806
 31
0.0
  0
LINE
  5
217
330
1F
100
AcDbEntity
  8
0
  6
Continuous
 62
     7
370
    25
100
AcDbLine
 10
40.8092814683
 20
-404.5352486206
 30
0.0
 11
30.2236717159
 21
-401.5444517085
 31
0.0
  0
LINE
  5
218
330
1F
100
AcDbEntity
  8
0
  6
Continuous
 62
     7
370
    25
100
AcDbLine
 10
40.3742564629
 20
-406.0749736755
 30
0.0
 11
40.8092814683
 21
-404.5352486206
 31
0.0
  0
LINE
  5
219
330
1F
100
AcDbEntity
  8
0
  6
Continuous
 62
     7
370
    25
100
AcDbLine
 10
29.7886467105
 20
-403.0841767634
 30
0.0
 11
40.3742564629
 21
-406.0749736755
 31
0.0
  0
LINE
  5
21A
330
1F
100
AcDbEntity
  8
0
  6
Continuous
 62
     7
370
    25
100
AcDbLine
 10
30.2236717159
 20
-401.5444517085
 30
0.0
 11
29.7886467105
 21
-403.0841767634
 31
0.0
  0
LINE
  5
21B
330
1F
100
AcDbEntity
  8
0
  6
Continuous
 62
     7
370
    25
100
AcDbLine
 10
34.0120157591
 20
-428.5934526034
 30
0.0
 11
23.4264060066
 21
-425.6026556913
 31
0.0
  0
LINE
  5
21C
330
1F
100
AcDbEntity
  8
0
  6
Continuous
 62
     7
370
    25
100
AcDbLine
 10
33.5769907537
 20
-430.1331776583
 30
0.0
 11
34.0120157591
 21
-428.5934526034
 31
0.0
  0
LINE
  5
21D
330
1F
100
AcDbEntity
  8
0
  6
Continuous
 62
     7
370
    25
100
AcDbLine
 10
22.9913810012
 20
-427.1423807462
 30
0.0
 11
33.5769907537
 21
-430.1331776583
 31
0.0
  0
LINE
  5
21E
330
1F
100
AcDbEntity
  8
0
  6
Continuous
 62
     7
370
    25
100
AcDbLine
 10
23.4264060066
 20
-425.6026556913
 30
0.0
 11
22.9913810012
 21
-427.1423807462
 31
0.0
  0
LINE
  5
21F
330
1F
100
AcDbEntity
  8
0
  6
Continuous
 62
     7
370
    25
100
AcDbLine
 10
27.2147500498
 20
-452.6516565862
 30
0.0
 11
16.6291402974
 21
-449.6608596741
 31
0.0
  0
LINE
  5
220
330
1F
100
AcDbEntity
  8
0
  6
Continuous
 62
     7
370
    25
100
AcDbLine
 10
26.7797250444
 20
-454.1913816411
 30
0.0
 11
27.2147500498
 21
-452.6516565862
 31
0.0
  0
LINE
  5
221
330
1F
100
AcDbEntity
  8
0
  6
Continuous
 62
     7
370
    25
100
AcDbLine
 10
16.194115292
 20
-451.200584729
 30
0.0
 11
26.7797250444
 21
-454.1913816411
 31
0.0
  0
LINE
  5
222
330
1F
100
AcDbEntity
  8
0
  6
Continuous
 62
     7
370
    25
100
AcDbLine
 10
16.6291402974
 20
-449.6608596741
 30
0.0
 11
16.194115292
 21
-451.200584729
 31
0.0
  0
LINE
  5
223
330
1F
100
AcDbEntity
  8
0
  6
Continuous
 62
     7
370
    25
100
AcDbLine
 10
20.4174843405
 20
-476.709860569
 30
0.0
 11
9.8318745881
 21
-473.7190636569
 31
0.0
  0
LINE
  5
224
330
1F
100
AcDbEntity
  8
0
  6
Continuous
 62
     7
370
    25
100
AcDbLine
 10
19.9824593351
 20
-478.2495856239
 30
0.0
 11
20.4174843405
 21
-476.709860569
 31
0.0
  0
LINE
  5
225
330
1F
100
AcDbEntity
  8
0
  6
Continuous
 62
     7
370
    25
100
AcDbLine
 10
9.3968495827
 20
-475.2587887118
 30
0.0
 11
19.9824593351
 21
-478.2495856239
 31
0.0
  0
LINE
  5
226
330
1F
100
AcDbEntity
  8
0
  6
Continuous
 62
     7
370
    25
100
AcDbLine
 10
9.8318745881
 20
-473.7190636569
 30
0.0
 11
9.3968495827
 21
-475.2587887118
 31
0.0
  0
LINE
  5
227
330
1F
100
AcDbEntity
  8
0
  6
Continuous
 62
     7
370
    25
100
AcDbLine
 10
13.6202186313
 20
-500.7680645518
 30
0.0
 11
3.0346088788
 21
-497.7772676397
 31
0.0
  0
LINE
  5
228
330
1F
100
AcDbEntity
  8
0
  6
Continuous
 62
     7
370
    25
100
AcDbLine
 10
13.1851936259
 20
-502.3077896067
 30
0.0
 11
13.6202186313
 21
-500.7680645518
 31
0.0
  0
LINE
  5
229
330
1F
100
AcDbEntity
  8
0
  6
Continuous
 62
     7
370
    25
100
AcDbLine
 10
2.5995838735
 20
-499.3169926946
 30
0.0
 11
13.1851936259
 21
-502.3077896067
 31
0.0
  0
LINE
  5
22A
330
1F
100
AcDbEntity
  8
0
  6
Continuous
 62
     7
370
    25
100
AcDbLine
 10
3.0346088788
 20
-497.7772676397
 30
0.0
 11
2.5995838735
 21
-499.3169926946
 31
0.0
  0
LINE
  5
22B
330
1F
100
AcDbEntity
  8
0
  6
Continuous
 62
     7
370
    25
100
AcDbLine
 10
6.822952922
 20
-524.8262685346
 30
0.0
 11
-3.7626568304
 21
-521.8354716225
 31
0.0
  0
LINE
  5
22C
330
1F
100
AcDbEntity
  8
0
  6
Continuous
 62
     7
370
    25
100
AcDbLine
 10
6.3879279166
 20
-526.3659935894
 30
0.0
 11
6.822952922
 21
-524.8262685346
 31
0.0
  0
LINE
  5
22D
330
1F
100
AcDbEntity
  8
0
  6
Continuous
 62
     7
370
    25
100
AcDbLine
 10
-4.1976818358
 20
-523.3751966774
 30
0.0
 11
6.3879279166
 21
-526.3659935894
 31
0.0
  0
LINE
  5
22E
330
1F
100
AcDbEntity
  8
0
  6
Continuous
 62
     7
370
    25
100
AcDbLine
 10
-3.7626568304
 20
-521.8354716225
 30
0.0
 11
-4.1976818358
 21
-523.3751966774
 31
0.0
  0
LINE
  5
22F
330
1F
100
AcDbEntity
  8
0
  6
Continuous
 62
     7
370
    25
100
AcDbLine
 10
0.0256872128
 20
-548.8844725173
 30
0.0
 11
-10.5599225397
 21
-545.8936756053
 31
0.0
  0
LINE
  5
230
330
1F
100
AcDbEntity
  8
0
  6
Continuous
 62
     7
370
    25
100
AcDbLine
 10
-0.4093377926
 20
-550.4241975722
 30
0.0
 11
0.0256872128
 21
-548.8844725173
 31
0.0
  0
LINE
  5
231
330
1F
100
AcDbEntity
  8
0
  6
Continuous
 62
     7
370
    25
100
AcDbLine
 10
-10.9949475451
 20
-547.4334006602
 30
0.0
 11
-0.4093377926
 21
-550.4241975722
 31
0.0
  0
LINE
  5
232
330
1F
100
AcDbEntity
  8
0
  6
Continuous
 62
     7
370
    25
100
AcDbLine
 10
-10.5599225397
 20
-545.8936756053
 30
0.0
 11
-10.9949475451
 21
-547.4334006602
 31
0.0
  0
LINE
  5
233
330
1F
100
AcDbEntity
  8
0
  6
Continuous
 62
     7
370
    25
100
AcDbLine
 10
-6.7715784965
 20
-572.9426765001
 30
0.0
 11
-17.3571882489
 21
-569.9518795881
 31
0.0
  0
LINE
  5
234
330
1F
100
AcDbEntity
  8
0
  6
Continuous
 62
     7
370
    25
100
AcDbLine
 10
-7.2066035019
 20
-574.482401555
 30
0.0
 11
-6.7715784965
 21
-572.9426765001
 31
0.0
  0
LINE
  5
235
330
1F
100
AcDbEntity
  8
0
  6
Continuous
 62
     7
370
    25
100
AcDbLine
 10
-17.7922132543
 20
-571.491604643
 30
0.0
 11
-7.2066035019
 21
-574.482401555
 31
0.0
  0
LINE
  5
236
330
1F
100
AcDbEntity
  8
0
  6
Continuous
 62
     7
370
    25
100
AcDbLine
 10
-17.3571882489
 20
-569.9518795881
 30
0.0
 11
-17.7922132543
 21
-571.491604643
 31
0.0
  0
LINE
  5
237
330
1F
100
AcDbEntity
  8
0
  6
Continuous
 62
     7
370
    25
100
AcDbLine
 10
-13.5688442058
 20
-597.0008804829
 30
0.0
 11
-24.1544539582
 21
-594.0100835709
 31
0.0
  0
LINE
  5
238
330
1F
100
AcDbEntity
  8
0
  6
Continuous
 62
     7
370
    25
100
AcDbLine
 10
-14.0038692112
 20
-598.5406055378
 30
0.0
 11
-13.5688442058
 21
-597.0008804829
 31
0.0
  0
LINE
  5
239
330
1F
100
AcDbEntity
  8
0
  6
Continuous
 62
     7
370
    25
100
AcDbLine
 10
-24.5894789636
 20
-595.5498086258
 30
0.0
 11
-14.0038692112
 21
-598.5406055378
 31
0.0
  0
LINE
  5
23A
330
1F
100
AcDbEntity
  8
0
  6
Continuous
 62
     7
370
    25
100
AcDbLine
 10
-24.1544539582
 20
-594.0100835709
 30
0.0
 11
-24.5894789636
 21
-595.5498086258
 31
0.0
  0
LINE
  5
23B
330
1F
100
AcDbEntity
  8
0
  6
Continuous
 62
     7
370
    25
100
AcDbLine
 10
-20.366109915
 20
-621.0590844657
 30
0.0
 11
-30.9517196675
 21
-618.0682875537
 31
0.0
  0
LINE
  5
23C
330
1F
100
AcDbEntity
  8
0
  6
Continuous
 62
     7
370
    25
100
AcDbLine
 10
-20.8011349204
 20
-622.5988095206
 30
0.0
 11
-20.366109915
 21
-621.0590844657
 31
0.0
  0
LINE
  5
23D
330
1F
100
AcDbEntity
  8
0
  6
Continuous
 62
     7
370
    25
100
AcDbLine
 10
-31.3867446728
 20
-619.6080126085
 30
0.0
 11
-20.8011349204
 21
-622.5988095206
 31
0.0
  0
LINE
  5
23E
330
1F
100
AcDbEntity
  8
0
  6
Continuous
 62
     7
370
    25
100
AcDbLine
 10
-30.9517196675
 20
-618.0682875537
 30
0.0
 11
-31.3867446728
 21
-619.6080126085
 31
0.0
  0
LINE
  5
23F
330
1F
100
AcDbEntity
  8
0
  6
Continuous
 62
     7
370
    25
100
AcDbLine
 10
103.8933960876
 20
-58.6573719158
 30
0.0
 11
93.3077863351
 21
-55.6665750037
 31
0.0
  0
LINE
  5
240
330
1F
100
AcDbEntity
  8
0
  6
Continuous
 62
     7
370
    25
100
AcDbLine
 10
103.4583710822
 20
-60.1970969707
 30
0.0
 11
103.8933960876
 21
-58.6573719158
 31
0.0
  0
LINE
  5
241
330
1F
100
AcDbEntity
  8
0
  6
Continuous
 62
     7
370
    25
100
AcDbLine
 10
92.8727613297
 20
-57.2063000586
 30
0.0
 11
103.4583710822
 21
-60.1970969707
 31
0.0
  0
LINE
  5
242
330
1F
100
AcDbEntity
  8
0
  6
Continuous
 62
     7
370
    25
100
AcDbLine
 10
93.3077863351
 20
-55.6665750037
 30
0.0
 11
92.8727613297
 21
-57.2063000586
 31
0.0
  0
LINE
  5
243
330
1F
100
AcDbEntity
  8
0
  6
Continuous
 62
     7
370
    25
100
AcDbLine
 10
-52.4437152254
 20
-611.99606352
 30
0.0
 11
-63.0293249778
 21
-609.005266608
 31
0.0
  0
LINE
  5
244
330
1F
100
AcDbEntity
  8
0
  6
Continuous
 62
     7
370
    25
100
AcDbLine
 10
-52.8787402308
 20
-613.5357885749
 30
0.0
 11
-52.4437152254
 21
-611.99606352
 31
0.0
  0
LINE
  5
245
330
1F
100
AcDbEntity
  8
0
  6
Continuous
 62
     7
370
    25
100
AcDbLine
 10
-63.4643499832
 20
-610.5449916629
 30
0.0
 11
-52.8787402308
 21
-613.5357885749
 31
0.0
  0
LINE
  5
246
330
1F
100
AcDbEntity
  8
0
  6
Continuous
 62
     7
370
    25
100
AcDbLine
 10
-63.0293249778
 20
-609.005266608
 30
0.0
 11
-63.4643499832
 21
-610.5449916629
 31
0.0
  0
LINE
  5
247
330
1F
100
AcDbEntity
  8
0
  6
Continuous
 62
     7
370
    25
100
AcDbLine
 10
71.8157907772
 20
-49.5943509701
 30
0.0
 11
61.2301810247
 21
-46.603554058
 31
0.0
  0
LINE
  5
248
330
1F
100
AcDbEntity
  8
0
  6
Continuous
 62
     7
370
    25
100
AcDbLine
 10
71.3807657718
 20
-51.134076025
 30
0.0
 11
71.8157907772
 21
-49.5943509701
 31
0.0
  0
LINE
  5
249
330
1F
100
AcDbEntity
  8
0
  6
Continuous
 62
     7
370
    25
100
AcDbLine
 10
60.7951560194
 20
-48.1432791129
 30
0.0
 11
71.3807657718
 21
-51.134076025
 31
0.0
  0
LINE
  5
24A
330
1F
100
AcDbEntity
  8
0
  6
Continuous
 62
     7
370
    25
100
AcDbLine
 10
61.2301810247
 20
-46.603554058
 30
0.0
 11
60.7951560194
 21
-48.1432791129
 31
0.0
  0
LINE
  5
24B
330
1F
100
AcDbEntity
  8
0
  6
Continuous
 62
     7
370
    25
100
AcDbLine
 10
-84.5213205358
 20
-602.9330425744
 30
0.0
 11
-95.1069302882
 21
-599.9422456623
 31
0.0
  0
LINE
  5
24C
330
1F
100
AcDbEntity
  8
0
  6
Continuous
 62
     7
370
    25
100
AcDbLine
 10
-84.9563455412
 20
-604.4727676293
 30
0.0
 11
-84.5213205358
 21
-602.9330425744
 31
0.0
  0
LINE
  5
24D
330
1F
100
AcDbEntity
  8
0
  6
Continuous
 62
     7
370
    25
100
AcDbLine
 10
-95.5419552936
 20
-601.4819707172
 30
0.0
 11
-84.9563455412
 21
-604.4727676293
 31
0.0
  0
LINE
  5
24E
330
1F
100
AcDbEntity
  8
0
  6
Continuous
 62
     7
370
    25
100
AcDbLine
 10
-95.1069302882
 20
-599.9422456623
 30
0.0
 11
-95.5419552936
 21
-601.4819707172
 31
0.0
  0
LINE
  5
24F
330
1F
100
AcDbEntity
  8
0
  6
Continuous
 62
     7
370
    25
100
AcDbLine
 10
39.7381854668
 20
-40.5313300244
 30
0.0
 11
29.1525757144
 21
-37.5405331124
 31
0.0
  0
LINE
  5
250
330
1F
100
AcDbEntity
  8
0
  6
Continuous
 62
     7
370
    25
100
AcDbLine
 10
39.3031604614
 20
-42.0710550793
 30
0.0
 11
39.7381854668
 21
-40.5313300244
 31
0.0
  0
LINE
  5
251
330
1F
100
AcDbEntity
  8
0
  6
Continuous
 62
     7
370
    25
100
AcDbLine
 10
28.717550709
 20
-39.0802581673
 30
0.0
 11
39.3031604614
 21
-42.0710550793
 31
0.0
  0
LINE
  5
252
330
1F
100
AcDbEntity
  8
0
  6
Continuous
 62
     7
370
    25
100
AcDbLine
 10
29.1525757144
 20
-37.5405331124
 30
0.0
 11
28.717550709
 21
-39.0802581673
 31
0.0
  0
LINE
  5
253
330
1F
100
AcDbEntity
  8
0
  6
Continuous
 62
     7
370
    25
100
AcDbLine
 10
32.9409197575
 20
-64.5895340072
 30
0.0
 11
22.3553100051
 21
-61.5987370951
 31
0.0
  0
LINE
  5
254
330
1F
100
AcDbEntity
  8
0
  6
Continuous
 62
     7
370
    25
100
AcDbLine
 10
32.5058947521
 20
-66.1292590621
 30
0.0
 11
32.9409197575
 21
-64.5895340072
 31
0.0
  0
LINE
  5
255
330
1F
100
AcDbEntity
  8
0
  6
Continuous
 62
     7
370
    25
100
AcDbLine
 10
21.9202849997
 20
-63.13846215
 30
0.0
 11
32.5058947521
 21
-66.1292590621
 31
0.0
  0
LINE
  5
256
330
1F
100
AcDbEntity
  8
0
  6
Continuous
 62
     7
370
    25
100
AcDbLine
 10
22.3553100051
 20
-61.5987370951
 30
0.0
 11
21.9202849997
 21
-63.13846215
 31
0.0
  0
LINE
  5
257
330
1F
100
AcDbEntity
  8
0
  6
Continuous
 62
     7
370
    25
100
AcDbLine
 10
26.1436540483
 20
-88.64773799
 30
0.0
 11
15.5580442958
 21
-85.6569410779
 31
0.0
  0
LINE
  5
258
330
1F
100
AcDbEntity
  8
0
  6
Continuous
 62
     7
370
    25
100
AcDbLine
 10
25.7086290429
 20
-90.1874630449
 30
0.0
 11
26.1436540483
 21
-88.64773799
 31
0.0
  0
LINE
  5
259
330
1F
100
AcDbEntity
  8
0
  6
Continuous
 62
     7
370
    25
100
AcDbLine
 10
15.1230192904
 20
-87.1966661328
 30
0.0
 11
25.7086290429
 21
-90.1874630449
 31
0.0
  0
LINE
  5
25A
330
1F
100
AcDbEntity
  8
0
  6
Continuous
 62
     7
370
    25
100
AcDbLine
 10
15.5580442958
 20
-85.6569410779
 30
0.0
 11
15.1230192904
 21
-87.1966661328
 31
0.0
  0
LINE
  5
25B
330
1F
100
AcDbEntity
  8
0
  6
Continuous
 62
     7
370
    25
100
AcDbLine
 10
19.346388339
 20
-112.7059419728
 30
0.0
 11
8.7607785866
 21
-109.7151450607
 31
0.0
  0
LINE
  5
25C
330
1F
100
AcDbEntity
  8
0
  6
Continuous
 62
     7
370
    25
100
AcDbLine
 10
18.9113633336
 20
-114.2456670277
 30
0.0
 11
19.346388339
 21
-112.7059419728
 31
0.0
  0
LINE
  5
25D
330
1F
100
AcDbEntity
  8
0
  6
Continuous
 62
     7
370
    25
100
AcDbLine
 10
8.3257535812
 20
-111.2548701156
 30
0.0
 11
18.9113633336
 21
-114.2456670277
 31
0.0
  0
LINE
  5
25E
330
1F
100
AcDbEntity
  8
0
  6
Continuous
 62
     7
370
    25
100
AcDbLine
 10
8.7607785866
 20
-109.7151450607
 30
0.0
 11
8.3257535812
 21
-111.2548701156
 31
0.0
  0
LINE
  5
25F
330
1F
100
AcDbEntity
  8
0
  6
Continuous
 62
     7
370
    25
100
AcDbLine
 10
12.5491226297
 20
-136.7641459556
 30
0.0
 11
1.9635128773
 21
-133.7733490435
 31
0.0
  0
LINE
  5
260
330
1F
100
AcDbEntity
  8
0
  6
Continuous
 62
     7
370
    25
100
AcDbLine
 10
12.1140976244
 20
-138.3038710105
 30
0.0
 11
12.5491226297
 21
-136.7641459556
 31
0.0
  0
LINE
  5
261
330
1F
100
AcDbEntity
  8
0
  6
Continuous
 62
     7
370
    25
100
AcDbLine
 10
1.5284878719
 20
-135.3130740984
 30
0.0
 11
12.1140976244
 21
-138.3038710105
 31
0.0
  0
LINE
  5
262
330
1F
100
AcDbEntity
  8
0
  6
Continuous
 62
     7
370
    25
100
AcDbLine
 10
1.9635128773
 20
-133.7733490435
 30
0.0
 11
1.5284878719
 21
-135.3130740984
 31
0.0
  0
LINE
  5
263
330
1F
100
AcDbEntity
  8
0
  6
Continuous
 62
     7
370
    25
100
AcDbLine
 10
5.7518569205
 20
-160.8223499384
 30
0.0
 11
-4.8337528319
 21
-157.8315530263
 31
0.0
  0
LINE
  5
264
330
1F
100
AcDbEntity
  8
0
  6
Continuous
 62
     7
370
    25
100
AcDbLine
 10
5.3168319151
 20
-162.3620749933
 30
0.0
 11
5.7518569205
 21
-160.8223499384
 31
0.0
  0
LINE
  5
265
330
1F
100
AcDbEntity
  8
0
  6
Continuous
 62
     7
370
    25
100
AcDbLine
 10
-5.2687778373
 20
-159.3712780812
 30
0.0
 11
5.3168319151
 21
-162.3620749933
 31
0.0
  0
LINE
  5
266
330
1F
100
AcDbEntity
  8
0
  6
Continuous
 62
     7
370
    25
100
AcDbLine
 10
-4.8337528319
 20
-157.8315530263
 30
0.0
 11
-5.2687778373
 21
-159.3712780812
 31
0.0
  0
LINE
  5
267
330
1F
100
AcDbEntity
  8
0
  6
Continuous
 62
     7
370
    25
100
AcDbLine
 10
-1.0454087888
 20
-184.8805539212
 30
0.0
 11
-11.6310185412
 21
-181.8897570091
 31
0.0
  0
LINE
  5
268
330
1F
100
AcDbEntity
  8
0
  6
Continuous
 62
     7
370
    25
100
AcDbLine
 10
-1.4804337942
 20
-186.4202789761
 30
0.0
 11
-1.0454087888
 21
-184.8805539212
 31
0.0
  0
LINE
  5
269
330
1F
100
AcDbEntity
  8
0
  6
Continuous
 62
     7
370
    25
100
AcDbLine
 10
-12.0660435466
 20
-183.429482064
 30
0.0
 11
-1.4804337942
 21
-186.4202789761
 31
0.0
  0
LINE
  5
26A
330
1F
100
AcDbEntity
  8
0
  6
Continuous
 62
     7
370
    25
100
AcDbLine
 10
-11.6310185412
 20
-181.8897570091
 30
0.0
 11
-12.0660435466
 21
-183.429482064
 31
0.0
  0
LINE
  5
26B
330
1F
100
AcDbEntity
  8
0
  6
Continuous
 62
     7
370
    25
100
AcDbLine
 10
-7.842674498
 20
-208.938757904
 30
0.0
 11
-18.4282842505
 21
-205.9479609919
 31
0.0
  0
LINE
  5
26C
330
1F
100
AcDbEntity
  8
0
  6
Continuous
 62
     7
370
    25
100
AcDbLine
 10
-8.2776995034
 20
-210.4784829589
 30
0.0
 11
-7.842674498
 21
-208.938757904
 31
0.0
  0
LINE
  5
26D
330
1F
100
AcDbEntity
  8
0
  6
Continuous
 62
     7
370
    25
100
AcDbLine
 10
-18.8633092559
 20
-207.4876860468
 30
0.0
 11
-8.2776995034
 21
-210.4784829589
 31
0.0
  0
LINE
  5
26E
330
1F
100
AcDbEntity
  8
0
  6
Continuous
 62
     7
370
    25
100
AcDbLine
 10
-18.4282842505
 20
-205.9479609919
 30
0.0
 11
-18.8633092559
 21
-207.4876860468
 31
0.0
  0
LINE
  5
26F
330
1F
100
AcDbEntity
  8
0
  6
Continuous
 62
     7
370
    25
100
AcDbLine
 10
-14.6399402073
 20
-232.9969618868
 30
0.0
 11
-25.2255499597
 21
-230.0061649747
 31
0.0
  0
LINE
  5
270
330
1F
100
AcDbEntity
  8
0
  6
Continuous
 62
     7
370
    25
100
AcDbLine
 10
-15.0749652127
 20
-234.5366869417
 30
0.0
 11
-14.6399402073
 21
-232.9969618868
 31
0.0
  0
LINE
  5
271
330
1F
100
AcDbEntity
  8
0
  6
Continuous
 62
     7
370
    25
100
AcDbLine
 10
-25.6605749651
 20
-231.5458900296
 30
0.0
 11
-15.0749652127
 21
-234.5366869417
 31
0.0
  0
LINE
  5
272
330
1F
100
AcDbEntity
  8
0
  6
Continuous
 62
     7
370
    25
100
AcDbLine
 10
-25.2255499597
 20
-230.0061649747
 30
0.0
 11
-25.6605749651
 21
-231.5458900296
 31
0.0
  0
LINE
  5
273
330
1F
100
AcDbEntity
  8
0
  6
Continuous
 62
     7
370
    25
100
AcDbLine
 10
-21.4372059166
 20
-257.0551658696
 30
0.0
 11
-32.022815669
 21
-254.0643689575
 31
0.0
  0
LINE
  5
274
330
1F
100
AcDbEntity
  8
0
  6
Continuous
 62
     7
370
    25
100
AcDbLine
 10
-21.8722309219
 20
-258.5948909245
 30
0.0
 11
-21.4372059166
 21
-257.0551658696
 31
0.0
  0
LINE
  5
275
330
1F
100
AcDbEntity
  8
0
  6
Continuous
 62
     7
370
    25
100
AcDbLine
 10
-32.4578406744
 20
-255.6040940124
 30
0.0
 11
-21.8722309219
 21
-258.5948909245
 31
0.0
  0
LINE
  5
276
330
1F
100
AcDbEntity
  8
0
  6
Continuous
 62
     7
370
    25
100
AcDbLine
 10
-32.022815669
 20
-254.0643689575
 30
0.0
 11
-32.4578406744
 21
-255.6040940124
 31
0.0
  0
LINE
  5
277
330
1F
100
AcDbEntity
  8
0
  6
Continuous
 62
     7
370
    25
100
AcDbLine
 10
-28.2344716258
 20
-281.1133698524
 30
0.0
 11
-38.8200813782
 21
-278.1225729403
 31
0.0
  0
LINE
  5
278
330
1F
100
AcDbEntity
  8
0
  6
Continuous
 62
     7
370
    25
100
AcDbLine
 10
-28.6694966312
 20
-282.6530949073
 30
0.0
 11
-28.2344716258
 21
-281.1133698524
 31
0.0
  0
LINE
  5
279
330
1F
100
AcDbEntity
  8
0
  6
Continuous
 62
     7
370
    25
100
AcDbLine
 10
-39.2551063836
 20
-279.6622979952
 30
0.0
 11
-28.6694966312
 21
-282.6530949073
 31
0.0
  0
LINE
  5
27A
330
1F
100
AcDbEntity
  8
0
  6
Continuous
 62
     7
370
    25
100
AcDbLine
 10
-38.8200813782
 20
-278.1225729403
 30
0.0
 11
-39.2551063836
 21
-279.6622979952
 31
0.0
  0
LINE
  5
27B
330
1F
100
AcDbEntity
  8
0
  6
Continuous
 62
     7
370
    25
100
AcDbLine
 10
-35.0317373351
 20
-305.1715738352
 30
0.0
 11
-45.6173470875
 21
-302.1807769231
 31
0.0
  0
LINE
  5
27C
330
1F
100
AcDbEntity
  8
0
  6
Continuous
 62
     7
370
    25
100
AcDbLine
 10
-35.4667623405
 20
-306.7112988901
 30
0.0
 11
-35.0317373351
 21
-305.1715738352
 31
0.0
  0
LINE
  5
27D
330
1F
100
AcDbEntity
  8
0
  6
Continuous
 62
     7
370
    25
100
AcDbLine
 10
-46.0523720929
 20
-303.720501978
 30
0.0
 11
-35.4667623405
 21
-306.7112988901
 31
0.0
  0
LINE
  5
27E
330
1F
100
AcDbEntity
  8
0
  6
Continuous
 62
     7
370
    25
100
AcDbLine
 10
-45.6173470875
 20
-302.1807769231
 30
0.0
 11
-46.0523720929
 21
-303.720501978
 31
0.0
  0
LINE
  5
27F
330
1F
100
AcDbEntity
  8
0
  6
Continuous
 62
     7
370
    25
100
AcDbLine
 10
-41.8290030443
 20
-329.229777818
 30
0.0
 11
-52.4146127968
 21
-326.2389809059
 31
0.0
  0
LINE
  5
280
330
1F
100
AcDbEntity
  8
0
  6
Continuous
 62
     7
370
    25
100
AcDbLine
 10
-42.2640280497
 20
-330.7695028729
 30
0.0
 11
-41.8290030443
 21
-329.229777818
 31
0.0
  0
LINE
  5
281
330
1F
100
AcDbEntity
  8
0
  6
Continuous
 62
     7
370
    25
100
AcDbLine
 10
-52.8496378022
 20
-327.7787059608
 30
0.0
 11
-42.2640280497
 21
-330.7695028729
 31
0.0
  0
LINE
  5
282
330
1F
100
AcDbEntity
  8
0
  6
Continuous
 62
     7
370
    25
100
AcDbLine
 10
-52.4146127968
 20
-326.2389809059
 30
0.0
 11
-52.8496378022
 21
-327.7787059608
 31
0.0
  0
LINE
  5
283
330
1F
100
AcDbEntity
  8
0
  6
Continuous
 62
     7
370
    25
100
AcDbLine
 10
-48.6262687536
 20
-353.2879818007
 30
0.0
 11
-59.211878506
 21
-350.2971848887
 31
0.0
  0
LINE
  5
284
330
1F
100
AcDbEntity
  8
0
  6
Continuous
 62
     7
370
    25
100
AcDbLine
 10
-49.061293759
 20
-354.8277068556
 30
0.0
 11
-48.6262687536
 21
-353.2879818007
 31
0.0
  0
LINE
  5
285
330
1F
100
AcDbEntity
  8
0
  6
Continuous
 62
     7
370
    25
100
AcDbLine
 10
-59.6469035114
 20
-351.8369099436
 30
0.0
 11
-49.061293759
 21
-354.8277068556
 31
0.0
  0
LINE
  5
286
330
1F
100
AcDbEntity
  8
0
  6
Continuous
 62
     7
370
    25
100
AcDbLine
 10
-59.211878506
 20
-350.2971848887
 30
0.0
 11
-59.6469035114
 21
-351.8369099436
 31
0.0
  0
LINE
  5
287
330
1F
100
AcDbEntity
  8
0
  6
Continuous
 62
     7
370
    25
100
AcDbLine
 10
-55.4235344629
 20
-377.3461857835
 30
0.0
 11
-66.0091442153
 21
-374.3553888715
 31
0.0
  0
LINE
  5
288
330
1F
100
AcDbEntity
  8
0
  6
Continuous
 62
     7
370
    25
100
AcDbLine
 10
-55.8585594683
 20
-378.8859108384
 30
0.0
 11
-55.4235344629
 21
-377.3461857835
 31
0.0
  0
LINE
  5
289
330
1F
100
AcDbEntity
  8
0
  6
Continuous
 62
     7
370
    25
100
AcDbLine
 10
-66.4441692207
 20
-375.8951139264
 30
0.0
 11
-55.8585594683
 21
-378.8859108384
 31
0.0
  0
LINE
  5
28A
330
1F
100
AcDbEntity
  8
0
  6
Continuous
 62
     7
370
    25
100
AcDbLine
 10
-66.0091442153
 20
-374.3553888715
 30
0.0
 11
-66.4441692207
 21
-375.8951139264
 31
0.0
  0
LINE
  5
28B
330
1F
100
AcDbEntity
  8
0
  6
Continuous
 62
     7
370
    25
100
AcDbLine
 10
-62.2208001721
 20
-401.4043897663
 30
0.0
 11
-72.8064099245
 21
-398.4135928543
 31
0.0
  0
LINE
  5
28C
330
1F
100
AcDbEntity
  8
0
  6
Continuous
 62
     7
370
    25
100
AcDbLine
 10
-62.6558251775
 20
-402.9441148212
 30
0.0
 11
-62.2208001721
 21
-401.4043897663
 31
0.0
  0
LINE
  5
28D
330
1F
100
AcDbEntity
  8
0
  6
Continuous
 62
     7
370
    25
100
AcDbLine
 10
-73.2414349299
 20
-399.9533179092
 30
0.0
 11
-62.6558251775
 21
-402.9441148212
 31
0.0
  0
LINE
  5
28E
330
1F
100
AcDbEntity
  8
0
  6
Continuous
 62
     7
370
    25
100
AcDbLine
 10
-72.8064099245
 20
-398.4135928543
 30
0.0
 11
-73.2414349299
 21
-399.9533179092
 31
0.0
  0
LINE
  5
28F
330
1F
100
AcDbEntity
  8
0
  6
Continuous
 62
     7
370
    25
100
AcDbLine
 10
-69.0180658814
 20
-425.4625937491
 30
0.0
 11
-79.6036756338
 21
-422.4717968371
 31
0.0
  0
LINE
  5
290
330
1F
100
AcDbEntity
  8
0
  6
Continuous
 62
     7
370
    25
100
AcDbLine
 10
-69.4530908868
 20
-427.002318804
 30
0.0
 11
-69.0180658814
 21
-425.4625937491
 31
0.0
  0
LINE
  5
291
330
1F
100
AcDbEntity
  8
0
  6
Continuous
 62
     7
370
    25
100
AcDbLine
 10
-80.0387006392
 20
-424.011521892
 30
0.0
 11
-69.4530908868
 21
-427.002318804
 31
0.0
  0
LINE
  5
292
330
1F
100
AcDbEntity
  8
0
  6
Continuous
 62
     7
370
    25
100
AcDbLine
 10
-79.6036756338
 20
-422.4717968371
 30
0.0
 11
-80.0387006392
 21
-424.011521892
 31
0.0
  0
LINE
  5
293
330
1F
100
AcDbEntity
  8
0
  6
Continuous
 62
     7
370
    25
100
AcDbLine
 10
-75.8153315906
 20
-449.5207977319
 30
0.0
 11
-86.4009413431
 21
-446.5300008198
 31
0.0
  0
LINE
  5
294
330
1F
100
AcDbEntity
  8
0
  6
Continuous
 62
     7
370
    25
100
AcDbLine
 10
-76.250356596
 20
-451.0605227868
 30
0.0
 11
-75.8153315906
 21
-449.5207977319
 31
0.0
  0
LINE
  5
295
330
1F
100
AcDbEntity
  8
0
  6
Continuous
 62
     7
370
    25
100
AcDbLine
 10
-86.8359663485
 20
-448.0697258747
 30
0.0
 11
-76.250356596
 21
-451.0605227868
 31
0.0
  0
LINE
  5
296
330
1F
100
AcDbEntity
  8
0
  6
Continuous
 62
     7
370
    25
100
AcDbLine
 10
-86.4009413431
 20
-446.5300008198
 30
0.0
 11
-86.8359663485
 21
-448.0697258747
 31
0.0
  0
LINE
  5
297
330
1F
100
AcDbEntity
  8
0
  6
Continuous
 62
     7
370
    25
100
AcDbLine
 10
-82.6125972999
 20
-473.5790017147
 30
0.0
 11
-93.1982070523
 21
-470.5882048026
 31
0.0
  0
LINE
  5
298
330
1F
100
AcDbEntity
  8
0
  6
Continuous
 62
     7
370
    25
100
AcDbLine
 10
-83.0476223053
 20
-475.1187267696
 30
0.0
 11
-82.6125972999
 21
-473.5790017147
 31
0.0
  0
LINE
  5
299
330
1F
100
AcDbEntity
  8
0
  6
Continuous
 62
     7
370
    25
100
AcDbLine
 10
-93.6332320577
 20
-472.1279298575
 30
0.0
 11
-83.0476223053
 21
-475.1187267696
 31
0.0
  0
LINE
  5
29A
330
1F
100
AcDbEntity
  8
0
  6
Continuous
 62
     7
370
    25
100
AcDbLine
 10
-93.1982070523
 20
-470.5882048026
 30
0.0
 11
-93.6332320577
 21
-472.1279298575
 31
0.0
  0
LINE
  5
29B
330
1F
100
AcDbEntity
  8
0
  6
Continuous
 62
     7
370
    25
100
AcDbLine
 10
-89.4098630092
 20
-497.6372056975
 30
0.0
 11
-99.9954727616
 21
-494.6464087854
 31
0.0
  0
LINE
  5
29C
330
1F
100
AcDbEntity
  8
0
  6
Continuous
 62
     7
370
    25
100
AcDbLine
 10
-89.8448880146
 20
-499.1769307524
 30
0.0
 11
-89.4098630092
 21
-497.6372056975
 31
0.0
  0
LINE
  5
29D
330
1F
100
AcDbEntity
  8
0
  6
Continuous
 62
     7
370
    25
100
AcDbLine
 10
-100.430497767
 20
-496.1861338403
 30
0.0
 11
-89.8448880146
 21
-499.1769307524
 31
0.0
  0
LINE
  5
29E
330
1F
100
AcDbEntity
  8
0
  6
Continuous
 62
     7
370
    25
100
AcDbLine
 10
-99.9954727616
 20
-494.6464087854
 30
0.0
 11
-100.430497767
 21
-496.1861338403
 31
0.0
  0
LINE
  5
29F
330
1F
100
AcDbEntity
  8
0
  6
Continuous
 62
     7
370
    25
100
AcDbLine
 10
-96.2071287184
 20
-521.6954096803
 30
0.0
 11
-106.7927384709
 21
-518.7046127682
 31
0.0
  0
LINE
  5
2A0
330
1F
100
AcDbEntity
  8
0
  6
Continuous
 62
     7
370
    25
100
AcDbLine
 10
-96.6421537238
 20
-523.2351347352
 30
0.0
 11
-96.2071287184
 21
-521.6954096803
 31
0.0
  0
LINE
  5
2A1
330
1F
100
AcDbEntity
  8
0
  6
Continuous
 62
     7
370
    25
100
AcDbLine
 10
-107.2277634762
 20
-520.2443378231
 30
0.0
 11
-96.6421537238
 21
-523.2351347352
 31
0.0
  0
LINE
  5
2A2
330
1F
100
AcDbEntity
  8
0
  6
Continuous
 62
     7
370
    25
100
AcDbLine
 10
-106.7927384709
 20
-518.7046127682
 30
0.0
 11
-107.2277634762
 21
-520.2443378231
 31
0.0
  0
LINE
  5
2A3
330
1F
100
AcDbEntity
  8
0
  6
Continuous
 62
     7
370
    25
100
AcDbLine
 10
-103.0043944277
 20
-545.7536136631
 30
0.0
 11
-113.5900041801
 21
-542.762816751
 31
0.0
  0
LINE
  5
2A4
330
1F
100
AcDbEntity
  8
0
  6
Continuous
 62
     7
370
    25
100
AcDbLine
 10
-103.4394194331
 20
-547.293338718
 30
0.0
 11
-103.0043944277
 21
-545.7536136631
 31
0.0
  0
LINE
  5
2A5
330
1F
100
AcDbEntity
  8
0
  6
Continuous
 62
     7
370
    25
100
AcDbLine
 10
-114.0250291855
 20
-544.3025418059
 30
0.0
 11
-103.4394194331
 21
-547.293338718
 31
0.0
  0
LINE
  5
2A6
330
1F
100
AcDbEntity
  8
0
  6
Continuous
 62
     7
370
    25
100
AcDbLine
 10
-113.5900041801
 20
-542.762816751
 30
0.0
 11
-114.0250291855
 21
-544.3025418059
 31
0.0
  0
LINE
  5
2A7
330
1F
100
AcDbEntity
  8
0
  6
Continuous
 62
     7
370
    25
100
AcDbLine
 10
-109.8016601369
 20
-569.8118176459
 30
0.0
 11
-120.3872698894
 21
-566.8210207338
 31
0.0
  0
LINE
  5
2A8
330
1F
100
AcDbEntity
  8
0
  6
Continuous
 62
     7
370
    25
100
AcDbLine
 10
-110.2366851423
 20
-571.3515427008
 30
0.0
 11
-109.8016601369
 21
-569.8118176459
 31
0.0
  0
LINE
  5
2A9
330
1F
100
AcDbEntity
  8
0
  6
Continuous
 62
     7
370
    25
100
AcDbLine
 10
-120.8222948948
 20
-568.3607457887
 30
0.0
 11
-110.2366851423
 21
-571.3515427008
 31
0.0
  0
LINE
  5
2AA
330
1F
100
AcDbEntity
  8
0
  6
Continuous
 62
     7
370
    25
100
AcDbLine
 10
-120.3872698894
 20
-566.8210207338
 30
0.0
 11
-120.8222948948
 21
-568.3607457887
 31
0.0
  0
LINE
  5
2AB
330
1F
100
AcDbEntity
  8
0
  6
Continuous
 62
     7
370
    25
100
AcDbLine
 10
-116.5989258462
 20
-593.8700216287
 30
0.0
 11
-127.1845355986
 21
-590.8792247166
 31
0.0
  0
LINE
  5
2AC
330
1F
100
AcDbEntity
  8
0
  6
Continuous
 62
     7
370
    25
100
AcDbLine
 10
-117.0339508516
 20
-595.4097466836
 30
0.0
 11
-116.5989258462
 21
-593.8700216287
 31
0.0
  0
LINE
  5
2AD
330
1F
100
AcDbEntity
  8
0
  6
Continuous
 62
     7
370
    25
100
AcDbLine
 10
-127.619560604
 20
-592.4189497715
 30
0.0
 11
-117.0339508516
 21
-595.4097466836
 31
0.0
  0
LINE
  5
2AE
330
1F
100
AcDbEntity
  8
0
  6
Continuous
 62
     7
370
    25
100
AcDbLine
 10
-127.1845355986
 20
-590.8792247166
 30
0.0
 11
-127.619560604
 21
-592.4189497715
 31
0.0
  0
ARC
  5
2AF
330
1F
100
AcDbEntity
  8
0
  6
Continuous
 62
     7
370
    25
100
AcDbCircle
 10
80.2062296556
 20
-143.7215785925
 30
0.0
 40
3.000000000000013
100
AcDbArc
 50
74.2231987215
 51
254.2231987215
  0
LINE
  5
2B0
330
1F
100
AcDbEntity
  8
0
  6
Continuous
 62
     7
370
    25
100
AcDbLine
 10
100.2684647269
 20
-146.2724066819
 30
0.0
 11
81.0219015407
 21
-140.8345941145
 31
0.0
  0
ARC
  5
2B1
330
1F
100
AcDbEntity
  8
0
  6
Continuous
 62
     7
370
    25
100
AcDbCircle
 10
99.4527928418
 20
-149.1593911599
 30
0.0
 40
2.999999999999997
100
AcDbArc
 50
254.2231987215
 51
74.2231987215
  0
LINE
  5
2B2
330
1F
100
AcDbEntity
  8
0
  6
Continuous
 62
     7
370
    25
100
AcDbLine
 10
79.3905577705
 20
-146.6085630704
 30
0.0
 11
98.6371209567
 21
-152.0463756378
 31
0.0
  0
ARC
  5
2B3
330
1F
100
AcDbEntity
  8
0
  6
Continuous
 62
     7
370
    25
100
AcDbCircle
 10
66.611698237
 20
-191.8379865581
 30
0.0
 40
3.000000000000013
100
AcDbArc
 50
74.2231987215
 51
254.2231987215
  0
LINE
  5
2B4
330
1F
100
AcDbEntity
  8
0
  6
Continuous
 62
     7
370
    25
100
AcDbLine
 10
86.6739333084
 20
-194.3888146475
 30
0.0
 11
67.4273701222
 21
-188.9510020801
 31
0.0
  0
ARC
  5
2B5
330
1F
100
AcDbEntity
  8
0
  6
Continuous
 62
     7
370
    25
100
AcDbCircle
 10
85.8582614233
 20
-197.2757991255
 30
0.0
 40
3.000000000000001
100
AcDbArc
 50
254.2231987215
 51
74.2231987215
  0
LINE
  5
2B6
330
1F
100
AcDbEntity
  8
0
  6
Continuous
 62
     7
370
    25
100
AcDbLine
 10
65.7960263519
 20
-194.724971036
 30
0.0
 11
85.0425895382
 21
-200.1627836034
 31
0.0
  0
ARC
  5
2B7
330
1F
100
AcDbEntity
  8
0
  6
Continuous
 62
     7
370
    25
100
AcDbCircle
 10
53.0171668185
 20
-239.9543945236
 30
0.0
 40
3.000000000000023
100
AcDbArc
 50
74.2231987215
 51
254.2231987215
  0
LINE
  5
2B8
330
1F
100
AcDbEntity
  8
0
  6
Continuous
 62
     7
370
    25
100
AcDbLine
 10
73.0794018899
 20
-242.5052226131
 30
0.0
 11
53.8328387036
 21
-237.0674100457
 31
0.0
  0
ARC
  5
2B9
330
1F
100
AcDbEntity
  8
0
  6
Continuous
 62
     7
370
    25
100
AcDbCircle
 10
72.2637300048
 20
-245.3922070911
 30
0.0
 40
2.999999999999997
100
AcDbArc
 50
254.2231987215
 51
74.2231987215
  0
LINE
  5
2BA
330
1F
100
AcDbEntity
  8
0
  6
Continuous
 62
     7
370
    25
100
AcDbLine
 10
52.2014949334
 20
-242.8413790016
 30
0.0
 11
71.4480581196
 21
-248.279191569
 31
0.0
  0
ARC
  5
2BB
330
1F
100
AcDbEntity
  8
0
  6
Continuous
 62
     7
370
    25
100
AcDbCircle
 10
39.4226354
 20
-288.0708024892
 30
0.0
 40
2.999999999999997
100
AcDbArc
 50
74.2231987215
 51
254.2231987215
  0
LINE
  5
2BC
330
1F
100
AcDbEntity
  8
0
  6
Continuous
 62
     7
370
    25
100
AcDbLine
 10
59.4848704714
 20
-290.6216305787
 30
0.0
 11
40.2383072851
 21
-285.1838180113
 31
0.0
  0
ARC
  5
2BD
330
1F
100
AcDbEntity
  8
0
  6
Continuous
 62
     7
370
    25
100
AcDbCircle
 10
58.6691985862
 20
-293.5086150566
 30
0.0
 40
2.999999999999992
100
AcDbArc
 50
254.2231987215
 51
74.2231987215
  0
LINE
  5
2BE
330
1F
100
AcDbEntity
  8
0
  6
Continuous
 62
     7
370
    25
100
AcDbLine
 10
38.6069635149
 20
-290.9577869672
 30
0.0
 11
57.8535267011
 21
-296.3955995346
 31
0.0
  0
ARC
  5
2BF
330
1F
100
AcDbEntity
  8
0
  6
Continuous
 62
     7
370
    25
100
AcDbCircle
 10
25.8281039815
 20
-336.1872104548
 30
0.0
 40
2.999999999999995
100
AcDbArc
 50
74.2231987215
 51
254.2231987215
  0
LINE
  5
2C0
330
1F
100
AcDbEntity
  8
0
  6
Continuous
 62
     7
370
    25
100
AcDbLine
 10
45.8903390528
 20
-338.7380385443
 30
0.0
 11
26.6437758666
 21
-333.3002259769
 31
0.0
  0
ARC
  5
2C1
330
1F
100
AcDbEntity
  8
0
  6
Continuous
 62
     7
370
    25
100
AcDbCircle
 10
45.0746671677
 20
-341.6250230222
 30
0.0
 40
3.000000000000059
100
AcDbArc
 50
254.2231987215
 51
74.2231987215
  0
LINE
  5
2C2
330
1F
100
AcDbEntity
  8
0
  6
Continuous
 62
     7
370
    25
100
AcDbLine
 10
25.0124320964
 20
-339.0741949328
 30
0.0
 11
44.2589952826
 21
-344.5120075002
 31
0.0
  0
ARC
  5
2C3
330
1F
100
AcDbEntity
  8
0
  6
Continuous
 62
     7
370
    25
100
AcDbCircle
 10
12.233572563
 20
-384.3036184204
 30
0.0
 40
3.00000000000005
100
AcDbArc
 50
74.2231987215
 51
254.2231987215
  0
LINE
  5
2C4
330
1F
100
AcDbEntity
  8
0
  6
Continuous
 62
     7
370
    25
100
AcDbLine
 10
32.2958076343
 20
-386.8544465099
 30
0.0
 11
13.0492444481
 21
-381.4166339425
 31
0.0
  0
ARC
  5
2C5
330
1F
100
AcDbEntity
  8
0
  6
Continuous
 62
     7
370
    25
100
AcDbCircle
 10
31.4801357492
 20
-389.7414309878
 30
0.0
 40
2.999999999999999
100
AcDbArc
 50
254.2231987215
 51
74.2231987215
  0
LINE
  5
2C6
330
1F
100
AcDbEntity
  8
0
  6
Continuous
 62
     7
370
    25
100
AcDbLine
 10
11.4179006779
 20
-387.1906028983
 30
0.0
 11
30.6644638641
 21
-392.6284154658
 31
0.0
  0
ARC
  5
2C7
330
1F
100
AcDbEntity
  8
0
  6
Continuous
 62
     7
370
    25
100
AcDbCircle
 10
-1.3609588556
 20
-432.420026386
 30
0.0
 40
3.000000000000043
100
AcDbArc
 50
74.2231987215
 51
254.2231987215
  0
LINE
  5
2C8
330
1F
100
AcDbEntity
  8
0
  6
Continuous
 62
     7
370
    25
100
AcDbLine
 10
18.7012762158
 20
-434.9708544755
 30
0.0
 11
-0.5452869704
 21
-429.5330419081
 31
0.0
  0
ARC
  5
2C9
330
1F
100
AcDbEntity
  8
0
  6
Continuous
 62
     7
370
    25
100
AcDbCircle
 10
17.8856043307
 20
-437.8578389534
 30
0.0
 40
3.000000000000054
100
AcDbArc
 50
254.2231987215
 51
74.2231987215
  0
LINE
  5
2CA
330
1F
100
AcDbEntity
  8
0
  6
Continuous
 62
     7
370
    25
100
AcDbLine
 10
-2.1766307407
 20
-435.3070108639
 30
0.0
 11
17.0699324456
 21
-440.7448234313
 31
0.0
  0
ARC
  5
2CB
330
1F
100
AcDbEntity
  8
0
  6
Continuous
 62
     7
370
    25
100
AcDbCircle
 10
-14.9554902741
 20
-480.5364343516
 30
0.0
 40
2.999999999999996
100
AcDbArc
 50
74.2231987215
 51
254.2231987215
  0
LINE
  5
2CC
330
1F
100
AcDbEntity
  8
0
  6
Continuous
 62
     7
370
    25
100
AcDbLine
 10
5.1067447973
 20
-483.0872624411
 30
0.0
 11
-14.139818389
 21
-477.6494498737
 31
0.0
  0
ARC
  5
2CD
330
1F
100
AcDbEntity
  8
0
  6
Continuous
 62
     7
370
    25
100
AcDbCircle
 10
4.2910729122
 20
-485.974246919
 30
0.0
 40
2.999999999999988
100
AcDbArc
 50
254.2231987215
 51
74.2231987215
  0
LINE
  5
2CE
330
1F
100
AcDbEntity
  8
0
  6
Continuous
 62
     7
370
    25
100
AcDbLine
 10
-15.7711621592
 20
-483.4234188295
 30
0.0
 11
3.475401027
 21
-488.8612313969
 31
0.0
  0
ARC
  5
2CF
330
1F
100
AcDbEntity
  8
0
  6
Continuous
 62
     7
370
    25
100
AcDbCircle
 10
-28.5500216926
 20
-528.6528423172
 30
0.0
 40
3.000000000000105
100
AcDbArc
 50
74.2231987215
 51
254.2231987215
  0
LINE
  5
2D0
330
1F
100
AcDbEntity
  8
0
  6
Continuous
 62
     7
370
    25
100
AcDbLine
 10
-8.4877866213
 20
-531.2036704066
 30
0.0
 11
-27.7343498075
 21
-525.7658578392
 31
0.0
  0
ARC
  5
2D1
330
1F
100
AcDbEntity
  8
0
  6
Continuous
 62
     7
370
    25
100
AcDbCircle
 10
-9.3034585064
 20
-534.0906548846
 30
0.0
 40
2.999999999999996
100
AcDbArc
 50
254.2231987215
 51
74.2231987215
  0
LINE
  5
2D2
330
1F
100
AcDbEntity
  8
0
  6
Continuous
 62
     7
370
    25
100
AcDbLine
 10
-29.3656935777
 20
-531.5398267951
 30
0.0
 11
-10.1191303915
 21
-536.9776393625
 31
0.0
  0
ARC
  5
2D3
330
1F
100
AcDbEntity
  8
0
  6
Continuous
 62
     7
370
    25
100
AcDbCircle
 10
-42.1445531111
 20
-576.7692502828
 30
0.0
 40
2.999999999999999
100
AcDbArc
 50
74.2231987215
 51
254.2231987215
  0
LINE
  5
2D4
330
1F
100
AcDbEntity
  8
0
  6
Continuous
 62
     7
370
    25
100
AcDbLine
 10
-22.0823180398
 20
-579.3200783722
 30
0.0
 11
-41.328881226
 21
-573.8822658048
 31
0.0
  0
ARC
  5
2D5
330
1F
100
AcDbEntity
  8
0
  6
Continuous
 62
     7
370
    25
100
AcDbCircle
 10
-22.8979899249
 20
-582.2070628502
 30
0.0
 40
2.999999999999995
100
AcDbArc
 50
254.2231987215
 51
74.2231987215
  0
LINE
  5
2D6
330
1F
100
AcDbEntity
  8
0
  6
Continuous
 62
     7
370
    25
100
AcDbLine
 10
-42.9602249962
 20
-579.6562347607
 30
0.0
 11
-23.71366181
 21
-585.0940473281
 31
0.0
  0
ARC
  5
2D7
330
1F
100
AcDbEntity
  8
0
  6
Continuous
 62
     7
370
    25
100
AcDbCircle
 10
-55.7390845296
 20
-624.8856582483
 30
0.0
 40
2.999999999999999
100
AcDbArc
 50
74.2231987215
 51
254.2231987215
  0
LINE
  5
2D8
330
1F
100
AcDbEntity
  8
0
  6
Continuous
 62
     7
370
    25
100
AcDbLine
 10
-35.6768494583
 20
-627.4364863378
 30
0.0
 11
-54.9234126445
 21
-621.9986737704
 31
0.0
  0
ARC
  5
2D9
330
1F
100
AcDbEntity
  8
0
  6
Continuous
 62
     7
370
    25
100
AcDbCircle
 10
-36.4925213434
 20
-630.3234708158
 30
0.0
 40
2.999999999999995
100
AcDbArc
 50
254.2231987215
 51
74.2231987215
  0
LINE
  5
2DA
330
1F
100
AcDbEntity
  8
0
  6
Continuous
 62
     7
370
    25
100
AcDbLine
 10
-56.5547564148
 20
-627.7726427263
 30
0.0
 11
-37.3081932285
 21
-633.2104552937
 31
0.0
  0
ENDSEC
  0
SECTION
  2
OBJECTS
  0
DICTIONARY
  5
C
330
0
100
AcDbDictionary
281
     1
  3
ACAD_GROUP
350
D
  3
ACAD_LAYOUT
350
1A
  3
ACAD_MLINESTYLE
350
17
  3
ACAD_PLOTSETTINGS
350
19
  3
ACAD_PLOTSTYLENAME
350
E
  3
ACAD_SCALELIST
350
47
  3
DWGPROPS
350
2DB
  0
DICTIONARY
  5
D
102
{ACAD_REACTORS
330
C
102
}
330
C
100
AcDbDictionary
281
     1
  0
DICTIONARY
  5
1A
102
{ACAD_REACTORS
330
C
102
}
330
C
100
AcDbDictionary
281
     1
  3
Layout1
350
1E
  3
Layout2
350
26
  3
Model
350
22
  0
DICTIONARY
  5
17
102
{ACAD_REACTORS
330
C
102
}
330
C
100
AcDbDictionary
281
     1
  3
Standard
350
18
  0
DICTIONARY
  5
19
102
{ACAD_REACTORS
330
C
102
}
330
C
100
AcDbDictionary
281
     1
  0
ACDBDICTIONARYWDFLT
  5
E
102
{ACAD_REACTORS
330
C
102
}
330
C
100
AcDbDictionary
281
     1
  3
Normal
350
F
100
AcDbDictionaryWithDefault
340
F
  0
DICTIONARY
  5
47
102
{ACAD_REACTORS
330
C
102
}
330
C
100
AcDbDictionary
281
     1
  3
A0
350
48
  3
A1
350
49
  3
A2
350
4A
  3
A3
350
4B
  3
A4
350
4C
  3
A5
350
4D
  3
A6
350
4E
  3
A7
350
4F
  3
A8
350
50
  3
A9
350
51
  3
B0
350
52
  3
B1
350
53
  3
B2
350
54
  3
B3
350
55
  3
B4
350
56
  3
B5
350
57
  3
B6
350
58
  0
XRECORD
  5
2DB
102
{ACAD_REACTORS
330
C
102
}
330
C
100
AcDbXrecord
280
     1
  1
DWGPROPS COOKIE
  2

  3

  4

  6

  7

  8
icrequer
  9

300
=
301
=
302
=
303
=
304
=
305
=
306
=
307
=
308
=
309
=
 40
0.0
 41
2460118.43741794
 42
2460118.43741794
  1

 90
        0
  0
LAYOUT
  5
1E
102
{ACAD_REACTORS
330
1A
102
}
330
1A
100
AcDbPlotSettings
  1

  2
none_device
  4

  6

 40
0.0
 41
0.0
 42
0.0
 43
0.0
 44
0.0
 45
0.0
 46
0.0
 47
0.0
 48
0.0
 49
0.0
140
0.0
141
0.0
142
1.0
143
1.0
 70
   688
 72
     1
 73
     0
 74
     5
  7

 75
    16
147
1.0
148
0.0
149
0.0
100
AcDbLayout
  1
Layout1
 70
     1
 71
     1
 10
0.0
 20
0.0
 11
420.0
 21
297.0
 12
0.0
 22
0.0
 32
0.0
 14
1.0000000000E+20
 24
1.0000000000E+20
 34
1.0000000000E+20
 15
-1.0000000000E+20
 25
-1.0000000000E+20
 35
-1.0000000000E+20
146
0.0
 13
0.0
 23
0.0
 33
0.0
 16
1.0
 26
0.0
 36
0.0
 17
0.0
 27
1.0
 37
0.0
 76
     0
330
1B
  0
LAYOUT
  5
26
102
{ACAD_REACTORS
330
1A
102
}
330
1A
100
AcDbPlotSettings
  1

  2
none_device
  4

  6

 40
0.0
 41
0.0
 42
0.0
 43
0.0
 44
0.0
 45
0.0
 46
0.0
 47
0.0
 48
0.0
 49
0.0
140
0.0
141
0.0
142
1.0
143
1.0
 70
   688
 72
     1
 73
     0
 74
     5
  7

 75
    16
147
1.0
148
0.0
149
0.0
100
AcDbLayout
  1
Layout2
 70
     1
 71
     2
 10
0.0
 20
0.0
 11
0.0
 21
0.0
 12
0.0
 22
0.0
 32
0.0
 14
0.0
 24
0.0
 34
0.0
 15
0.0
 25
0.0
 35
0.0
146
0.0
 13
0.0
 23
0.0
 33
0.0
 16
1.0
 26
0.0
 36
0.0
 17
0.0
 27
1.0
 37
0.0
 76
     0
330
23
  0
LAYOUT
  5
22
102
{ACAD_REACTORS
330
1A
102
}
330
1A
100
AcDbPlotSettings
  1

  2
none_device
  4
ANSI_A_(11.00_x_8.50_Inches)
  6

 40
6.35
 41
19.05
 42
6.35000508
 43
19.05000254
 44
279.4
 45
215.9
 46
131.0648160097
 47
198.7050777659
 48
0.0
 49
0.0
140
0.0
141
0.0
142
0.0130489696
143
1.0
 70
  1696
 72
     0
 73
     0
 74
     0
  7

 75
     0
147
0.0179189148
148
-1300.4909072572
149
0.0
100
AcDbLayout
  1
Model
 70
     1
 71
     0
 10
0.0
 20
0.0
 11
420.0
 21
297.0
 12
0.0
 22
0.0
 32
0.0
 14
-133.0919779601
 24
-653.7324325247
 34
0.0
 15
146.8812313214
 25
-8.8539257636
 35
0.0
146
0.0
 13
0.0
 23
0.0
 33
0.0
 16
1.0
 26
0.0
 36
0.0
 17
0.0
 27
1.0
 37
0.0
 76
     0
330
1F
331
29
  0
MLINESTYLE
  5
18
102
{ACAD_REACTORS
330
17
102
}
330
17
100
AcDbMlineStyle
  2
Standard
 70
     0
  3

 62
   256
 51
90.0
 52
90.0
 71
     2
 49
0.5
 62
   256
  6
BYLAYER
 49
-0.5
 62
   256
  6
BYLAYER
  0
ACDBPLACEHOLDER
  5
F
102
{ACAD_REACTORS
330
E
102
}
330
E
  0
SCALE
  5
48
102
{ACAD_REACTORS
330
47
102
}
330
47
100
AcDbScale
 70
     0
300
1:1
140
1.0
141
1.0
290
     1
  0
SCALE
  5
49
102
{ACAD_REACTORS
330
47
102
}
330
47
100
AcDbScale
 70
     0
300
1:2
140
1.0
141
2.0
290
     0
  0
SCALE
  5
4A
102
{ACAD_REACTORS
330
47
102
}
330
47
100
AcDbScale
 70
     0
300
1:4
140
1.0
141
4.0
290
     0
  0
SCALE
  5
4B
102
{ACAD_REACTORS
330
47
102
}
330
47
100
AcDbScale
 70
     0
300
1:5
140
1.0
141
5.0
290
     0
  0
SCALE
  5
4C
102
{ACAD_REACTORS
330
47
102
}
330
47
100
AcDbScale
 70
     0
300
1:8
140
1.0
141
8.0
290
     0
  0
SCALE
  5
4D
102
{ACAD_REACTORS
330
47
102
}
330
47
100
AcDbScale
 70
     0
300
1:10
140
1.0
141
10.0
290
     0
  0
SCALE
  5
4E
102
{ACAD_REACTORS
330
47
102
}
330
47
100
AcDbScale
 70
     0
300
1:16
140
1.0
141
16.0
290
     0
  0
SCALE
  5
4F
102
{ACAD_REACTORS
330
47
102
}
330
47
100
AcDbScale
 70
     0
300
1:20
140
1.0
141
20.0
290
     0
  0
SCALE
  5
50
102
{ACAD_REACTORS
330
47
102
}
330
47
100
AcDbScale
 70
     0
300
1:30
140
1.0
141
30.0
290
     0
  0
SCALE
  5
51
102
{ACAD_REACTORS
330
47
102
}
330
47
100
AcDbScale
 70
     0
300
1:40
140
1.0
141
40.0
290
     0
  0
SCALE
  5
52
102
{ACAD_REACTORS
330
47
102
}
330
47
100
AcDbScale
 70
     0
300
1:50
140
1.0
141
50.0
290
     0
  0
SCALE
  5
53
102
{ACAD_REACTORS
330
47
102
}
330
47
100
AcDbScale
 70
     0
300
1:100
140
1.0
141
100.0
290
     0
  0
SCALE
  5
54
102
{ACAD_REACTORS
330
47
102
}
330
47
100
AcDbScale
 70
     0
300
2:1
140
2.0
141
1.0
290
     0
  0
SCALE
  5
55
102
{ACAD_REACTORS
330
47
102
}
330
47
100
AcDbScale
 70
     0
300
4:1
140
4.0
141
1.0
290
     0
  0
SCALE
  5
56
102
{ACAD_REACTORS
330
47
102
}
330
47
100
AcDbScale
 70
     0
300
8:1
140
8.0
141
1.0
290
     0
  0
SCALE
  5
57
102
{ACAD_REACTORS
330
47
102
}
330
47
100
AcDbScale
 70
     0
300
10:1
140
10.0
141
1.0
290
     0
  0
SCALE
  5
58
102
{ACAD_REACTORS
330
47
102
}
330
47
100
AcDbScale
 70
     0
300
100:1
140
100.0
141
1.0
290
     0
  0
ENDSEC
  0
EOF
