  0
SECTION
  2
HEADER
  9
$ACADVER
  1
AC1015
  9
$ACADMAINTVER
 70
     6
  9
$DWGCODEPAGE
  3
ANSI_1252
  9
$INSBASE
 10
0.0
 20
0.0
 30
0.0
  9
$EXTMIN
 10
-7.6435120638
 20
-354.7578821494
 30
0.0
  9
$EXTMAX
 10
1243.9768510635
 20
29.0099418016
 30
0.0
  9
$LIMMIN
 10
0.0
 20
0.0
  9
$LIMMAX
 10
420.0
 20
297.0
  9
$ORTHOMODE
 70
     0
  9
$REGENMODE
 70
     1
  9
$FILLMODE
 70
     1
  9
$QTEXTMODE
 70
     0
  9
$MIRRTEXT
 70
     1
  9
$LTSCALE
 40
1.0
  9
$ATTMODE
 70
     1
  9
$TEXTSIZE
 40
3.5
  9
$TRACEWID
 40
1.0
  9
$TEXTSTYLE
  7
Standard
  9
$CLAYER
  8
0
  9
$CELTYPE
  6
ByLayer
  9
$CECOLOR
 62
   256
  9
$CELTSCALE
 40
1.0
  9
$DISPSILH
 70
     0
  9
$DIMSCALE
 40
1.0
  9
$DIMASZ
 40
3.556
  9
$DIMEXO
 40
0.0
  9
$DIMDLI
 40
3.75
  9
$DIMRND
 40
0.0
  9
$DIMDLE
 40
0.0
  9
$DIMEXE
 40
1.0
  9
$DIMTP
 40
0.0
  9
$DIMTM
 40
0.0
  9
$DIMTXT
 40
3.5
  9
$DIMCEN
 40
2.5
  9
$DIMTSZ
 40
0.0
  9
$DIMTOL
 70
     0
  9
$DIMLIM
 70
     0
  9
$DIMTIH
 70
     1
  9
$DIMTOH
 70
     1
  9
$DIMSE1
 70
     0
  9
$DIMSE2
 70
     0
  9
$DIMTAD
 70
     1
  9
$DIMZIN
 70
     0
  9
$DIMBLK
  1

  9
$DIMASO
 70
     1
  9
$DIMSHO
 70
     1
  9
$DIMPOST
  1

  9
$DIMAPOST
  1

  9
$DIMALT
 70
     0
  9
$DIMALTD
 70
     3
  9
$DIMALTF
 40
0.0393700787
  9
$DIMLFAC
 40
1.0
  9
$DIMTOFL
 70
     1
  9
$DIMTVP
 40
0.0
  9
$DIMTIX
 70
     0
  9
$DIMSOXD
 70
     0
  9
$DIMSAH
 70
     0
  9
$DIMBLK1
  1

  9
$DIMBLK2
  1

  9
$DIMSTYLE
  2
ISO-25
  9
$DIMCLRD
 70
     0
  9
$DIMCLRE
 70
     0
  9
$DIMCLRT
 70
     0
  9
$DIMTFAC
 40
1.0
  9
$DIMGAP
 40
1.524
  9
$DIMJUST
 70
     0
  9
$DIMSD1
 70
     0
  9
$DIMSD2
 70
     0
  9
$DIMTOLJ
 70
     0
  9
$DIMTZIN
 70
     0
  9
$DIMALTZ
 70
     0
  9
$DIMALTTZ
 70
     0
  9
$DIMUPT
 70
     0
  9
$DIMDEC
 70
     2
  9
$DIMTDEC
 70
     2
  9
$DIMALTU
 70
     2
  9
$DIMALTTD
 70
     3
  9
$DIMTXSTY
  7
Standard
  9
$DIMAUNIT
 70
     0
  9
$DIMADEC
 70
     0
  9
$DIMALTRND
 40
0.0
  9
$DIMAZIN
 70
     0
  9
$DIMDSEP
 70
    44
  9
$DIMATFIT
 70
     3
  9
$DIMFRAC
 70
     0
  9
$DIMLDRBLK
  1

  9
$DIMLUNIT
 70
     2
  9
$DIMLWD
 70
    -2
  9
$DIMLWE
 70
    -2
  9
$DIMTMOVE
 70
     0
  9
$LUNITS
 70
     2
  9
$LUPREC
 70
     3
  9
$SKETCHINC
 40
1.0
  9
$FILLETRAD
 40
0.0
  9
$AUNITS
 70
     0
  9
$AUPREC
 70
     2
  9
$MENU
  1
.
  9
$ELEVATION
 40
0.0
  9
$PELEVATION
 40
0.0
  9
$THICKNESS
 40
0.0
  9
$LIMCHECK
 70
     0
  9
$CHAMFERA
 40
0.0
  9
$CHAMFERB
 40
0.0
  9
$CHAMFERC
 40
0.0
  9
$CHAMFERD
 40
0.0
  9
$SKPOLY
 70
     0
  9
$TDCREATE
 40
2460277.681630278
  9
$TDUCREATE
 40
2460277.639963611
  9
$TDUPDATE
 40
2460277.681630347
  9
$TDUUPDATE
 40
2460277.63996368
  9
$TDINDWG
 40
0.0000000116
  9
$TDUSRTIMER
 40
0.0000000116
  9
$USRTIMER
 70
     1
  9
$ANGBASE
 50
0.0
  9
$ANGDIR
 70
     0
  9
$PDMODE
 70
     0
  9
$PDSIZE
 40
-1.0
  9
$PLINEWID
 40
0.0
  9
$SPLFRAME
 70
     0
  9
$SPLINETYPE
 70
     6
  9
$SPLINESEGS
 70
     8
  9
$HANDSEED
  5
7C
  9
$SURFTAB1
 70
     6
  9
$SURFTAB2
 70
     6
  9
$SURFTYPE
 70
     6
  9
$SURFU
 70
     6
  9
$SURFV
 70
     6
  9
$UCSBASE
  2

  9
$UCSNAME
  2

  9
$UCSORG
 10
0.0
 20
0.0
 30
0.0
  9
$UCSXDIR
 10
1.0
 20
0.0
 30
0.0
  9
$UCSYDIR
 10
0.0
 20
1.0
 30
0.0
  9
$UCSORTHOREF
  2

  9
$UCSORTHOVIEW
 70
     0
  9
$UCSORGTOP
 10
0.0
 20
0.0
 30
0.0
  9
$UCSORGBOTTOM
 10
0.0
 20
0.0
 30
0.0
  9
$UCSORGLEFT
 10
0.0
 20
0.0
 30
0.0
  9
$UCSORGRIGHT
 10
0.0
 20
0.0
 30
0.0
  9
$UCSORGFRONT
 10
0.0
 20
0.0
 30
0.0
  9
$UCSORGBACK
 10
0.0
 20
0.0
 30
0.0
  9
$PUCSBASE
  2

  9
$PUCSNAME
  2

  9
$PUCSORG
 10
0.0
 20
0.0
 30
0.0
  9
$PUCSXDIR
 10
1.0
 20
0.0
 30
0.0
  9
$PUCSYDIR
 10
0.0
 20
1.0
 30
0.0
  9
$PUCSORTHOREF
  2

  9
$PUCSORTHOVIEW
 70
     0
  9
$PUCSORGTOP
 10
0.0
 20
0.0
 30
0.0
  9
$PUCSORGBOTTOM
 10
0.0
 20
0.0
 30
0.0
  9
$PUCSORGLEFT
 10
0.0
 20
0.0
 30
0.0
  9
$PUCSORGRIGHT
 10
0.0
 20
0.0
 30
0.0
  9
$PUCSORGFRONT
 10
0.0
 20
0.0
 30
0.0
  9
$PUCSORGBACK
 10
0.0
 20
0.0
 30
0.0
  9
$USERI1
 70
     0
  9
$USERI2
 70
     0
  9
$USERI3
 70
     0
  9
$USERI4
 70
     0
  9
$USERI5
 70
     0
  9
$USERR1
 40
0.0
  9
$USERR2
 40
0.0
  9
$USERR3
 40
0.0
  9
$USERR4
 40
0.0
  9
$USERR5
 40
0.0
  9
$WORLDVIEW
 70
     1
  9
$SHADEDGE
 70
     3
  9
$SHADEDIF
 70
    70
  9
$TILEMODE
 70
     1
  9
$MAXACTVP
 70
    64
  9
$PINSBASE
 10
0.0
 20
0.0
 30
0.0
  9
$PLIMCHECK
 70
     0
  9
$PEXTMIN
 10
1.0000000000E+20
 20
1.0000000000E+20
 30
1.0000000000E+20
  9
$PEXTMAX
 10
-1.0000000000E+20
 20
-1.0000000000E+20
 30
-1.0000000000E+20
  9
$PLIMMIN
 10
0.0
 20
0.0
  9
$PLIMMAX
 10
420.0
 20
297.0
  9
$UNITMODE
 70
     0
  9
$VISRETAIN
 70
     1
  9
$PLINEGEN
 70
     0
  9
$PSLTSCALE
 70
     1
  9
$TREEDEPTH
 70
  3020
  9
$CMLSTYLE
  2
Standard
  9
$CMLJUST
 70
     0
  9
$CMLSCALE
 40
20.0
  9
$PROXYGRAPHICS
 70
     1
  9
$MEASUREMENT
 70
     1
  9
$CELWEIGHT
370
    -1
  9
$ENDCAPS
280
     0
  9
$JOINSTYLE
280
     0
  9
$LWDISPLAY
290
     1
  9
$INSUNITS
 70
     4
  9
$HYPERLINKBASE
  1

  9
$STYLESHEET
  1

  9
$XEDIT
290
     1
  9
$CEPSNTYPE
380
     0
  9
$PSTYLEMODE
290
     1
  9
$FINGERPRINTGUID
  2
{cbf265ca-6ec8-41c1-bf7c-16d69cc11dec}
  9
$VERSIONGUID
  2
{FAEB1C32-E019-11D5-929B-00C0DF256EC4}
  9
$EXTNAMES
290
     1
  9
$PSVPSCALE
 40
0.0
  9
$OLESTARTUP
290
     0
  0
ENDSEC
  0
SECTION
  2
CLASSES
  0
CLASS
  1
ACDBDICTIONARYWDFLT
  2
AcDbDictionaryWithDefault
  3
ObjectDBX Classes
 90
        0
280
     0
281
     0
  0
CLASS
  1
VISUALSTYLE
  2
AcDbVisualStyle
  3
ObjectDBX Classes
 90
     4095
280
     0
281
     0
  0
CLASS
  1
MATERIAL
  2
AcDbMaterial
  3
ObjectDBX Classes
 90
     1153
280
     0
281
     0
  0
CLASS
  1
SCALE
  2
AcDbScale
  3
ObjectDBX Classes
 90
     1153
280
     0
281
     0
  0
CLASS
  1
TABLESTYLE
  2
AcDbTableStyle
  3
ObjectDBX Classes
 90
     4095
280
     0
281
     0
  0
CLASS
  1
MLEADERSTYLE
  2
AcDbMLeaderStyle
  3
ACDB_MLEADERSTYLE_CLASS
 90
     4095
280
     0
281
     0
  0
CLASS
  1
SUN
  2
AcDbSun
  3
SCENEOE
 90
     1153
280
     0
281
     0
  0
CLASS
  1
ACDBPLACEHOLDER
  2
AcDbPlaceHolder
  3
ObjectDBX Classes
 90
        0
280
     0
281
     0
  0
CLASS
  1
LAYOUT
  2
AcDbLayout
  3
ObjectDBX Classes
 90
        0
280
     0
281
     0
  0
ENDSEC
  0
SECTION
  2
TABLES
  0
TABLE
  2
VPORT
  5
8
330
0
100
AcDbSymbolTable
 70
     1
  0
VPORT
  5
29
330
8
100
AcDbSymbolTableRecord
100
AcDbViewportTableRecord
  2
*Active
 70
     0
 10
0.0
 20
0.0
 11
1.0
 21
1.0
 12
618.1666694999
 22
-162.8739701739
 13
0.0
 23
0.0
 14
10.0
 24
10.0
 15
10.0
 25
10.0
 16
0.0
 26
0.0
 36
1.0
 17
0.0
 27
0.0
 37
0.0
 40
391.44318043
 41
3.2613999533
 42
50.0
 43
0.0
 44
0.0
 50
0.0
 51
0.0
 71
     0
 72
   100
 73
     1
 74
     3
 75
     0
 76
     0
 77
     0
 78
     0
281
     0
 65
     1
110
0.0
120
0.0
130
0.0
111
1.0
121
0.0
131
0.0
112
0.0
122
1.0
132
0.0
 79
     0
146
0.0
  0
ENDTAB
  0
TABLE
  2
LTYPE
  5
5
330
0
100
AcDbSymbolTable
 70
     6
  0
LTYPE
  5
14
330
5
100
AcDbSymbolTableRecord
100
AcDbLinetypeTableRecord
  2
ByBlock
 70
     0
  3

 72
    65
 73
     0
 40
0.0
  0
LTYPE
  5
15
330
5
100
AcDbSymbolTableRecord
100
AcDbLinetypeTableRecord
  2
ByLayer
 70
     0
  3

 72
    65
 73
     0
 40
0.0
  0
LTYPE
  5
16
330
5
100
AcDbSymbolTableRecord
100
AcDbLinetypeTableRecord
  2
Continuous
 70
     0
  3
Solid line
 72
    65
 73
     0
 40
0.0
  0
LTYPE
  5
5E
330
5
100
AcDbSymbolTableRecord
100
AcDbLinetypeTableRecord
  2
HIDDEN
 70
     0
  3
Hidden __ __ __ __ __ __ __ __ __ __ __ __ __ __
 72
    65
 73
     2
 40
1.905
 49
1.27
 74
     0
 49
-0.635
 74
     0
  0
LTYPE
  5
5F
330
5
100
AcDbSymbolTableRecord
100
AcDbLinetypeTableRecord
  2
PHANTOM
 70
     0
  3
Phantom ______  __  __  ______  __  __  ______
 72
    65
 73
     6
 40
12.7
 49
6.35
 74
     0
 49
-1.27
 74
     0
 49
1.27
 74
     0
 49
-1.27
 74
     0
 49
1.27
 74
     0
 49
-1.27
 74
     0
  0
LTYPE
  5
60
330
5
100
AcDbSymbolTableRecord
100
AcDbLinetypeTableRecord
  2
CENTER
 70
     0
  3
Center ____ _ ____ _ ____ _ ____ _ ____ _ ____
 72
    65
 73
     4
 40
10.16
 49
6.35
 74
     0
 49
-1.27
 74
     0
 49
1.27
 74
     0
 49
-1.27
 74
     0
  0
LTYPE
  5
61
330
5
100
AcDbSymbolTableRecord
100
AcDbLinetypeTableRecord
  2
CENTERX2
 70
     0
  3
Center (2x) ________  __  ________  __  _____
 72
    65
 73
     4
 40
20.32
 49
12.7
 74
     0
 49
-2.54
 74
     0
 49
2.54
 74
     0
 49
-2.54
 74
     0
  0
LTYPE
  5
62
330
5
100
AcDbSymbolTableRecord
100
AcDbLinetypeTableRecord
  2
DOT2
 70
     0
  3
Dot (.5x) ........................................
 72
    65
 73
     2
 40
0.635
 49
0.0
 74
     0
 49
-0.635
 74
     0
  0
ENDTAB
  0
TABLE
  2
LAYER
  5
2
330
0
100
AcDbSymbolTable
 70
     1
  0
LAYER
  5
10
330
2
100
AcDbSymbolTableRecord
100
AcDbLayerTableRecord
  2
0
 70
     0
 62
     7
  6
Continuous
370
    -3
390
F
  0
ENDTAB
  0
TABLE
  2
STYLE
  5
3
330
0
100
AcDbSymbolTable
 70
     1
  0
STYLE
  5
11
330
3
100
AcDbSymbolTableRecord
100
AcDbTextStyleTableRecord
  2
Standard
 70
     0
 40
0.0
 41
1.0
 50
0.0
 71
     0
 42
3.5
  3
txt
  4

  0
ENDTAB
  0
TABLE
  2
VIEW
  5
6
330
0
100
AcDbSymbolTable
 70
     0
  0
ENDTAB
  0
TABLE
  2
UCS
  5
7
330
0
100
AcDbSymbolTable
 70
     0
  0
ENDTAB
  0
TABLE
  2
APPID
  5
9
330
0
100
AcDbSymbolTable
 70
     1
  0
APPID
  5
12
330
9
100
AcDbSymbolTableRecord
100
AcDbRegAppTableRecord
  2
ACAD
 70
     0
  0
ENDTAB
  0
TABLE
  2
DIMSTYLE
  5
A
330
0
100
AcDbSymbolTable
 70
     1
100
AcDbDimStyleTable
  0
DIMSTYLE
105
27
330
A
100
AcDbSymbolTableRecord
100
AcDbDimStyleTableRecord
  2
ISO-25
 70
     0
 41
2.5
 42
0.625
 43
3.75
 44
1.25
 73
     0
 74
     0
 77
     1
 78
     8
140
2.5
141
2.5
143
0.0393700787
147
0.625
171
     3
172
     1
178
     0
271
     2
272
     2
274
     3
278
    44
283
     0
284
     8
340
11
  0
ENDTAB
  0
TABLE
  2
BLOCK_RECORD
  5
1
330
0
100
AcDbSymbolTable
 70
     1
  0
BLOCK_RECORD
  5
1F
330
1
100
AcDbSymbolTableRecord
100
AcDbBlockTableRecord
  2
*Model_Space
340
22
  0
BLOCK_RECORD
  5
1B
330
1
100
AcDbSymbolTableRecord
100
AcDbBlockTableRecord
  2
*Paper_Space
340
1E
  0
BLOCK_RECORD
  5
23
330
1
100
AcDbSymbolTableRecord
100
AcDbBlockTableRecord
  2
*Paper_Space0
340
26
  0
ENDTAB
  0
ENDSEC
  0
SECTION
  2
BLOCKS
  0
BLOCK
  5
20
330
1F
100
AcDbEntity
  8
0
100
AcDbBlockBegin
  2
*Model_Space
 70
     0
 10
0.0
 20
0.0
 30
0.0
  3
*Model_Space
  1

  0
ENDBLK
  5
21
330
1F
100
AcDbEntity
  8
0
100
AcDbBlockEnd
  0
BLOCK
  5
1C
330
1B
100
AcDbEntity
 67
     1
  8
0
100
AcDbBlockBegin
  2
*Paper_Space
 70
     0
 10
0.0
 20
0.0
 30
0.0
  3
*Paper_Space
  1

  0
ENDBLK
  5
1D
330
1B
100
AcDbEntity
 67
     1
  8
0
100
AcDbBlockEnd
  0
BLOCK
  5
24
330
23
100
AcDbEntity
  8
0
100
AcDbBlockBegin
  2
*Paper_Space0
 70
     0
 10
0.0
 20
0.0
 30
0.0
  3
*Paper_Space0
  1

  0
ENDBLK
  5
25
330
23
100
AcDbEntity
  8
0
100
AcDbBlockEnd
  0
ENDSEC
  0
SECTION
  2
ENTITIES
  0
SPLINE
  5
63
330
1F
100
AcDbEntity
  8
0
  6
Continuous
 62
     7
370
    25
100
AcDbSpline
210
0.0
220
0.0
230
1.0
 70
    11
 71
     3
 72
    38
 73
    34
 74
     0
 42
0.00000001
 43
0.00000001
 40
0.0
 40
0.0
 40
0.0
 40
0.0
 40
0.0625
 40
0.0625
 40
0.125
 40
0.125
 40
0.1875
 40
0.1875
 40
0.25
 40
0.25
 40
0.3125
 40
0.3125
 40
0.375
 40
0.375
 40
0.4375
 40
0.4375
 40
0.5
 40
0.5
 40
0.5625
 40
0.5625
 40
0.625
 40
0.625
 40
0.6875
 40
0.6875
 40
0.75
 40
0.75
 40
0.8125
 40
0.8125
 40
0.875
 40
0.875
 40
0.9375
 40
0.9375
 40
1.0
 40
1.0
 40
1.0
 40
1.0
 10
225.9710256055765
 20
-59.53863237956609
 30
0.0
 10
226.1905729213079
 20
-58.70536933626244
 30
0.0
 10
226.2421424201889
 20
-57.86063509921037
 30
0.0
 10
226.0100394591608
 20
-56.15347345300071
 30
0.0
 10
225.7342749438973
 20
-55.35316979201848
 30
0.0
 10
224.8665096969536
 20
-53.86458872914321
 30
0.0
 10
224.3056319793113
 20
-53.23074915607231
 30
0.0
 10
222.9343542918378
 20
-52.18737148959637
 30
0.0
 10
222.173577601355
 20
-51.81635288639157
 30
0.0
 10
220.5075438421731
 20
-51.37718379417574
 30
0.0
 10
219.6626312769329
 20
-51.32555801509214
 30
0.0
 10
217.9553353279566
 20
-51.55736581904034
 30
0.0
 10
217.1550665585116
 20
-51.83288895893641
 30
0.0
 10
215.6661649386668
 20
-52.70033204835132
 30
0.0
 10
215.0322467601337
 20
-53.26099851988771
 30
0.0
 10
213.9885836795511
 20
-54.63213808264005
 30
0.0
 10
213.617494344992
 20
-55.39287623688931
 30
0.0
 10
213.1783299767373
 20
-57.05888551896278
 30
0.0
 10
213.1267955755529
 20
-57.90387734584697
 30
0.0
 10
213.3588983575168
 20
-59.61103930387668
 30
0.0
 10
213.634662544632
 20
-60.41134244779024
 30
0.0
 10
214.5024285051152
 20
-61.89992430066071
 30
0.0
 10
215.0633065734003
 20
-62.53376417110273
 30
0.0
 10
216.4345821649862
 20
-63.57714011848422
 30
0.0
 10
217.1953590943109
 20
-63.94815885797583
 30
0.0
 10
218.8613905903402
 20
-64.38732880848175
 30
0.0
 10
219.7063032437517
 20
-64.43895487005942
 30
0.0
 10
221.4135985228355
 20
-64.20714778160357
 30
0.0
 10
222.2138718254532
 20
-63.9316225442306
 30
0.0
 10
223.7027715408884
 20
-63.0641824073719
 30
0.0
 10
224.3365333111111
 20
-62.50372153415304
 30
0.0
 10
225.3805118360771
 20
-61.13216754883256
 30
0.0
 10
225.7514782898452
 20
-60.37189542286974
 30
0.0
 10
225.9710256055765
 20
-59.53863237956609
 30
0.0
  0
SPLINE
  5
64
330
1F
100
AcDbEntity
  8
0
  6
Continuous
 62
     7
370
    25
100
AcDbSpline
210
0.0
220
0.0
230
1.0
 70
    11
 71
     3
 72
    38
 73
    34
 74
     0
 42
0.00000001
 43
0.00000001
 40
0.0
 40
0.0
 40
0.0
 40
0.0
 40
0.0625
 40
0.0625
 40
0.125
 40
0.125
 40
0.1875
 40
0.1875
 40
0.25
 40
0.25
 40
0.3125
 40
0.3125
 40
0.375
 40
0.375
 40
0.4375
 40
0.4375
 40
0.5
 40
0.5
 40
0.5625
 40
0.5625
 40
0.625
 40
0.625
 40
0.6875
 40
0.6875
 40
0.75
 40
0.75
 40
0.8125
 40
0.8125
 40
0.875
 40
0.875
 40
0.9375
 40
0.9375
 40
1.0
 40
1.0
 40
1.0
 40
1.0
 10
1215.115824493051
 20
-320.157569667196
 30
0.0
 10
1215.335371808744
 20
-319.3243066240483
 30
0.0
 10
1215.386941307553
 20
-318.4795723864659
 30
0.0
 10
1215.154838346748
 20
-316.7724107410053
 30
0.0
 10
1214.879073831195
 20
-315.9721070795265
 30
0.0
 10
1214.011308584606
 20
-314.4835260168953
 30
0.0
 10
1213.450430866812
 20
-313.849686443709
 30
0.0
 10
1212.079153179287
 20
-312.8063087772194
 30
0.0
 10
1211.318376488586
 20
-312.4352901739572
 30
0.0
 10
1209.652342729893
 20
-311.9961210818702
 30
0.0
 10
1208.807430164253
 20
-311.9444953028406
 30
0.0
 10
1207.100134215586
 20
-312.1763031065518
 30
0.0
 10
1206.299865446428
 20
-312.4518262462805
 30
0.0
 10
1204.8109638257
 20
-313.3192693362675
 30
0.0
 10
1204.177045647576
 20
-313.8799358072664
 30
0.0
 10
1203.133382567059
 20
-315.2510753705214
 30
0.0
 10
1202.762293232423
 20
-316.011813525064
 30
0.0
 10
1202.323128864257
 20
-317.6778228060483
 30
0.0
 10
1202.27159446319
 20
-318.5228146337997
 30
0.0
 10
1202.503697244829
 20
-320.2299765911839
 30
0.0
 10
1202.779461432154
 20
-321.0302797354579
 30
0.0
 10
1203.647227392542
 20
-322.5188615882532
 30
0.0
 10
1204.208105460875
 20
-323.1527014587318
 30
0.0
 10
1205.579381052461
 20
-324.1960774061152
 30
0.0
 10
1206.340157981783
 20
-324.5670961456061
 30
0.0
 10
1208.006189477818
 20
-325.0062660961115
 30
0.0
 10
1208.851102130993
 20
-325.0578921577213
 30
0.0
 10
1210.558397410544
 20
-324.826085069202
 30
0.0
 10
1211.358670712918
 20
-324.5505598319708
 30
0.0
 10
1212.847570428374
 20
-323.6831196948916
 30
0.0
 10
1213.481332198629
 20
-323.1226588216301
 30
0.0
 10
1214.525310723509
 20
-321.7511048366157
 30
0.0
 10
1214.896277177359
 20
-320.9908327103437
 30
0.0
 10
1215.115824493051
 20
-320.157569667196
 30
0.0
  0
SPLINE
  5
65
330
1F
100
AcDbEntity
  8
0
  6
Continuous
 62
     7
370
    25
100
AcDbSpline
210
0.0
220
0.0
230
1.0
 70
    11
 71
     3
 72
    38
 73
    34
 74
     0
 42
0.00000001
 43
0.00000001
 40
0.0
 40
0.0
 40
0.0
 40
0.0
 40
0.0625
 40
0.0625
 40
0.125
 40
0.125
 40
0.1875
 40
0.1875
 40
0.25
 40
0.25
 40
0.3125
 40
0.3125
 40
0.375
 40
0.375
 40
0.4375
 40
0.4375
 40
0.5
 40
0.5
 40
0.5625
 40
0.5625
 40
0.625
 40
0.625
 40
0.6875
 40
0.6875
 40
0.75
 40
0.75
 40
0.8125
 40
0.8125
 40
0.875
 40
0.875
 40
0.9375
 40
0.9375
 40
1.0
 40
1.0
 40
1.0
 40
1.0
 10
967.8296247711826
 20
-255.0028353452886
 30
0.0
 10
968.0491720868749
 20
-254.1695723021338
 30
0.0
 10
968.1007415857337
 20
-253.3248380649177
 30
0.0
 10
967.8686386248286
 20
-251.6176764187384
 30
0.0
 10
967.5928741095818
 20
-250.817372757785
 30
0.0
 10
966.725108862481
 20
-249.3287916948213
 30
0.0
 10
966.1642311448874
 20
-248.6949521217875
 30
0.0
 10
964.7929534574736
 20
-247.6515744553261
 30
0.0
 10
964.0321767670216
 20
-247.2805558521294
 30
0.0
 10
962.3661430077184
 20
-246.8413867598827
 30
0.0
 10
961.521230442475
 20
-246.7897609807995
 30
0.0
 10
959.8139344936263
 20
-247.0215687847778
 30
0.0
 10
959.0136657240465
 20
-247.2970919247524
 30
0.0
 10
957.5247641043435
 20
-248.1645350139802
 30
0.0
 10
956.8908459256386
 20
-248.7252014857424
 30
0.0
 10
955.8471828452581
 20
-250.0963410482303
 30
0.0
 10
955.4760935106204
 20
-250.8570792027767
 30
0.0
 10
955.0369291423208
 20
-252.5230884845203
 30
0.0
 10
954.9853947411432
 20
-253.3680803114534
 30
0.0
 10
955.2174975231383
 20
-255.075242269715
 30
0.0
 10
955.4932617100817
 20
-255.8755454133336
 30
0.0
 10
956.3610276708772
 20
-257.364127266562
 30
0.0
 10
956.9219057388842
 20
-257.9979671367925
 30
0.0
 10
958.2931813307144
 20
-259.0413430842394
 30
0.0
 10
959.0539582599152
 20
-259.4123618236984
 30
0.0
 10
960.7199897559469
 20
-259.8515317742039
 30
0.0
 10
961.5649024092994
 20
-259.9031578357898
 30
0.0
 10
963.2721976884995
 20
-259.6713507473181
 30
0.0
 10
964.07247099089
 20
-259.3958255100777
 30
0.0
 10
965.5613707066635
 20
-258.5283853729696
 30
0.0
 10
966.1951324766774
 20
-257.9679245000246
 30
0.0
 10
967.2391110017223
 20
-256.5963705144058
 30
0.0
 10
967.6100774554905
 20
-255.8360983884433
 30
0.0
 10
967.8296247711826
 20
-255.0028353452886
 30
0.0
  0
SPLINE
  5
66
330
1F
100
AcDbEntity
  8
0
  6
Continuous
 62
     7
370
    25
100
AcDbSpline
210
0.0
220
0.0
230
1.0
 70
    11
 71
     3
 72
    38
 73
    34
 74
     0
 42
0.00000001
 43
0.00000001
 40
0.0
 40
0.0
 40
0.0
 40
0.0
 40
0.0625
 40
0.0625
 40
0.125
 40
0.125
 40
0.1875
 40
0.1875
 40
0.25
 40
0.25
 40
0.3125
 40
0.3125
 40
0.375
 40
0.375
 40
0.4375
 40
0.4375
 40
0.5
 40
0.5
 40
0.5625
 40
0.5625
 40
0.625
 40
0.625
 40
0.6875
 40
0.6875
 40
0.75
 40
0.75
 40
0.8125
 40
0.8125
 40
0.875
 40
0.875
 40
0.9375
 40
0.9375
 40
1.0
 40
1.0
 40
1.0
 40
1.0
 10
720.5434250493129
 20
-189.8481010233808
 30
0.0
 10
720.7629723650248
 20
-189.0148379801531
 30
0.0
 10
720.8145418638865
 20
-188.1701037429592
 30
0.0
 10
720.582438902936
 20
-186.4629420968814
 30
0.0
 10
720.3066743876265
 20
-185.6626384358199
 30
0.0
 10
719.4389091406974
 20
-184.1740573729712
 30
0.0
 10
718.8780314230322
 20
-183.540217799883
 30
0.0
 10
717.5067537355895
 20
-182.4968401334151
 30
0.0
 10
716.7459770451065
 20
-182.1258215302103
 30
0.0
 10
715.0799432858938
 20
-181.6866524379863
 30
0.0
 10
714.235030720564
 20
-181.6350266589149
 30
0.0
 10
712.5277347717979
 20
-181.866834462847
 30
0.0
 10
711.7274660023418
 20
-182.1423576027495
 30
0.0
 10
710.238564382309
 20
-183.0098006921677
 30
0.0
 10
709.6046462039315
 20
-183.5704671634999
 30
0.0
 10
708.5609831232259
 20
-184.9416067266574
 30
0.0
 10
708.1898937886573
 20
-185.7023448809434
 30
0.0
 10
707.7507294205452
 20
-187.3683541625383
 30
0.0
 10
707.6991950194248
 20
-188.2133459898945
 30
0.0
 10
707.931297801117
 20
-189.9205079474584
 30
0.0
 10
708.207061988406
 20
-190.7208110916703
 30
0.0
 10
709.0748279488133
 20
-192.2093929444101
 30
0.0
 10
709.6357060172086
 20
-192.8432328149359
 30
0.0
 10
711.0069816086506
 20
-193.8866087622804
 30
0.0
 10
711.7677585382011
 20
-194.2576275018316
 30
0.0
 10
713.4337900339223
 20
-194.6967974522553
 30
0.0
 10
714.2787026874802
 20
-194.7484235138132
 30
0.0
 10
715.9859979665799
 20
-194.5166164254792
 30
0.0
 10
716.7862712690995
 20
-194.2410911881632
 30
0.0
 10
718.2751709847144
 20
-193.3736510510687
 30
0.0
 10
718.9089327548479
 20
-192.8131901779666
 30
0.0
 10
719.9529112798126
 20
-191.4416361926482
 30
0.0
 10
720.323877733601
 20
-190.6813640666085
 30
0.0
 10
720.5434250493129
 20
-189.8481010233808
 30
0.0
  0
SPLINE
  5
67
330
1F
100
AcDbEntity
  8
0
  6
Continuous
 62
     7
370
    25
100
AcDbSpline
210
0.0
220
0.0
230
1.0
 70
    11
 71
     3
 72
    38
 73
    34
 74
     0
 42
0.00000001
 43
0.00000001
 40
0.0
 40
0.0
 40
0.0
 40
0.0
 40
0.0625
 40
0.0625
 40
0.125
 40
0.125
 40
0.1875
 40
0.1875
 40
0.25
 40
0.25
 40
0.3125
 40
0.3125
 40
0.375
 40
0.375
 40
0.4375
 40
0.4375
 40
0.5
 40
0.5
 40
0.5625
 40
0.5625
 40
0.625
 40
0.625
 40
0.6875
 40
0.6875
 40
0.75
 40
0.75
 40
0.8125
 40
0.8125
 40
0.875
 40
0.875
 40
0.9375
 40
0.9375
 40
1.0
 40
1.0
 40
1.0
 40
1.0
 10
473.2572253274434
 20
-124.6933667014731
 30
0.0
 10
473.4767726432045
 20
-123.8601036580588
 30
0.0
 10
473.5283421421063
 20
-123.0153694211603
 30
0.0
 10
473.2962391809767
 20
-121.3082077748647
 30
0.0
 10
473.0204746656689
 20
-120.5079041138065
 30
0.0
 10
472.1527094189154
 20
-119.0193230511691
 30
0.0
 10
471.5918317010854
 20
-118.3854834779554
 30
0.0
 10
470.2205540137973
 20
-117.3421058115273
 30
0.0
 10
469.4597773231887
 20
-116.9710872082893
 30
0.0
 10
467.7937435640729
 20
-116.5319181160919
 30
0.0
 10
466.9488309986219
 20
-116.4802923370369
 30
0.0
 10
465.2415350500011
 20
-116.7121001409095
 30
0.0
 10
464.4412662803553
 20
-116.9876232809224
 30
0.0
 10
462.9523646605566
 20
-117.8550663701792
 30
0.0
 10
462.3184464820201
 20
-118.41573284172
 30
0.0
 10
461.2747834013981
 20
-119.7868724046217
 30
0.0
 10
460.9036940668489
 20
-120.5476105588337
 30
0.0
 10
460.464529698614
 20
-122.2136198408323
 30
0.0
 10
460.4129952974394
 20
-123.0586116677879
 30
0.0
 10
460.6450980793641
 20
-124.7657736257497
 30
0.0
 10
460.9208622664518
 20
-125.5660767696161
 30
0.0
 10
461.7886282270287
 20
-127.0546586226488
 30
0.0
 10
462.3495062951748
 20
-127.6884984929848
 30
0.0
 10
463.7207818869455
 20
-128.7318744404161
 30
0.0
 10
464.4815588161762
 20
-129.1028931798829
 30
0.0
 10
466.1475903122082
 20
-129.5420631303886
 30
0.0
 10
466.9925029656193
 20
-129.5936891919663
 30
0.0
 10
468.6997982447012
 20
-129.3618821035107
 30
0.0
 10
469.5000715471868
 20
-129.0863568662147
 30
0.0
 10
470.9889712628882
 20
-128.2189167292018
 30
0.0
 10
471.6227330329393
 20
-127.6584558562084
 30
0.0
 10
472.6667115579825
 20
-126.2869018705913
 30
0.0
 10
473.0376780116823
 20
-125.5266297448874
 30
0.0
 10
473.2572253274434
 20
-124.6933667014731
 30
0.0
  0
SPLINE
  5
68
330
1F
100
AcDbEntity
  8
0
  6
Continuous
 62
     7
370
    25
100
AcDbSpline
210
0.0
220
0.0
230
1.0
 70
    11
 71
     3
 72
    38
 73
    34
 74
     0
 42
0.00000001
 43
0.00000001
 40
0.0
 40
0.0
 40
0.0
 40
0.0
 40
0.0625
 40
0.0625
 40
0.125
 40
0.125
 40
0.1875
 40
0.1875
 40
0.25
 40
0.25
 40
0.3125
 40
0.3125
 40
0.375
 40
0.375
 40
0.4375
 40
0.4375
 40
0.5
 40
0.5
 40
0.5625
 40
0.5625
 40
0.625
 40
0.625
 40
0.6875
 40
0.6875
 40
0.75
 40
0.75
 40
0.8125
 40
0.8125
 40
0.875
 40
0.875
 40
0.9375
 40
0.9375
 40
1.0
 40
1.0
 40
1.0
 40
1.0
 10
411.435675396976
 20
-108.4046831209962
 30
0.0
 10
411.6552227126882
 20
-107.571420077771
 30
0.0
 10
411.7067922115413
 20
-106.7266858405145
 30
0.0
 10
411.4746892506072
 20
-105.0195241945568
 30
0.0
 10
411.1989247352165
 20
-104.2192205333562
 30
0.0
 10
410.3311594884335
 20
-102.7306394706657
 30
0.0
 10
409.7702817706481
 20
-102.0967998974858
 30
0.0
 10
408.3990040833003
 20
-101.0534222310431
 30
0.0
 10
407.6382273927084
 20
-100.6824036278095
 30
0.0
 10
405.9721936336189
 20
-100.243234535618
 30
0.0
 10
405.1272810682617
 20
-100.1916087565503
 30
0.0
 10
403.4199851194267
 20
-100.4234165604423
 30
0.0
 10
402.6197163499272
 20
-100.6989397003703
 30
0.0
 10
401.1308147300503
 20
-101.5663827897777
 30
0.0
 10
400.4968965515934
 20
-102.1270492612139
 30
0.0
 10
399.4532334708902
 20
-103.498188824174
 30
0.0
 10
399.0821441363805
 20
-104.2589269782365
 30
0.0
 10
398.642979768148
 20
-105.9249362604758
 30
0.0
 10
398.5914453669643
 20
-106.7699280873645
 30
0.0
 10
398.8235481489044
 20
-108.4770900452193
 30
0.0
 10
399.09931233611
 20
-109.2773931892877
 30
0.0
 10
399.9670782964362
 20
-110.7659750420234
 30
0.0
 10
400.5279563648152
 20
-111.3998149125368
 30
0.0
 10
401.8992319563702
 20
-112.4431908599102
 30
0.0
 10
402.6600088857092
 20
-112.8142095994056
 30
0.0
 10
404.3260403817408
 20
-113.2533795499121
 30
0.0
 10
405.1709530350626
 20
-113.305005611502
 30
0.0
 10
406.8782483143236
 20
-113.0731985230211
 30
0.0
 10
407.6785216166655
 20
-112.7976732858088
 30
0.0
 10
409.167421332475
 20
-111.9302331486539
 30
0.0
 10
409.8011831024737
 20
-111.3697722757292
 30
0.0
 10
410.8451616275136
 20
-109.9982182901167
 30
0.0
 10
411.2161280812638
 20
-109.2379461642213
 30
0.0
 10
411.435675396976
 20
-108.4046831209962
 30
0.0
  0
SPLINE
  5
69
330
1F
100
AcDbEntity
  8
0
  6
Continuous
 62
     7
370
    25
100
AcDbSpline
210
0.0
220
0.0
230
1.0
 70
    11
 71
     3
 72
    38
 73
    34
 74
     0
 42
0.00000001
 43
0.00000001
 40
0.0
 40
0.0
 40
0.0
 40
0.0
 40
0.0625
 40
0.0625
 40
0.125
 40
0.125
 40
0.1875
 40
0.1875
 40
0.25
 40
0.25
 40
0.3125
 40
0.3125
 40
0.375
 40
0.375
 40
0.4375
 40
0.4375
 40
0.5
 40
0.5
 40
0.5625
 40
0.5625
 40
0.625
 40
0.625
 40
0.6875
 40
0.6875
 40
0.75
 40
0.75
 40
0.8125
 40
0.8125
 40
0.875
 40
0.875
 40
0.9375
 40
0.9375
 40
1.0
 40
1.0
 40
1.0
 40
1.0
 10
658.7218751188459
 20
-173.559417442904
 30
0.0
 10
658.9414224345458
 20
-172.7261543997254
 30
0.0
 10
658.9929919333962
 20
-171.8814201624484
 30
0.0
 10
658.7608889724919
 20
-170.1742585164383
 30
0.0
 10
658.4851244571083
 20
-169.3739548552499
 30
0.0
 10
657.6173592102812
 20
-167.8853737925874
 30
0.0
 10
657.0564814924561
 20
-167.2515342193773
 30
0.0
 10
655.6852038052317
 20
-166.208156552967
 30
0.0
 10
654.924427114591
 20
-165.8371379497206
 30
0.0
 10
653.2583933554753
 20
-165.3979688575223
 30
0.0
 10
652.4134807900537
 20
-165.3463430784633
 30
0.0
 10
650.7061848413742
 20
-165.5781508823448
 30
0.0
 10
649.9059160716754
 20
-165.8536740223887
 30
0.0
 10
648.4170144520416
 20
-166.7211171115747
 30
0.0
 10
647.7830962733677
 20
-167.2817835832956
 30
0.0
 10
646.7394331928552
 20
-168.6529231459077
 30
0.0
 10
646.3683438582398
 20
-169.4136613003705
 30
0.0
 10
645.9291794900278
 20
-171.0796705821572
 30
0.0
 10
645.8776450888604
 20
-171.924662409167
 30
0.0
 10
646.1097478707478
 20
-173.6318243672323
 30
0.0
 10
646.3855120577839
 20
-174.43212751101
 30
0.0
 10
647.2532780185018
 20
-175.9207093641166
 30
0.0
 10
647.8141560866106
 20
-176.5545492344245
 30
0.0
 10
649.1854316783144
 20
-177.5979251818381
 30
0.0
 10
649.946208607625
 20
-177.968943921326
 30
0.0
 10
651.6122401035643
 20
-178.4081138718072
 30
0.0
 10
652.457152757048
 20
-178.4597399333751
 30
0.0
 10
654.1644480360778
 20
-178.2279328449636
 30
0.0
 10
654.9647213385963
 20
-177.9524076076482
 30
0.0
 10
656.4536210542834
 20
-177.0849674706299
 30
0.0
 10
657.087382824348
 20
-176.5245065976186
 30
0.0
 10
658.1313613493786
 20
-175.1529526120427
 30
0.0
 10
658.5023278031459
 20
-174.3926804860825
 30
0.0
 10
658.7218751188459
 20
-173.559417442904
 30
0.0
  0
SPLINE
  5
6A
330
1F
100
AcDbEntity
  8
0
  6
Continuous
 62
     7
370
    25
100
AcDbSpline
210
0.0
220
0.0
230
1.0
 70
    11
 71
     3
 72
    38
 73
    34
 74
     0
 42
0.00000001
 43
0.00000001
 40
0.0
 40
0.0
 40
0.0
 40
0.0
 40
0.0625
 40
0.0625
 40
0.125
 40
0.125
 40
0.1875
 40
0.1875
 40
0.25
 40
0.25
 40
0.3125
 40
0.3125
 40
0.375
 40
0.375
 40
0.4375
 40
0.4375
 40
0.5
 40
0.5
 40
0.5625
 40
0.5625
 40
0.625
 40
0.625
 40
0.6875
 40
0.6875
 40
0.75
 40
0.75
 40
0.8125
 40
0.8125
 40
0.875
 40
0.875
 40
0.9375
 40
0.9375
 40
1.0
 40
1.0
 40
1.0
 40
1.0
 10
906.008074840716
 20
-238.7141517648119
 30
0.0
 10
906.2276221563689
 20
-237.8808887218086
 30
0.0
 10
906.279191655173
 20
-237.0361544841912
 30
0.0
 10
906.0470886944557
 20
-235.3289928385115
 30
0.0
 10
905.771324179022
 20
-234.5286891772378
 30
0.0
 10
904.9035589321077
 20
-233.0401081144154
 30
0.0
 10
904.3426812144211
 20
-232.4062685413107
 30
0.0
 10
902.9714035270072
 20
-231.3628908748495
 30
0.0
 10
902.2106268365231
 20
-230.9918722716444
 30
0.0
 10
900.5445930772836
 20
-230.5527031794144
 30
0.0
 10
899.6996805121538
 20
-230.5010774003158
 30
0.0
 10
897.9923845630141
 20
-230.732885204308
 30
0.0
 10
897.1921157936201
 20
-231.0084083441745
 30
0.0
 10
895.7032141738372
 20
-231.8758514336046
 30
0.0
 10
895.069295995354
 20
-232.4365179050753
 30
0.0
 10
894.0256329146091
 20
-233.8076574679438
 30
0.0
 10
893.65454358007
 20
-234.5683956221189
 30
0.0
 10
893.2153792119386
 20
-236.2344049042248
 30
0.0
 10
893.1638448107459
 20
-237.0793967310501
 30
0.0
 10
893.3959475926027
 20
-238.786558689165
 30
0.0
 10
893.6717117795979
 20
-239.5868618328728
 30
0.0
 10
894.539477740428
 20
-241.0754436860697
 30
0.0
 10
895.100355808477
 20
-241.709283556332
 30
0.0
 10
896.4716314001886
 20
-242.7526595037465
 30
0.0
 10
897.2324083294513
 20
-243.1236782432219
 30
0.0
 10
898.8984398254785
 20
-243.5628481937272
 30
0.0
 10
899.7433524788934
 20
-243.6144742553044
 30
0.0
 10
901.4506477579724
 20
-243.3826671668502
 30
0.0
 10
902.2509210603264
 20
-243.1071419296309
 30
0.0
 10
903.7398207762938
 20
-242.239701792463
 30
0.0
 10
904.3735825461728
 20
-241.6792409196956
 30
0.0
 10
905.4175610712942
 20
-240.3076869337814
 30
0.0
 10
905.7885275250634
 20
-239.5474148078151
 30
0.0
 10
906.008074840716
 20
-238.7141517648119
 30
0.0
  0
SPLINE
  5
6B
330
1F
100
AcDbEntity
  8
0
  6
Continuous
 62
     7
370
    25
100
AcDbSpline
210
0.0
220
0.0
230
1.0
 70
    11
 71
     3
 72
    38
 73
    34
 74
     0
 42
0.00000001
 43
0.00000001
 40
0.0
 40
0.0
 40
0.0
 40
0.0
 40
0.0625
 40
0.0625
 40
0.125
 40
0.125
 40
0.1875
 40
0.1875
 40
0.25
 40
0.25
 40
0.3125
 40
0.3125
 40
0.375
 40
0.375
 40
0.4375
 40
0.4375
 40
0.5
 40
0.5
 40
0.5625
 40
0.5625
 40
0.625
 40
0.625
 40
0.6875
 40
0.6875
 40
0.75
 40
0.75
 40
0.8125
 40
0.8125
 40
0.875
 40
0.875
 40
0.9375
 40
0.9375
 40
1.0
 40
1.0
 40
1.0
 40
1.0
 10
1153.294274562584
 20
-303.8688860867193
 30
0.0
 10
1153.513821878197
 20
-303.0356230438609
 30
0.0
 10
1153.565391376932
 20
-302.1908888057337
 30
0.0
 10
1153.333288416432
 20
-300.4837271607836
 30
0.0
 10
1153.057523900671
 20
-299.6834234989474
 30
0.0
 10
1152.189758654195
 20
-298.1948424365204
 30
0.0
 10
1151.628880936228
 20
-297.561002863202
 30
0.0
 10
1150.257603248937
 20
-296.5176251967731
 30
0.0
 10
1149.496826558302
 20
-296.1466065935282
 30
0.0
 10
1147.830792799241
 20
-295.7074375013452
 30
0.0
 10
1146.985880234062
 20
-295.6558117222533
 30
0.0
 10
1145.278584284842
 20
-295.8876195261853
 30
0.0
 10
1144.47831551576
 20
-296.1631426658699
 30
0.0
 10
1142.989413895433
 20
-297.0305857557241
 30
0.0
 10
1142.35549571713
 20
-297.5912522269587
 30
0.0
 10
1141.31183263657
 20
-298.9623917898753
 30
0.0
 10
1140.940743302052
 20
-299.7231299439679
 30
0.0
 10
1140.501578933692
 20
-301.3891392261903
 30
0.0
 10
1140.450044532485
 20
-302.2341310529093
 30
0.0
 10
1140.682147314599
 20
-303.9412930111205
 30
0.0
 10
1140.957911501675
 20
-304.7415961549675
 30
0.0
 10
1141.825677462087
 20
-306.2301780077897
 30
0.0
 10
1142.386555530402
 20
-306.8640178782541
 30
0.0
 10
1143.757831121999
 20
-307.9073938256387
 30
0.0
 10
1144.518608051513
 20
-308.2784125651801
 30
0.0
 10
1146.184639547153
 20
-308.7175825155836
 30
0.0
 10
1147.029552200593
 20
-308.7692085771576
 30
0.0
 10
1148.73684748001
 20
-308.5374014888116
 30
0.0
 10
1149.537120782391
 20
-308.2618762515762
 30
0.0
 10
1151.026020497965
 20
-307.3944361143325
 30
0.0
 10
1151.659782268158
 20
-306.8339752411525
 30
0.0
 10
1152.703760793045
 20
-305.4624212561394
 30
0.0
 10
1153.074727246971
 20
-304.7021491295775
 30
0.0
 10
1153.294274562584
 20
-303.8688860867193
 30
0.0
  0
SPLINE
  5
6C
330
1F
100
AcDbEntity
  8
0
  6
Continuous
 62
     7
370
    25
100
AcDbSpline
210
0.0
220
0.0
230
1.0
 70
    11
 71
     3
 72
    38
 73
    34
 74
     0
 42
0.00000001
 43
0.00000001
 40
0.0
 40
0.0
 40
0.0
 40
0.0
 40
0.0625
 40
0.0625
 40
0.125
 40
0.125
 40
0.1875
 40
0.1875
 40
0.25
 40
0.25
 40
0.3125
 40
0.3125
 40
0.375
 40
0.375
 40
0.4375
 40
0.4375
 40
0.5
 40
0.5
 40
0.5625
 40
0.5625
 40
0.625
 40
0.625
 40
0.6875
 40
0.6875
 40
0.75
 40
0.75
 40
0.8125
 40
0.8125
 40
0.875
 40
0.875
 40
0.9375
 40
0.9375
 40
1.0
 40
1.0
 40
1.0
 40
1.0
 10
164.1494756751094
 20
-43.24994879908922
 30
0.0
 10
164.369022990841
 20
-42.41668575578697
 30
0.0
 10
164.4205924897223
 20
-41.57195151873665
 30
0.0
 10
164.188489528693
 20
-39.8647898725207
 30
0.0
 10
163.9127250134163
 20
-39.06448621151561
 30
0.0
 10
163.0449597665003
 20
-37.57590514869225
 30
0.0
 10
162.4840820488142
 20
-36.94206557558805
 30
0.0
 10
161.1128043614004
 20
-35.89868790912682
 30
0.0
 10
160.3520276708869
 20
-35.52766930591391
 30
0.0
 10
158.6859939117069
 20
-35.08850021369962
 30
0.0
 10
157.84108134652
 20
-35.03687443460877
 30
0.0
 10
156.1337853974349
 20
-35.26868223856991
 30
0.0
 10
155.3335166282121
 20
-35.54420537833667
 30
0.0
 10
153.844615008032
 20
-36.41164846799733
 30
0.0
 10
153.2106968297056
 20
-36.97231493926223
 30
0.0
 10
152.1670337490447
 20
-38.34345450231172
 30
0.0
 10
151.7959444145054
 20
-39.10419265648663
 30
0.0
 10
151.3567800462897
 20
-40.77020193841172
 30
0.0
 10
151.3052456451244
 20
-41.61519376543635
 30
0.0
 10
151.5373484270109
 20
-43.32235572333347
 30
0.0
 10
151.8131126141321
 20
-44.12265886725714
 30
0.0
 10
152.6808785746809
 20
-45.61124072024004
 30
0.0
 10
153.2417566428704
 20
-46.2450805906093
 30
0.0
 10
154.6130322345819
 20
-47.28845653802391
 30
0.0
 10
155.3738091638447
 20
-47.6594752774992
 30
0.0
 10
157.0398406598717
 20
-48.09864522800457
 30
0.0
 10
157.8847533132867
 20
-48.15027128958182
 30
0.0
 10
159.5920485923662
 20
-47.91846420112747
 30
0.0
 10
160.3923218947859
 20
-47.64293896386976
 30
0.0
 10
161.8812216106212
 20
-46.77549882677891
 30
0.0
 10
162.5149833805858
 20
-46.21503795389889
 30
0.0
 10
163.558961905668
 20
-44.84348396813299
 30
0.0
 10
163.9299283593778
 20
-44.08321184239146
 30
0.0
 10
164.1494756751094
 20
-43.24994879908922
 30
0.0
  0
LINE
  5
6D
330
1F
100
AcDbEntity
  8
0
  6
Continuous
 62
     7
370
    25
100
AcDbLine
 10
1243.9768510635
 20
-296.7379985463
 30
0.0
 11
1228.689826936
 21
-354.7578821494
 31
0.0
  0
LINE
  5
6E
330
1F
100
AcDbEntity
  8
0
  6
Continuous
 62
     7
370
    25
100
AcDbLine
 10
7.6435120638
 20
29.0099418016
 30
0.0
 11
1243.9768510635
 21
-296.7379985463
 31
0.0
  0
LINE
  5
6F
330
1F
100
AcDbEntity
  8
0
  6
Continuous
 62
     7
370
    25
100
AcDbLine
 10
-7.6435120638
 20
-29.0099418016
 30
0.0
 11
7.6435120638
 21
29.0099418016
 31
0.0
  0
LINE
  5
70
330
1F
100
AcDbEntity
  8
0
  6
Continuous
 62
     7
370
    25
100
AcDbLine
 10
1228.689826936
 20
-354.7578821494
 30
0.0
 11
-7.6435120638
 21
-29.0099418016
 31
0.0
  0
SPLINE
  5
71
330
1F
100
AcDbEntity
  8
0
  6
Continuous
 62
     7
370
    25
100
AcDbSpline
210
0.0
220
0.0
230
1.0
 70
    11
 71
     3
 72
    38
 73
    34
 74
     0
 42
0.00000001
 43
0.00000001
 40
0.0
 40
0.0
 40
0.0
 40
0.0
 40
0.0625
 40
0.0625
 40
0.125
 40
0.125
 40
0.1875
 40
0.1875
 40
0.25
 40
0.25
 40
0.3125
 40
0.3125
 40
0.375
 40
0.375
 40
0.4375
 40
0.4375
 40
0.5
 40
0.5
 40
0.5625
 40
0.5625
 40
0.625
 40
0.625
 40
0.6875
 40
0.6875
 40
0.75
 40
0.75
 40
0.8125
 40
0.8125
 40
0.875
 40
0.875
 40
0.9375
 40
0.9375
 40
1.0
 40
1.0
 40
1.0
 40
1.0
 10
40.50637581417481
 20
-10.67258163813541
 30
0.0
 10
40.72592312990615
 20
-9.839318594832676
 30
0.0
 10
40.77749262878714
 20
-8.994584357781125
 30
0.0
 10
40.54538966775903
 20
-7.287422711568615
 30
0.0
 10
40.26962515247983
 20
-6.487119050559269
 30
0.0
 10
39.40185990556773
 20
-4.998537987741004
 30
0.0
 10
38.8409821878765
 20
-4.364698414632868
 30
0.0
 10
37.46970450046952
 20
-3.32132074817451
 30
0.0
 10
36.70892780988939
 20
-2.950302144944041
 30
0.0
 10
35.04289405083538
 20
-2.511133052761928
 30
0.0
 10
34.19798148541722
 20
-2.459507273702418
 30
0.0
 10
32.4906855366687
 20
-2.691315077568635
 30
0.0
 10
31.69041676720914
 20
-2.966838217473384
 30
0.0
 10
30.20151514716598
 20
-3.834281306953079
 30
0.0
 10
29.5675969688217
 20
-4.394947778241636
 30
0.0
 10
28.52393388805967
 20
-5.76608734142479
 30
0.0
 10
28.15284455353995
 20
-6.526825495524885
 30
0.0
 10
27.71368018538613
 20
-8.1928347774659
 30
0.0
 10
27.66214578425273
 20
-9.037826604725442
 30
0.0
 10
27.89424856601356
 20
-10.74498856213682
 30
0.0
 10
28.17001275337229
 20
-11.54529170646827
 30
0.0
 10
29.03777871357138
 20
-13.03387355912131
 30
0.0
 10
29.59865678199984
 20
-13.66771342967238
 30
0.0
 10
30.9699323735833
 20
-14.71108937705323
 30
0.0
 10
31.73070930297322
 20
-15.08210811656204
 30
0.0
 10
33.39674079887442
 20
-15.52127806703421
 30
0.0
 10
34.24165345229046
 20
-15.57290412861133
 30
0.0
 10
35.94894873149347
 20
-15.34109704019041
 30
0.0
 10
36.74922203384666
 20
-15.06557180297141
 30
0.0
 10
38.23812174969144
 20
-14.19813166576975
 30
0.0
 10
38.87188351967021
 20
-13.63767079287126
 30
0.0
 10
39.91586204471453
 20
-12.26611680725299
 30
0.0
 10
40.28682849844346
 20
-11.50584468143815
 30
0.0
 10
40.50637581417481
 20
-10.67258163813541
 30
0.0
  0
SPLINE
  5
72
330
1F
100
AcDbEntity
  8
0
  6
Continuous
 62
     7
370
    25
100
AcDbSpline
210
0.0
220
0.0
230
1.0
 70
    11
 71
     3
 72
    38
 73
    34
 74
     0
 42
0.00000001
 43
0.00000001
 40
0.0
 40
0.0
 40
0.0
 40
0.0
 40
0.0625
 40
0.0625
 40
0.125
 40
0.125
 40
0.1875
 40
0.1875
 40
0.25
 40
0.25
 40
0.3125
 40
0.3125
 40
0.375
 40
0.375
 40
0.4375
 40
0.4375
 40
0.5
 40
0.5
 40
0.5625
 40
0.5625
 40
0.625
 40
0.625
 40
0.6875
 40
0.6875
 40
0.75
 40
0.75
 40
0.8125
 40
0.8125
 40
0.875
 40
0.875
 40
0.9375
 40
0.9375
 40
1.0
 40
1.0
 40
1.0
 40
1.0
 10
1029.65117470165
 20
-271.2915189257654
 30
0.0
 10
1029.870722017323
 20
-270.4582558826907
 30
0.0
 10
1029.922291516162
 20
-269.6135216453278
 30
0.0
 10
1029.690188555334
 20
-267.9063599992819
 30
0.0
 10
1029.41442404
 20
-267.1060563381774
 30
0.0
 10
1028.546658792998
 20
-265.6174752753828
 30
0.0
 10
1027.985781075259
 20
-264.9836357022386
 30
0.0
 10
1026.614503388037
 20
-263.9402580358289
 30
0.0
 10
1025.853726697395
 20
-263.5692394325822
 30
0.0
 10
1024.187692938279
 20
-263.1300703403837
 30
0.0
 10
1023.342780373031
 20
-263.0784445613011
 30
0.0
 10
1021.635484424004
 20
-263.3102523652298
 30
0.0
 10
1020.835215654885
 20
-263.585775504936
 30
0.0
 10
1019.34631403444
 20
-264.4532185947505
 30
0.0
 10
1018.712395856336
 20
-265.0138850657232
 30
0.0
 10
1017.668732775495
 20
-266.3850246292031
 30
0.0
 10
1017.297643441016
 20
-267.1457627831485
 30
0.0
 10
1016.858479072859
 20
-268.811772065102
 30
0.0
 10
1016.806944671691
 20
-269.6567638921038
 30
0.0
 10
1017.039047453525
 20
-271.3639258500185
 30
0.0
 10
1017.314811640598
 20
-272.1642289938592
 30
0.0
 10
1018.182577601295
 20
-273.6528108469905
 30
0.0
 10
1018.743455669375
 20
-274.2866507172761
 30
0.0
 10
1020.114731261158
 20
-275.3300266647094
 30
0.0
 10
1020.875508190267
 20
-275.7010454041443
 30
0.0
 10
1022.54153968653
 20
-276.1402153547118
 30
0.0
 10
1023.386452339673
 20
-276.1918414163258
 30
0.0
 10
1025.09374761906
 20
-275.9600343277359
 30
0.0
 10
1025.894020921237
 20
-275.6845090906197
 30
0.0
 10
1027.382920637251
 20
-274.8170689533815
 30
0.0
 10
1028.01668240711
 20
-274.2566080806397
 30
0.0
 10
1029.060660932224
 20
-272.8850540947445
 30
0.0
 10
1029.431627385977
 20
-272.1247819688401
 30
0.0
 10
1029.65117470165
 20
-271.2915189257654
 30
0.0
  0
SPLINE
  5
73
330
1F
100
AcDbEntity
  8
0
  6
Continuous
 62
     7
370
    25
100
AcDbSpline
210
0.0
220
0.0
230
1.0
 70
    11
 71
     3
 72
    38
 73
    34
 74
     0
 42
0.00000001
 43
0.00000001
 40
0.0
 40
0.0
 40
0.0
 40
0.0
 40
0.0625
 40
0.0625
 40
0.125
 40
0.125
 40
0.1875
 40
0.1875
 40
0.25
 40
0.25
 40
0.3125
 40
0.3125
 40
0.375
 40
0.375
 40
0.4375
 40
0.4375
 40
0.5
 40
0.5
 40
0.5625
 40
0.5625
 40
0.625
 40
0.625
 40
0.6875
 40
0.6875
 40
0.75
 40
0.75
 40
0.8125
 40
0.8125
 40
0.875
 40
0.875
 40
0.9375
 40
0.9375
 40
1.0
 40
1.0
 40
1.0
 40
1.0
 10
782.3649749797801
 20
-206.1367846038576
 30
0.0
 10
782.584522295521
 20
-205.3035215605194
 30
0.0
 10
782.6360917944312
 20
-204.4587873236813
 30
0.0
 10
782.4039888333257
 20
-202.751625677113
 30
0.0
 10
782.1282243181699
 20
-201.9513220163159
 30
0.0
 10
781.260459071088
 20
-200.4627409534287
 30
0.0
 10
780.6995813534211
 20
-199.8289013803391
 30
0.0
 10
779.3283036661352
 20
-198.7855237139127
 30
0.0
 10
778.5675269755259
 20
-198.4145051106745
 30
0.0
 10
776.9014932164097
 20
-197.975336018476
 30
0.0
 10
776.0565806511346
 20
-197.9237102393971
 30
0.0
 10
774.3492847021615
 20
-198.1555180433184
 30
0.0
 10
773.5490159327326
 20
-198.4310411832052
 30
0.0
 10
772.0601143128529
 20
-199.2984842726658
 30
0.0
 10
771.4261961344886
 20
-199.8591507439802
 30
0.0
 10
770.3825330536032
 20
-201.2302903071308
 30
0.0
 10
770.0114437190834
 20
-201.9910284612307
 30
0.0
 10
769.5722793510531
 20
-203.6570377432046
 30
0.0
 10
769.5207449499193
 20
-204.5020295704632
 30
0.0
 10
769.7528477315574
 20
-206.2091915278436
 30
0.0
 10
770.0286119188435
 20
-207.0094946720503
 30
0.0
 10
770.8963778793104
 20
-208.4980765249838
 30
0.0
 10
771.4572559475258
 20
-209.1319163953727
 30
0.0
 10
772.8285315392679
 20
-210.1752923427974
 30
0.0
 10
773.5893084684488
 20
-210.5463110822511
 30
0.0
 10
775.2553399646091
 20
-210.9854810327896
 30
0.0
 10
776.1002526178993
 20
-211.0371070943837
 30
0.0
 10
777.8075478970951
 20
-210.8053000058625
 30
0.0
 10
778.6078211994574
 20
-210.5297747686385
 30
0.0
 10
780.0967209152917
 20
-209.6623346315472
 30
0.0
 10
780.7304826852562
 20
-209.1018737586671
 30
0.0
 10
781.7744612103386
 20
-207.7303197729015
 30
0.0
 10
782.145427664039
 20
-206.9700476471959
 30
0.0
 10
782.3649749797801
 20
-206.1367846038576
 30
0.0
  0
SPLINE
  5
74
330
1F
100
AcDbEntity
  8
0
  6
Continuous
 62
     7
370
    25
100
AcDbSpline
210
0.0
220
0.0
230
1.0
 70
    11
 71
     3
 72
    38
 73
    34
 74
     0
 42
0.00000001
 43
0.00000001
 40
0.0
 40
0.0
 40
0.0
 40
0.0
 40
0.0625
 40
0.0625
 40
0.125
 40
0.125
 40
0.1875
 40
0.1875
 40
0.25
 40
0.25
 40
0.3125
 40
0.3125
 40
0.375
 40
0.375
 40
0.4375
 40
0.4375
 40
0.5
 40
0.5
 40
0.5625
 40
0.5625
 40
0.625
 40
0.625
 40
0.6875
 40
0.6875
 40
0.75
 40
0.75
 40
0.8125
 40
0.8125
 40
0.875
 40
0.875
 40
0.9375
 40
0.9375
 40
1.0
 40
1.0
 40
1.0
 40
1.0
 10
535.0787752579106
 20
-140.98205028195
 30
0.0
 10
535.298322573613
 20
-140.1487872387622
 30
0.0
 10
535.349892072461
 20
-139.3040530014667
 30
0.0
 10
535.1177891115572
 20
-137.5968913555121
 30
0.0
 10
534.8420245961848
 20
-136.7965876943429
 30
0.0
 10
533.9742593493348
 20
-135.3080066315865
 30
0.0
 10
533.4133816315999
 20
-134.6741670584453
 30
0.0
 10
532.042103944217
 20
-133.6307893919911
 30
0.0
 10
531.2813272536596
 20
-133.2597707887666
 30
0.0
 10
529.6152934945366
 20
-132.8206016965684
 30
0.0
 10
528.7703809291487
 20
-132.7689759175048
 30
0.0
 10
527.0630849804089
 20
-133.0007837213954
 30
0.0
 10
526.2628162107077
 20
-133.2763068614406
 30
0.0
 10
524.7739145911386
 20
-134.143749950615
 30
0.0
 10
524.1399964125441
 20
-134.704416422232
 30
0.0
 10
523.0963333318086
 20
-136.0755559850635
 30
0.0
 10
522.7252439972498
 20
-136.836294139313
 30
0.0
 10
522.2860796291478
 20
-138.5023034213069
 30
0.0
 10
522.2345452279798
 20
-139.3472952483116
 30
0.0
 10
522.466648009758
 20
-141.0544572061799
 30
0.0
 10
522.7424121968049
 20
-141.8547603499759
 30
0.0
 10
523.6101781576107
 20
-143.3433422032429
 30
0.0
 10
524.171056225585
 20
-143.9771820734483
 30
0.0
 10
525.5423318174703
 20
-145.0205580209066
 30
0.0
 10
526.3031087467242
 20
-145.3915767603796
 30
0.0
 10
527.9691402425946
 20
-145.8307467108456
 30
0.0
 10
528.8140528961269
 20
-145.8823727724071
 30
0.0
 10
530.5213481751288
 20
-145.6505656840239
 30
0.0
 10
531.3216214776864
 20
-145.3750404466858
 30
0.0
 10
532.8105211933233
 20
-144.5076003096844
 30
0.0
 10
533.4442829634227
 20
-143.9471394366272
 30
0.0
 10
534.4882614884334
 20
-142.5755854511262
 30
0.0
 10
534.8592279422082
 20
-141.8153133251377
 30
0.0
 10
535.0787752579106
 20
-140.98205028195
 30
0.0
  0
SPLINE
  5
75
330
1F
100
AcDbEntity
  8
0
  6
Continuous
 62
     7
370
    25
100
AcDbSpline
210
0.0
220
0.0
230
1.0
 70
    11
 71
     3
 72
    38
 73
    34
 74
     0
 42
0.00000001
 43
0.00000001
 40
0.0
 40
0.0
 40
0.0
 40
0.0
 40
0.0625
 40
0.0625
 40
0.125
 40
0.125
 40
0.1875
 40
0.1875
 40
0.25
 40
0.25
 40
0.3125
 40
0.3125
 40
0.375
 40
0.375
 40
0.4375
 40
0.4375
 40
0.5
 40
0.5
 40
0.5625
 40
0.5625
 40
0.625
 40
0.625
 40
0.6875
 40
0.6875
 40
0.75
 40
0.75
 40
0.8125
 40
0.8125
 40
0.875
 40
0.875
 40
0.9375
 40
0.9375
 40
1.0
 40
1.0
 40
1.0
 40
1.0
 10
349.6141254665091
 20
-92.11599954051937
 30
0.0
 10
349.8336727822406
 20
-91.28273649721748
 30
0.0
 10
349.8852422811215
 20
-90.43800226016577
 30
0.0
 10
349.653139320093
 20
-88.73084061395183
 30
0.0
 10
349.377374804814
 20
-87.93053695294309
 30
0.0
 10
348.5096095579021
 20
-86.44195589012509
 30
0.0
 10
347.9487318402105
 20
-85.80811631701677
 30
0.0
 10
346.5774541528035
 20
-84.76473865055837
 30
0.0
 10
345.8166774622533
 20
-84.39372004733579
 30
0.0
 10
344.1506437031398
 20
-83.95455095513803
 30
0.0
 10
343.3057311377751
 20
-83.9029251760713
 30
0.0
 10
341.5984351889791
 20
-84.13473297996762
 30
0.0
 10
340.798166419408
 20
-84.41025611993717
 30
0.0
 10
339.3092647996352
 20
-85.2776992092571
 30
0.0
 10
338.675346621066
 20
-85.83836568084092
 30
0.0
 10
337.6316835404835
 20
-87.20950524359327
 30
0.0
 10
337.260594205905
 20
-87.97024339791682
 30
0.0
 10
336.8214298376895
 20
-89.63625267984179
 30
0.0
 10
336.7698954365242
 20
-90.48124450686757
 30
0.0
 10
337.0019982184103
 20
-92.18840646476252
 30
0.0
 10
337.2777624055336
 20
-92.98870960869
 30
0.0
 10
338.1455283660783
 20
-94.47729146166739
 30
0.0
 10
338.7064064342724
 20
-95.11113133204002
 30
0.0
 10
340.0776820259794
 20
-96.15450727945345
 30
0.0
 10
340.838458955306
 20
-96.52552601894558
 30
0.0
 10
342.5044904512097
 20
-96.96469596941841
 30
0.0
 10
343.3494031047402
 20
-97.01632203097996
 30
0.0
 10
345.0566983837118
 20
-96.78451494258952
 30
0.0
 10
345.8569716862526
 20
-96.50898970526137
 30
0.0
 10
347.3458714019541
 20
-95.64154956824764
 30
0.0
 10
347.9796331720047
 20
-95.08108869525451
 30
0.0
 10
349.0236116970481
 20
-93.7095347096375
 30
0.0
 10
349.3945781507776
 20
-92.94926258382125
 30
0.0
 10
349.6141254665091
 20
-92.11599954051937
 30
0.0
  0
SPLINE
  5
76
330
1F
100
AcDbEntity
  8
0
  6
Continuous
 62
     7
370
    25
100
AcDbSpline
210
0.0
220
0.0
230
1.0
 70
    11
 71
     3
 72
    38
 73
    34
 74
     0
 42
0.00000001
 43
0.00000001
 40
0.0
 40
0.0
 40
0.0
 40
0.0
 40
0.0625
 40
0.0625
 40
0.125
 40
0.125
 40
0.1875
 40
0.1875
 40
0.25
 40
0.25
 40
0.3125
 40
0.3125
 40
0.375
 40
0.375
 40
0.4375
 40
0.4375
 40
0.5
 40
0.5
 40
0.5625
 40
0.5625
 40
0.625
 40
0.625
 40
0.6875
 40
0.6875
 40
0.75
 40
0.75
 40
0.8125
 40
0.8125
 40
0.875
 40
0.875
 40
0.9375
 40
0.9375
 40
1.0
 40
1.0
 40
1.0
 40
1.0
 10
596.9003251883776
 20
-157.2707338624268
 30
0.0
 10
597.1198725041323
 20
-156.437470819037
 30
0.0
 10
597.1714420030138
 20
-155.5927365819889
 30
0.0
 10
596.9393390419383
 20
-153.8855749359438
 30
0.0
 10
596.6635745265501
 20
-153.0852712747472
 30
0.0
 10
595.7958092799037
 20
-151.596690212136
 30
0.0
 10
595.2349315620727
 20
-150.9628506389216
 30
0.0
 10
593.863653874679
 20
-149.9194729724687
 30
0.0
 10
593.1028771842082
 20
-149.548454369267
 30
0.0
 10
591.4368434249221
 20
-149.1092852770217
 30
0.0
 10
590.5919308596222
 20
-149.0576594979462
 30
0.0
 10
588.8846349108696
 20
-149.2894673019078
 30
0.0
 10
588.0843661412724
 20
-149.5649904418925
 30
0.0
 10
586.5954645215082
 20
-150.4324335311168
 30
0.0
 10
585.9615463428512
 20
-150.993100002816
 30
0.0
 10
584.9178832624362
 20
-152.3642395654333
 30
0.0
 10
584.5467939277469
 20
-153.1249777201759
 30
0.0
 10
584.1076295595848
 20
-154.7909870013976
 30
0.0
 10
584.0560951584698
 20
-155.6359788287932
 30
0.0
 10
584.2881979402023
 20
-157.3431407866518
 30
0.0
 10
584.5639621272854
 20
-158.14344393051
 30
0.0
 10
585.4317280880642
 20
-159.6320257836625
 30
0.0
 10
585.9926061561422
 20
-160.2658656539468
 30
0.0
 10
587.363881747847
 20
-161.3092416013617
 30
0.0
 10
588.1246586770902
 20
-161.6802603408318
 30
0.0
 10
589.7906901731632
 20
-162.1194302913472
 30
0.0
 10
590.6356028265185
 20
-162.1710563529326
 30
0.0
 10
592.3428981056713
 20
-161.9392492644519
 30
0.0
 10
593.1431714082102
 20
-161.6637240271249
 30
0.0
 10
594.632071123734
 20
-160.7962838901991
 30
0.0
 10
595.265832893904
 20
-160.2358230170496
 30
0.0
 10
596.3098114188871
 20
-158.8642690316577
 30
0.0
 10
596.6807778726229
 20
-158.1039969058166
 30
0.0
 10
596.9003251883776
 20
-157.2707338624268
 30
0.0
  0
SPLINE
  5
77
330
1F
100
AcDbEntity
  8
0
  6
Continuous
 62
     7
370
    25
100
AcDbSpline
210
0.0
220
0.0
230
1.0
 70
    11
 71
     3
 72
    38
 73
    34
 74
     0
 42
0.00000001
 43
0.00000001
 40
0.0
 40
0.0
 40
0.0
 40
0.0
 40
0.0625
 40
0.0625
 40
0.125
 40
0.125
 40
0.1875
 40
0.1875
 40
0.25
 40
0.25
 40
0.3125
 40
0.3125
 40
0.375
 40
0.375
 40
0.4375
 40
0.4375
 40
0.5
 40
0.5
 40
0.5625
 40
0.5625
 40
0.625
 40
0.625
 40
0.6875
 40
0.6875
 40
0.75
 40
0.75
 40
0.8125
 40
0.8125
 40
0.875
 40
0.875
 40
0.9375
 40
0.9375
 40
1.0
 40
1.0
 40
1.0
 40
1.0
 10
844.1865249102474
 20
-222.4254681843346
 30
0.0
 10
844.4060722260077
 20
-221.5922051409161
 30
0.0
 10
844.4576417249219
 20
-220.7474709041089
 30
0.0
 10
844.2255387637692
 20
-219.0403092576392
 30
0.0
 10
843.949774248585
 20
-218.2400055967925
 30
0.0
 10
843.0820090016077
 20
-216.7514245339061
 30
0.0
 10
842.5211312839676
 20
-216.117584960837
 30
0.0
 10
841.1498535965228
 20
-215.0742072943686
 30
0.0
 10
840.3890769059769
 20
-214.7031886911471
 30
0.0
 10
838.7230431468925
 20
-214.264019598957
 30
0.0
 10
837.8781305813868
 20
-214.2123938199095
 30
0.0
 10
836.1708346328442
 20
-214.44420162376
 30
0.0
 10
835.3705658630097
 20
-214.7197247638829
 30
0.0
 10
833.8816642435098
 20
-215.5871678529419
 30
0.0
 10
833.2477460645575
 20
-216.1478343250289
 30
0.0
 10
832.2040829844683
 20
-217.5189738870357
 30
0.0
 10
831.8329936497034
 20
-218.2797120420664
 30
0.0
 10
831.3938292813673
 20
-219.9457213233226
 30
0.0
 10
831.3422948802354
 20
-220.7907131505908
 30
0.0
 10
831.5743976621761
 20
-222.4978751086698
 30
0.0
 10
831.8501618492561
 20
-223.2981782525227
 30
0.0
 10
832.7179278098326
 20
-224.7867601054652
 30
0.0
 10
833.2788058780702
 20
-225.420599975871
 30
0.0
 10
834.6500814696583
 20
-226.463975923253
 30
0.0
 10
835.4108583990434
 20
-226.8349946627606
 30
0.0
 10
837.0768898949494
 20
-227.274164613234
 30
0.0
 10
837.9218025485075
 20
-227.3257906747919
 30
0.0
 10
839.6290978274217
 20
-227.0939835864083
 30
0.0
 10
840.4293711297748
 20
-226.8184583491893
 30
0.0
 10
841.9182708459082
 20
-225.95101821195
 30
0.0
 10
842.5520326156717
 20
-225.3905573393342
 30
0.0
 10
843.5960111408579
 20
-224.0190033531884
 30
0.0
 10
843.9669775944872
 20
-223.258731227753
 30
0.0
 10
844.1865249102474
 20
-222.4254681843346
 30
0.0
  0
SPLINE
  5
78
330
1F
100
AcDbEntity
  8
0
  6
Continuous
 62
     7
370
    25
100
AcDbSpline
210
0.0
220
0.0
230
1.0
 70
    11
 71
     3
 72
    38
 73
    34
 74
     0
 42
0.00000001
 43
0.00000001
 40
0.0
 40
0.0
 40
0.0
 40
0.0
 40
0.0625
 40
0.0625
 40
0.125
 40
0.125
 40
0.1875
 40
0.1875
 40
0.25
 40
0.25
 40
0.3125
 40
0.3125
 40
0.375
 40
0.375
 40
0.4375
 40
0.4375
 40
0.5
 40
0.5
 40
0.5625
 40
0.5625
 40
0.625
 40
0.625
 40
0.6875
 40
0.6875
 40
0.75
 40
0.75
 40
0.8125
 40
0.8125
 40
0.875
 40
0.875
 40
0.9375
 40
0.9375
 40
1.0
 40
1.0
 40
1.0
 40
1.0
 10
1091.472724632117
 20
-287.5802025062424
 30
0.0
 10
1091.692271947849
 20
-286.7469394629412
 30
0.0
 10
1091.743841446762
 20
-285.9022052261225
 30
0.0
 10
1091.511738485669
 20
-284.1950435794411
 30
0.0
 10
1091.235973970626
 20
-283.3947399188378
 30
0.0
 10
1090.368208723306
 20
-281.906158855676
 30
0.0
 10
1089.807331005852
 20
-281.2723192827484
 30
0.0
 10
1088.436053318379
 20
-280.2289416162727
 30
0.0
 10
1087.675276627893
 20
-279.8579230130672
 30
0.0
 10
1086.009242868716
 20
-279.4187539208525
 30
0.0
 10
1085.16433030347
 20
-279.3671281417696
 30
0.0
 10
1083.4570343545
 20
-279.5989359457151
 30
0.0
 10
1082.656765584919
 20
-279.8744590856908
 30
0.0
 10
1081.167863965341
 20
-280.7419021749493
 30
0.0
 10
1080.533945786736
 20
-281.3025686465795
 30
0.0
 10
1079.49028270603
 20
-282.6737082093009
 30
0.0
 10
1079.119193371473
 20
-283.4344463635422
 30
0.0
 10
1078.680029003337
 20
-285.1004556456624
 30
0.0
 10
1078.628494602206
 20
-285.9454474729309
 30
0.0
 10
1078.860597383946
 20
-287.6526094301453
 30
0.0
 10
1079.136361571443
 20
-288.4529125747146
 30
0.0
 10
1080.004127531385
 20
-289.9414944270887
 30
0.0
 10
1080.565005600027
 20
-290.5753342978023
 30
0.0
 10
1081.93628119144
 20
-291.6187102451371
 30
0.0
 10
1082.697058120984
 20
-291.9897289846865
 30
0.0
 10
1084.363089616748
 20
-292.4288989351234
 30
0.0
 10
1085.208002270422
 20
-292.4805249966656
 30
0.0
 10
1086.915297549246
 20
-292.2487179083499
 30
0.0
 10
1087.715570851873
 20
-291.9731926709712
 30
0.0
 10
1089.204470567548
 20
-291.1057525339835
 30
0.0
 10
1089.838232337615
 20
-290.5452916609698
 30
0.0
 10
1090.882210862654
 20
-289.1737376753682
 30
0.0
 10
1091.253177316385
 20
-288.4134655495435
 30
0.0
 10
1091.472724632117
 20
-287.5802025062424
 30
0.0
  0
SPLINE
  5
79
330
1F
100
AcDbEntity
  8
0
  6
Continuous
 62
     7
370
    25
100
AcDbSpline
210
0.0
220
0.0
230
1.0
 70
    11
 71
     3
 72
    38
 73
    34
 74
     0
 42
0.00000001
 43
0.00000001
 40
0.0
 40
0.0
 40
0.0
 40
0.0
 40
0.0625
 40
0.0625
 40
0.125
 40
0.125
 40
0.1875
 40
0.1875
 40
0.25
 40
0.25
 40
0.3125
 40
0.3125
 40
0.375
 40
0.375
 40
0.4375
 40
0.4375
 40
0.5
 40
0.5
 40
0.5625
 40
0.5625
 40
0.625
 40
0.625
 40
0.6875
 40
0.6875
 40
0.75
 40
0.75
 40
0.8125
 40
0.8125
 40
0.875
 40
0.875
 40
0.9375
 40
0.9375
 40
1.0
 40
1.0
 40
1.0
 40
1.0
 10
102.3279257446421
 20
-26.96126521861233
 30
0.0
 10
102.5474730603735
 20
-26.12800217530939
 30
0.0
 10
102.5990425592704
 20
-25.28326793837447
 30
0.0
 10
102.3669395982103
 20
-23.57610629192907
 30
0.0
 10
102.0911750830419
 20
-22.77580263111
 30
0.0
 10
101.2234098359402
 20
-21.28722156814405
 30
0.0
 10
100.6625321183461
 20
-20.6533819951099
 30
0.0
 10
99.29125443093417
 20
-19.61000432865123
 30
0.0
 10
98.53047774041694
 20
-19.23898572543734
 30
0.0
 10
96.86444398124219
 20
-18.79981663322238
 30
0.0
 10
96.0195314159379
 20
-18.74819085414745
 30
0.0
 10
94.3122354670827
 20
-18.97999865807745
 30
0.0
 10
93.51196669767427
 20
-19.25552179795211
 30
0.0
 10
92.02306507763507
 20
-20.12296488742806
 30
0.0
 10
91.38914689928907
 20
-20.68363135871873
 30
0.0
 10
90.34548381852683
 20
-22.05477092190153
 30
0.0
 10
89.97439448404634
 20
-22.81550907585294
 30
0.0
 10
89.53523011581424
 20
-24.48151835809165
 30
0.0
 10
89.48369571462648
 20
-25.32651018495148
 30
0.0
 10
89.71579849657444
 20
-27.03367214286461
 30
0.0
 10
89.99156268371219
 20
-27.83397528681706
 30
0.0
 10
90.85932864416587
 20
-29.32255713972632
 30
0.0
 10
91.42020671240215
 20
-29.95639701013111
 30
0.0
 10
92.79148230411552
 20
-30.99977295754827
 30
0.0
 10
93.55225923337379
 20
-31.37079169702239
 30
0.0
 10
95.21829072940817
 20
-31.8099616475276
 30
0.0
 10
96.06320338281724
 20
-31.86158770910565
 30
0.0
 10
97.77049866190109
 20
-31.62978062064981
 30
0.0
 10
98.57077196438524
 20
-31.35425538335451
 30
0.0
 10
100.0596716800875
 20
-30.48681524634045
 30
0.0
 10
100.6934334501378
 20
-29.92635437334796
 30
0.0
 10
101.7374119751817
 20
-28.55480038773015
 30
0.0
 10
102.1083784289107
 20
-27.79452826191526
 30
0.0
 10
102.3279257446421
 20
-26.96126521861233
 30
0.0
  0
SPLINE
  5
7A
330
1F
100
AcDbEntity
  8
0
  6
Continuous
 62
     7
370
    25
100
AcDbSpline
210
0.0
220
0.0
230
1.0
 70
    11
 71
     3
 72
    38
 73
    34
 74
     0
 42
0.00000001
 43
0.00000001
 40
0.0
 40
0.0
 40
0.0
 40
0.0
 40
0.0625
 40
0.0625
 40
0.125
 40
0.125
 40
0.1875
 40
0.1875
 40
0.25
 40
0.25
 40
0.3125
 40
0.3125
 40
0.375
 40
0.375
 40
0.4375
 40
0.4375
 40
0.5
 40
0.5
 40
0.5625
 40
0.5625
 40
0.625
 40
0.625
 40
0.6875
 40
0.6875
 40
0.75
 40
0.75
 40
0.8125
 40
0.8125
 40
0.875
 40
0.875
 40
0.9375
 40
0.9375
 40
1.0
 40
1.0
 40
1.0
 40
1.0
 10
287.7925755360437
 20
-75.82731596004297
 30
0.0
 10
288.0121228517752
 20
-74.99405291674087
 30
0.0
 10
288.0636923506642
 20
-74.14931867974742
 30
0.0
 10
287.8315893896198
 20
-72.44215703341744
 30
0.0
 10
287.555824874364
 20
-71.64185337244844
 30
0.0
 10
286.6880596274214
 20
-70.15327230966699
 30
0.0
 10
286.1271819096849
 20
-69.5194327365245
 30
0.0
 10
284.755904222399
 20
-68.476055070098
 30
0.0
 10
283.9951275318199
 20
-68.10503646686782
 30
0.0
 10
282.3290937726426
 20
-67.66586737465322
 30
0.0
 10
281.4841812073385
 20
-67.61424159557825
 30
0.0
 10
279.7768852584853
 20
-67.84604939950793
 30
0.0
 10
278.9766164890092
 20
-68.12157253942216
 30
0.0
 10
277.4877148691036
 20
-68.98901562881933
 30
0.0
 10
276.8537966905195
 20
-69.54968210042284
 30
0.0
 10
275.8101336100996
 20
-70.92082166305858
 30
0.0
 10
275.4390442754424
 20
-71.68155981768014
 30
0.0
 10
274.9998799072214
 20
-73.34756909912564
 30
0.0
 10
274.9483455060897
 20
-74.19256092639847
 30
0.0
 10
275.1804482879143
 20
-75.89972288427882
 30
0.0
 10
275.4562124750208
 20
-76.70002602817728
 30
0.0
 10
276.323978435661
 20
-78.18860788122744
 30
0.0
 10
276.8848565038061
 20
-78.82244775156292
 30
0.0
 10
278.256132095515
 20
-79.86582369897782
 30
0.0
 10
279.0169090248074
 20
-80.23684243846095
 30
0.0
 10
280.6829405207777
 20
-80.67601238895031
 30
0.0
 10
281.5278531741881
 20
-80.72763845052819
 30
0.0
 10
283.2351484533335
 20
-80.49583136208858
 30
0.0
 10
284.0354217558177
 20
-80.22030612479338
 30
0.0
 10
285.5243214714583
 20
-79.35286598776287
 30
0.0
 10
286.1580832415593
 20
-78.79240511470391
 30
0.0
 10
287.2020617665634
 20
-77.42085112923543
 30
0.0
 10
287.5730282203123
 20
-76.66057900334506
 30
0.0
 10
287.7925755360437
 20
-75.82731596004297
 30
0.0
  0
ENDSEC
  0
SECTION
  2
OBJECTS
  0
DICTIONARY
  5
C
330
0
100
AcDbDictionary
281
     1
  3
ACAD_GROUP
350
D
  3
ACAD_LAYOUT
350
1A
  3
ACAD_MLINESTYLE
350
17
  3
ACAD_PLOTSETTINGS
350
19
  3
ACAD_PLOTSTYLENAME
350
E
  3
ACAD_SCALELIST
350
47
  3
DWGPROPS
350
7B
  0
DICTIONARY
  5
D
102
{ACAD_REACTORS
330
C
102
}
330
C
100
AcDbDictionary
281
     1
  0
DICTIONARY
  5
1A
102
{ACAD_REACTORS
330
C
102
}
330
C
100
AcDbDictionary
281
     1
  3
Layout1
350
1E
  3
Layout2
350
26
  3
Model
350
22
  0
DICTIONARY
  5
17
102
{ACAD_REACTORS
330
C
102
}
330
C
100
AcDbDictionary
281
     1
  3
Standard
350
18
  0
DICTIONARY
  5
19
102
{ACAD_REACTORS
330
C
102
}
330
C
100
AcDbDictionary
281
     1
  0
ACDBDICTIONARYWDFLT
  5
E
102
{ACAD_REACTORS
330
C
102
}
330
C
100
AcDbDictionary
281
     1
  3
Normal
350
F
100
AcDbDictionaryWithDefault
340
F
  0
DICTIONARY
  5
47
102
{ACAD_REACTORS
330
C
102
}
330
C
100
AcDbDictionary
281
     1
  3
A0
350
48
  3
A1
350
49
  3
A2
350
4A
  3
A3
350
4B
  3
A4
350
4C
  3
A5
350
4D
  3
A6
350
4E
  3
A7
350
4F
  3
A8
350
50
  3
A9
350
51
  3
B0
350
52
  3
B1
350
53
  3
B2
350
54
  3
B3
350
55
  3
B4
350
56
  3
B5
350
57
  3
B6
350
58
  0
XRECORD
  5
7B
102
{ACAD_REACTORS
330
C
102
}
330
C
100
AcDbXrecord
280
     1
  1
DWGPROPS COOKIE
  2

  3

  4

  6

  7

  8
m.bergamaschi
  9

300
=
301
=
302
=
303
=
304
=
305
=
306
=
307
=
308
=
309
=
 40
0.0
 41
2460277.639963611
 42
2460277.63996368
  1

 90
        0
  0
LAYOUT
  5
1E
102
{ACAD_REACTORS
330
1A
102
}
330
1A
100
AcDbPlotSettings
  1

  2
none_device
  4

  6

 40
0.0
 41
0.0
 42
0.0
 43
0.0
 44
0.0
 45
0.0
 46
0.0
 47
0.0
 48
0.0
 49
0.0
140
0.0
141
0.0
142
1.0
143
1.0
 70
   688
 72
     1
 73
     0
 74
     5
  7

 75
    16
147
1.0
148
0.0
149
0.0
100
AcDbLayout
  1
Layout1
 70
     1
 71
     1
 10
0.0
 20
0.0
 11
420.0
 21
297.0
 12
0.0
 22
0.0
 32
0.0
 14
1.0000000000E+20
 24
1.0000000000E+20
 34
1.0000000000E+20
 15
-1.0000000000E+20
 25
-1.0000000000E+20
 35
-1.0000000000E+20
146
0.0
 13
0.0
 23
0.0
 33
0.0
 16
1.0
 26
0.0
 36
0.0
 17
0.0
 27
1.0
 37
0.0
 76
     0
330
1B
  0
LAYOUT
  5
26
102
{ACAD_REACTORS
330
1A
102
}
330
1A
100
AcDbPlotSettings
  1

  2
none_device
  4

  6

 40
0.0
 41
0.0
 42
0.0
 43
0.0
 44
0.0
 45
0.0
 46
0.0
 47
0.0
 48
0.0
 49
0.0
140
0.0
141
0.0
142
1.0
143
1.0
 70
   688
 72
     1
 73
     0
 74
     5
  7

 75
    16
147
1.0
148
0.0
149
0.0
100
AcDbLayout
  1
Layout2
 70
     1
 71
     2
 10
0.0
 20
0.0
 11
0.0
 21
0.0
 12
0.0
 22
0.0
 32
0.0
 14
0.0
 24
0.0
 34
0.0
 15
0.0
 25
0.0
 35
0.0
146
0.0
 13
0.0
 23
0.0
 33
0.0
 16
1.0
 26
0.0
 36
0.0
 17
0.0
 27
1.0
 37
0.0
 76
     0
330
23
  0
LAYOUT
  5
22
102
{ACAD_REACTORS
330
1A
102
}
330
1A
100
AcDbPlotSettings
  1

  2
none_device
  4
ANSI_A_(11.00_x_8.50_Inches)
  6

 40
6.35
 41
19.05
 42
6.35000508
 43
19.05000254
 44
279.4
 45
215.9
 46
-3.2637991999
 47
124.8948728317
 48
0.0
 49
0.0
140
0.0
141
0.0
142
0.0087007213
143
1.0
 70
  1696
 72
     0
 73
     0
 74
     0
  7

 75
     0
147
0.0179189148
148
-1300.4909072572
149
0.0
100
AcDbLayout
  1
Model
 70
     1
 71
     0
 10
0.0
 20
0.0
 11
420.0
 21
297.0
 12
0.0
 22
0.0
 32
0.0
 14
-7.6435120638
 24
-354.7578821494
 34
0.0
 15
1243.9768510635
 25
29.0099418016
 35
0.0
146
0.0
 13
0.0
 23
0.0
 33
0.0
 16
1.0
 26
0.0
 36
0.0
 17
0.0
 27
1.0
 37
0.0
 76
     0
330
1F
331
29
  0
MLINESTYLE
  5
18
102
{ACAD_REACTORS
330
17
102
}
330
17
100
AcDbMlineStyle
  2
Standard
 70
     0
  3

 62
   256
 51
90.0
 52
90.0
 71
     2
 49
0.5
 62
   256
  6
BYLAYER
 49
-0.5
 62
   256
  6
BYLAYER
  0
ACDBPLACEHOLDER
  5
F
102
{ACAD_REACTORS
330
E
102
}
330
E
  0
SCALE
  5
48
102
{ACAD_REACTORS
330
47
102
}
330
47
100
AcDbScale
 70
     0
300
1:1
140
1.0
141
1.0
290
     1
  0
SCALE
  5
49
102
{ACAD_REACTORS
330
47
102
}
330
47
100
AcDbScale
 70
     0
300
1:2
140
1.0
141
2.0
290
     0
  0
SCALE
  5
4A
102
{ACAD_REACTORS
330
47
102
}
330
47
100
AcDbScale
 70
     0
300
1:4
140
1.0
141
4.0
290
     0
  0
SCALE
  5
4B
102
{ACAD_REACTORS
330
47
102
}
330
47
100
AcDbScale
 70
     0
300
1:5
140
1.0
141
5.0
290
     0
  0
SCALE
  5
4C
102
{ACAD_REACTORS
330
47
102
}
330
47
100
AcDbScale
 70
     0
300
1:8
140
1.0
141
8.0
290
     0
  0
SCALE
  5
4D
102
{ACAD_REACTORS
330
47
102
}
330
47
100
AcDbScale
 70
     0
300
1:10
140
1.0
141
10.0
290
     0
  0
SCALE
  5
4E
102
{ACAD_REACTORS
330
47
102
}
330
47
100
AcDbScale
 70
     0
300
1:16
140
1.0
141
16.0
290
     0
  0
SCALE
  5
4F
102
{ACAD_REACTORS
330
47
102
}
330
47
100
AcDbScale
 70
     0
300
1:20
140
1.0
141
20.0
290
     0
  0
SCALE
  5
50
102
{ACAD_REACTORS
330
47
102
}
330
47
100
AcDbScale
 70
     0
300
1:30
140
1.0
141
30.0
290
     0
  0
SCALE
  5
51
102
{ACAD_REACTORS
330
47
102
}
330
47
100
AcDbScale
 70
     0
300
1:40
140
1.0
141
40.0
290
     0
  0
SCALE
  5
52
102
{ACAD_REACTORS
330
47
102
}
330
47
100
AcDbScale
 70
     0
300
1:50
140
1.0
141
50.0
290
     0
  0
SCALE
  5
53
102
{ACAD_REACTORS
330
47
102
}
330
47
100
AcDbScale
 70
     0
300
1:100
140
1.0
141
100.0
290
     0
  0
SCALE
  5
54
102
{ACAD_REACTORS
330
47
102
}
330
47
100
AcDbScale
 70
     0
300
2:1
140
2.0
141
1.0
290
     0
  0
SCALE
  5
55
102
{ACAD_REACTORS
330
47
102
}
330
47
100
AcDbScale
 70
     0
300
4:1
140
4.0
141
1.0
290
     0
  0
SCALE
  5
56
102
{ACAD_REACTORS
330
47
102
}
330
47
100
AcDbScale
 70
     0
300
8:1
140
8.0
141
1.0
290
     0
  0
SCALE
  5
57
102
{ACAD_REACTORS
330
47
102
}
330
47
100
AcDbScale
 70
     0
300
10:1
140
10.0
141
1.0
290
     0
  0
SCALE
  5
58
102
{ACAD_REACTORS
330
47
102
}
330
47
100
AcDbScale
 70
     0
300
100:1
140
100.0
141
1.0
290
     0
  0
ENDSEC
  0
EOF
