  0
SECTION
  2
HEADER
  9
$ACADVER
  1
AC1015
  9
$ACADMAINTVER
 70
     6
  9
$DWGCODEPAGE
  3
ANSI_1252
  9
$INSBASE
 10
0.0
 20
0.0
 30
0.0
  9
$EXTMIN
 10
-1753.7209325092
 20
-36.0
 30
0.0
  9
$EXTMAX
 10
0.0
 20
970.0
 30
0.0
  9
$LIMMIN
 10
0.0
 20
0.0
  9
$LIMMAX
 10
420.0
 20
297.0
  9
$ORTHOMODE
 70
     0
  9
$REGENMODE
 70
     1
  9
$FILLMODE
 70
     1
  9
$QTEXTMODE
 70
     0
  9
$MIRRTEXT
 70
     1
  9
$LTSCALE
 40
1.0
  9
$ATTMODE
 70
     1
  9
$TEXTSIZE
 40
3.5
  9
$TRACEWID
 40
1.0
  9
$TEXTSTYLE
  7
Standard
  9
$CLAYER
  8
0
  9
$CELTYPE
  6
ByLayer
  9
$CECOLOR
 62
   256
  9
$CELTSCALE
 40
1.0
  9
$DISPSILH
 70
     0
  9
$DIMSCALE
 40
1.0
  9
$DIMASZ
 40
3.556
  9
$DIMEXO
 40
0.0
  9
$DIMDLI
 40
3.75
  9
$DIMRND
 40
0.0
  9
$DIMDLE
 40
0.0
  9
$DIMEXE
 40
1.0
  9
$DIMTP
 40
0.0
  9
$DIMTM
 40
0.0
  9
$DIMTXT
 40
3.5
  9
$DIMCEN
 40
2.5
  9
$DIMTSZ
 40
0.0
  9
$DIMTOL
 70
     0
  9
$DIMLIM
 70
     0
  9
$DIMTIH
 70
     1
  9
$DIMTOH
 70
     1
  9
$DIMSE1
 70
     0
  9
$DIMSE2
 70
     0
  9
$DIMTAD
 70
     1
  9
$DIMZIN
 70
     0
  9
$DIMBLK
  1

  9
$DIMASO
 70
     1
  9
$DIMSHO
 70
     1
  9
$DIMPOST
  1

  9
$DIMAPOST
  1

  9
$DIMALT
 70
     0
  9
$DIMALTD
 70
     3
  9
$DIMALTF
 40
0.0393700787
  9
$DIMLFAC
 40
1.0
  9
$DIMTOFL
 70
     1
  9
$DIMTVP
 40
0.0
  9
$DIMTIX
 70
     0
  9
$DIMSOXD
 70
     0
  9
$DIMSAH
 70
     0
  9
$DIMBLK1
  1

  9
$DIMBLK2
  1

  9
$DIMSTYLE
  2
ISO-25
  9
$DIMCLRD
 70
     0
  9
$DIMCLRE
 70
     0
  9
$DIMCLRT
 70
     0
  9
$DIMTFAC
 40
1.0
  9
$DIMGAP
 40
1.524
  9
$DIMJUST
 70
     0
  9
$DIMSD1
 70
     0
  9
$DIMSD2
 70
     0
  9
$DIMTOLJ
 70
     0
  9
$DIMTZIN
 70
     0
  9
$DIMALTZ
 70
     0
  9
$DIMALTTZ
 70
     0
  9
$DIMUPT
 70
     0
  9
$DIMDEC
 70
     2
  9
$DIMTDEC
 70
     2
  9
$DIMALTU
 70
     2
  9
$DIMALTTD
 70
     3
  9
$DIMTXSTY
  7
Standard
  9
$DIMAUNIT
 70
     0
  9
$DIMADEC
 70
     0
  9
$DIMALTRND
 40
0.0
  9
$DIMAZIN
 70
     0
  9
$DIMDSEP
 70
    44
  9
$DIMATFIT
 70
     3
  9
$DIMFRAC
 70
     0
  9
$DIMLDRBLK
  1

  9
$DIMLUNIT
 70
     2
  9
$DIMLWD
 70
    -2
  9
$DIMLWE
 70
    -2
  9
$DIMTMOVE
 70
     0
  9
$LUNITS
 70
     2
  9
$LUPREC
 70
     3
  9
$SKETCHINC
 40
1.0
  9
$FILLETRAD
 40
0.0
  9
$AUNITS
 70
     0
  9
$AUPREC
 70
     2
  9
$MENU
  1
.
  9
$ELEVATION
 40
0.0
  9
$PELEVATION
 40
0.0
  9
$THICKNESS
 40
0.0
  9
$LIMCHECK
 70
     0
  9
$CHAMFERA
 40
0.0
  9
$CHAMFERB
 40
0.0
  9
$CHAMFERC
 40
0.0
  9
$CHAMFERD
 40
0.0
  9
$SKPOLY
 70
     0
  9
$TDCREATE
 40
2460137.490094201
  9
$TDUCREATE
 40
2460137.406760868
  9
$TDUPDATE
 40
2460137.490119248
  9
$TDUUPDATE
 40
2460137.406785914
  9
$TDINDWG
 40
0.0000000116
  9
$TDUSRTIMER
 40
0.0000000116
  9
$USRTIMER
 70
     1
  9
$ANGBASE
 50
0.0
  9
$ANGDIR
 70
     0
  9
$PDMODE
 70
     0
  9
$PDSIZE
 40
-1.0
  9
$PLINEWID
 40
0.0
  9
$SPLFRAME
 70
     0
  9
$SPLINETYPE
 70
     6
  9
$SPLINESEGS
 70
     8
  9
$HANDSEED
  5
A6
  9
$SURFTAB1
 70
     6
  9
$SURFTAB2
 70
     6
  9
$SURFTYPE
 70
     6
  9
$SURFU
 70
     6
  9
$SURFV
 70
     6
  9
$UCSBASE
  2

  9
$UCSNAME
  2

  9
$UCSORG
 10
0.0
 20
0.0
 30
0.0
  9
$UCSXDIR
 10
1.0
 20
0.0
 30
0.0
  9
$UCSYDIR
 10
0.0
 20
1.0
 30
0.0
  9
$UCSORTHOREF
  2

  9
$UCSORTHOVIEW
 70
     0
  9
$UCSORGTOP
 10
0.0
 20
0.0
 30
0.0
  9
$UCSORGBOTTOM
 10
0.0
 20
0.0
 30
0.0
  9
$UCSORGLEFT
 10
0.0
 20
0.0
 30
0.0
  9
$UCSORGRIGHT
 10
0.0
 20
0.0
 30
0.0
  9
$UCSORGFRONT
 10
0.0
 20
0.0
 30
0.0
  9
$UCSORGBACK
 10
0.0
 20
0.0
 30
0.0
  9
$PUCSBASE
  2

  9
$PUCSNAME
  2

  9
$PUCSORG
 10
0.0
 20
0.0
 30
0.0
  9
$PUCSXDIR
 10
1.0
 20
0.0
 30
0.0
  9
$PUCSYDIR
 10
0.0
 20
1.0
 30
0.0
  9
$PUCSORTHOREF
  2

  9
$PUCSORTHOVIEW
 70
     0
  9
$PUCSORGTOP
 10
0.0
 20
0.0
 30
0.0
  9
$PUCSORGBOTTOM
 10
0.0
 20
0.0
 30
0.0
  9
$PUCSORGLEFT
 10
0.0
 20
0.0
 30
0.0
  9
$PUCSORGRIGHT
 10
0.0
 20
0.0
 30
0.0
  9
$PUCSORGFRONT
 10
0.0
 20
0.0
 30
0.0
  9
$PUCSORGBACK
 10
0.0
 20
0.0
 30
0.0
  9
$USERI1
 70
     0
  9
$USERI2
 70
     0
  9
$USERI3
 70
     0
  9
$USERI4
 70
     0
  9
$USERI5
 70
     0
  9
$USERR1
 40
0.0
  9
$USERR2
 40
0.0
  9
$USERR3
 40
0.0
  9
$USERR4
 40
0.0
  9
$USERR5
 40
0.0
  9
$WORLDVIEW
 70
     1
  9
$SHADEDGE
 70
     3
  9
$SHADEDIF
 70
    70
  9
$TILEMODE
 70
     1
  9
$MAXACTVP
 70
    64
  9
$PINSBASE
 10
0.0
 20
0.0
 30
0.0
  9
$PLIMCHECK
 70
     0
  9
$PEXTMIN
 10
1.0000000000E+20
 20
1.0000000000E+20
 30
1.0000000000E+20
  9
$PEXTMAX
 10
-1.0000000000E+20
 20
-1.0000000000E+20
 30
-1.0000000000E+20
  9
$PLIMMIN
 10
0.0
 20
0.0
  9
$PLIMMAX
 10
420.0
 20
297.0
  9
$UNITMODE
 70
     0
  9
$VISRETAIN
 70
     1
  9
$PLINEGEN
 70
     0
  9
$PSLTSCALE
 70
     1
  9
$TREEDEPTH
 70
  3020
  9
$CMLSTYLE
  2
Standard
  9
$CMLJUST
 70
     0
  9
$CMLSCALE
 40
20.0
  9
$PROXYGRAPHICS
 70
     1
  9
$MEASUREMENT
 70
     1
  9
$CELWEIGHT
370
    -1
  9
$ENDCAPS
280
     0
  9
$JOINSTYLE
280
     0
  9
$LWDISPLAY
290
     1
  9
$INSUNITS
 70
     4
  9
$HYPERLINKBASE
  1

  9
$STYLESHEET
  1

  9
$XEDIT
290
     1
  9
$CEPSNTYPE
380
     0
  9
$PSTYLEMODE
290
     1
  9
$FINGERPRINTGUID
  2
{413cc0f7-7624-4841-b3ca-c8d5bf34a5c7}
  9
$VERSIONGUID
  2
{FAEB1C32-E019-11D5-929B-00C0DF256EC4}
  9
$EXTNAMES
290
     1
  9
$PSVPSCALE
 40
0.0
  9
$OLESTARTUP
290
     0
  0
ENDSEC
  0
SECTION
  2
CLASSES
  0
CLASS
  1
ACDBDICTIONARYWDFLT
  2
AcDbDictionaryWithDefault
  3
ObjectDBX Classes
 90
        0
280
     0
281
     0
  0
CLASS
  1
VISUALSTYLE
  2
AcDbVisualStyle
  3
ObjectDBX Classes
 90
     4095
280
     0
281
     0
  0
CLASS
  1
MATERIAL
  2
AcDbMaterial
  3
ObjectDBX Classes
 90
     1153
280
     0
281
     0
  0
CLASS
  1
SCALE
  2
AcDbScale
  3
ObjectDBX Classes
 90
     1153
280
     0
281
     0
  0
CLASS
  1
TABLESTYLE
  2
AcDbTableStyle
  3
ObjectDBX Classes
 90
     4095
280
     0
281
     0
  0
CLASS
  1
MLEADERSTYLE
  2
AcDbMLeaderStyle
  3
ACDB_MLEADERSTYLE_CLASS
 90
     4095
280
     0
281
     0
  0
CLASS
  1
SUN
  2
AcDbSun
  3
SCENEOE
 90
     1153
280
     0
281
     0
  0
CLASS
  1
ACDBPLACEHOLDER
  2
AcDbPlaceHolder
  3
ObjectDBX Classes
 90
        0
280
     0
281
     0
  0
CLASS
  1
LAYOUT
  2
AcDbLayout
  3
ObjectDBX Classes
 90
        0
280
     0
281
     0
  0
ENDSEC
  0
SECTION
  2
TABLES
  0
TABLE
  2
VPORT
  5
8
330
0
100
AcDbSymbolTable
 70
     1
  0
VPORT
  5
29
330
8
100
AcDbSymbolTableRecord
100
AcDbViewportTableRecord
  2
*Active
 70
     0
 10
0.0
 20
0.0
 11
1.0
 21
1.0
 12
-876.8604662546
 22
467.0
 13
0.0
 23
0.0
 14
10.0
 24
10.0
 15
10.0
 25
10.0
 16
0.0
 26
0.0
 36
1.0
 17
0.0
 27
0.0
 37
0.0
 40
1026.12
 41
1.7432613643
 42
50.0
 43
0.0
 44
0.0
 50
0.0
 51
0.0
 71
     0
 72
   100
 73
     1
 74
     3
 75
     0
 76
     0
 77
     0
 78
     0
281
     0
 65
     1
110
0.0
120
0.0
130
0.0
111
1.0
121
0.0
131
0.0
112
0.0
122
1.0
132
0.0
 79
     0
146
0.0
  0
ENDTAB
  0
TABLE
  2
LTYPE
  5
5
330
0
100
AcDbSymbolTable
 70
     6
  0
LTYPE
  5
14
330
5
100
AcDbSymbolTableRecord
100
AcDbLinetypeTableRecord
  2
ByBlock
 70
     0
  3

 72
    65
 73
     0
 40
0.0
  0
LTYPE
  5
15
330
5
100
AcDbSymbolTableRecord
100
AcDbLinetypeTableRecord
  2
ByLayer
 70
     0
  3

 72
    65
 73
     0
 40
0.0
  0
LTYPE
  5
16
330
5
100
AcDbSymbolTableRecord
100
AcDbLinetypeTableRecord
  2
Continuous
 70
     0
  3
Solid line
 72
    65
 73
     0
 40
0.0
  0
LTYPE
  5
5E
330
5
100
AcDbSymbolTableRecord
100
AcDbLinetypeTableRecord
  2
HIDDEN
 70
     0
  3
Hidden __ __ __ __ __ __ __ __ __ __ __ __ __ __
 72
    65
 73
     2
 40
1.905
 49
1.27
 74
     0
 49
-0.635
 74
     0
  0
LTYPE
  5
5F
330
5
100
AcDbSymbolTableRecord
100
AcDbLinetypeTableRecord
  2
PHANTOM
 70
     0
  3
Phantom ______  __  __  ______  __  __  ______
 72
    65
 73
     6
 40
12.7
 49
6.35
 74
     0
 49
-1.27
 74
     0
 49
1.27
 74
     0
 49
-1.27
 74
     0
 49
1.27
 74
     0
 49
-1.27
 74
     0
  0
LTYPE
  5
60
330
5
100
AcDbSymbolTableRecord
100
AcDbLinetypeTableRecord
  2
CENTER
 70
     0
  3
Center ____ _ ____ _ ____ _ ____ _ ____ _ ____
 72
    65
 73
     4
 40
10.16
 49
6.35
 74
     0
 49
-1.27
 74
     0
 49
1.27
 74
     0
 49
-1.27
 74
     0
  0
LTYPE
  5
61
330
5
100
AcDbSymbolTableRecord
100
AcDbLinetypeTableRecord
  2
CENTERX2
 70
     0
  3
Center (2x) ________  __  ________  __  _____
 72
    65
 73
     4
 40
20.32
 49
12.7
 74
     0
 49
-2.54
 74
     0
 49
2.54
 74
     0
 49
-2.54
 74
     0
  0
LTYPE
  5
62
330
5
100
AcDbSymbolTableRecord
100
AcDbLinetypeTableRecord
  2
DOT2
 70
     0
  3
Dot (.5x) ........................................
 72
    65
 73
     2
 40
0.635
 49
0.0
 74
     0
 49
-0.635
 74
     0
  0
ENDTAB
  0
TABLE
  2
LAYER
  5
2
330
0
100
AcDbSymbolTable
 70
     1
  0
LAYER
  5
10
330
2
100
AcDbSymbolTableRecord
100
AcDbLayerTableRecord
  2
0
 70
     0
 62
     7
  6
Continuous
370
    -3
390
F
  0
ENDTAB
  0
TABLE
  2
STYLE
  5
3
330
0
100
AcDbSymbolTable
 70
     1
  0
STYLE
  5
11
330
3
100
AcDbSymbolTableRecord
100
AcDbTextStyleTableRecord
  2
Standard
 70
     0
 40
0.0
 41
1.0
 50
0.0
 71
     0
 42
3.5
  3
txt
  4

  0
ENDTAB
  0
TABLE
  2
VIEW
  5
6
330
0
100
AcDbSymbolTable
 70
     0
  0
ENDTAB
  0
TABLE
  2
UCS
  5
7
330
0
100
AcDbSymbolTable
 70
     0
  0
ENDTAB
  0
TABLE
  2
APPID
  5
9
330
0
100
AcDbSymbolTable
 70
     1
  0
APPID
  5
12
330
9
100
AcDbSymbolTableRecord
100
AcDbRegAppTableRecord
  2
ACAD
 70
     0
  0
ENDTAB
  0
TABLE
  2
DIMSTYLE
  5
A
330
0
100
AcDbSymbolTable
 70
     1
100
AcDbDimStyleTable
  0
DIMSTYLE
105
27
330
A
100
AcDbSymbolTableRecord
100
AcDbDimStyleTableRecord
  2
ISO-25
 70
     0
 41
2.5
 42
0.625
 43
3.75
 44
1.25
 73
     0
 74
     0
 77
     1
 78
     8
140
2.5
141
2.5
143
0.0393700787
147
0.625
171
     3
172
     1
178
     0
271
     2
272
     2
274
     3
278
    44
283
     0
284
     8
340
11
  0
ENDTAB
  0
TABLE
  2
BLOCK_RECORD
  5
1
330
0
100
AcDbSymbolTable
 70
     1
  0
BLOCK_RECORD
  5
1F
330
1
100
AcDbSymbolTableRecord
100
AcDbBlockTableRecord
  2
*Model_Space
340
22
  0
BLOCK_RECORD
  5
1B
330
1
100
AcDbSymbolTableRecord
100
AcDbBlockTableRecord
  2
*Paper_Space
340
1E
  0
BLOCK_RECORD
  5
23
330
1
100
AcDbSymbolTableRecord
100
AcDbBlockTableRecord
  2
*Paper_Space0
340
26
  0
ENDTAB
  0
ENDSEC
  0
SECTION
  2
BLOCKS
  0
BLOCK
  5
20
330
1F
100
AcDbEntity
  8
0
100
AcDbBlockBegin
  2
*Model_Space
 70
     0
 10
0.0
 20
0.0
 30
0.0
  3
*Model_Space
  1

  0
ENDBLK
  5
21
330
1F
100
AcDbEntity
  8
0
100
AcDbBlockEnd
  0
BLOCK
  5
1C
330
1B
100
AcDbEntity
 67
     1
  8
0
100
AcDbBlockBegin
  2
*Paper_Space
 70
     0
 10
0.0
 20
0.0
 30
0.0
  3
*Paper_Space
  1

  0
ENDBLK
  5
1D
330
1B
100
AcDbEntity
 67
     1
  8
0
100
AcDbBlockEnd
  0
BLOCK
  5
24
330
23
100
AcDbEntity
  8
0
100
AcDbBlockBegin
  2
*Paper_Space0
 70
     0
 10
0.0
 20
0.0
 30
0.0
  3
*Paper_Space0
  1

  0
ENDBLK
  5
25
330
23
100
AcDbEntity
  8
0
100
AcDbBlockEnd
  0
ENDSEC
  0
SECTION
  2
ENTITIES
  0
SPLINE
  5
63
330
1F
100
AcDbEntity
  8
0
  6
Continuous
 62
     7
370
    25
100
AcDbSpline
210
0.0
220
0.0
230
1.0
 70
    11
 71
     3
 72
    22
 73
    18
 74
     0
 42
0.00000001
 43
0.00000001
 40
0.0
 40
0.0
 40
0.0
 40
0.0
 40
0.125
 40
0.125
 40
0.25
 40
0.25
 40
0.375
 40
0.375
 40
0.5
 40
0.5
 40
0.625
 40
0.625
 40
0.75
 40
0.75
 40
0.875
 40
0.875
 40
1.0
 40
1.0
 40
1.0
 40
1.0
 10
-673.727315600274
 20
930.0000000000025
 30
0.0
 10
-673.7273130733583
 20
929.4434006704242
 30
0.0
 10
-673.5048904223659
 20
928.9079849498098
 30
0.0
 10
-672.7184306870049
 20
928.121660365582
 30
0.0
 10
-672.1821737062628
 20
927.900176367583
 30
0.0
 10
-671.0699053800752
 20
927.8998236086989
 30
0.0
 10
-670.5340520844396
 20
928.1219052783298
 30
0.0
 10
-669.746797733747
 20
928.9078266254902
 30
0.0
 10
-669.5248928788477
 20
929.4438957342978
 30
0.0
 10
-669.5244975936265
 20
930.5561127872417
 30
0.0
 10
-669.7471785218105
 20
931.0919977794447
 30
0.0
 10
-670.53368288054
 20
931.8782817940768
 30
0.0
 10
-671.0699046459374
 20
932.0997827264467
 30
0.0
 10
-672.1821936987482
 20
932.1002173941853
 30
0.0
 10
-672.7180717334703
 20
931.8781402526373
 30
0.0
 10
-673.5052616083964
 20
931.0922021949104
 30
0.0
 10
-673.7273181271898
 20
930.5565993295808
 30
0.0
 10
-673.727315600274
 20
930.0000000000025
 30
0.0
  0
SPLINE
  5
64
330
1F
100
AcDbEntity
  8
0
  6
Continuous
 62
     7
370
    25
100
AcDbSpline
210
0.0
220
0.0
230
1.0
 70
    11
 71
     3
 72
    22
 73
    18
 74
     0
 42
0.00000001
 43
0.00000001
 40
0.0
 40
0.0
 40
0.0
 40
0.0
 40
0.125
 40
0.125
 40
0.25
 40
0.25
 40
0.375
 40
0.375
 40
0.5
 40
0.5
 40
0.625
 40
0.625
 40
0.75
 40
0.75
 40
0.875
 40
0.875
 40
1.0
 40
1.0
 40
1.0
 40
1.0
 10
-892.7076681956222
 20
455.0000000000032
 30
0.0
 10
-892.7076656687033
 20
454.443400670336
 30
0.0
 10
-892.4852430176408
 20
453.9079849498052
 30
0.0
 10
-891.6987832824268
 20
453.1216603655882
 30
0.0
 10
-891.1625263015659
 20
452.9001763675427
 30
0.0
 10
-890.0502579754686
 20
452.899823608741
 30
0.0
 10
-889.5144046801839
 20
453.1219052778741
 30
0.0
 10
-888.7271503287002
 20
453.9078266259477
 30
0.0
 10
-888.5052454742053
 20
454.44389573411
 30
0.0
 10
-888.504850188966
 20
455.5561127874315
 30
0.0
 10
-888.7275311169315
 20
456.0919977793246
 30
0.0
 10
-889.5140354761171
 20
456.8782817941977
 30
0.0
 10
-890.0502572413667
 20
457.0997827264476
 30
0.0
 10
-891.162546294016
 20
457.100217394186
 30
0.0
 10
-891.6984243286989
 20
456.878140252808
 30
0.0
 10
-892.4856142038649
 20
456.0922021947413
 30
0.0
 10
-892.7076707225411
 20
455.5565993296705
 30
0.0
 10
-892.7076681956222
 20
455.0000000000032
 30
0.0
  0
SPLINE
  5
65
330
1F
100
AcDbEntity
  8
0
  6
Continuous
 62
     7
370
    25
100
AcDbSpline
210
0.0
220
0.0
230
1.0
 70
    11
 71
     3
 72
    22
 73
    18
 74
     0
 42
0.00000001
 43
0.00000001
 40
0.0
 40
0.0
 40
0.0
 40
0.0
 40
0.125
 40
0.125
 40
0.25
 40
0.25
 40
0.375
 40
0.375
 40
0.5
 40
0.5
 40
0.625
 40
0.625
 40
0.75
 40
0.75
 40
0.875
 40
0.875
 40
1.0
 40
1.0
 40
1.0
 40
1.0
 10
-1111.688020790974
 20
-19.99999999999578
 30
0.0
 10
-1111.688018264056
 20
-20.55659932947596
 30
0.0
 10
-1111.465595612997
 20
-21.09201505015496
 30
0.0
 10
-1110.679135877774
 20
-21.87833963444997
 30
0.0
 10
-1110.142878897045
 20
-22.0998236324358
 30
0.0
 10
-1109.030610570694
 20
-22.10017639127899
 30
0.0
 10
-1108.494757275449
 20
-21.87809472192554
 30
0.0
 10
-1107.707502924138
 20
-21.09217337425091
 30
0.0
 10
-1107.48559806964
 20
-20.55610426569294
 30
0.0
 10
-1107.485202784234
 20
-19.44388721276381
 30
0.0
 10
-1107.70788371248
 20
-18.90800222058454
 30
0.0
 10
-1108.494388071271
 20
-18.12171820589126
 30
0.0
 10
-1109.030609836529
 20
-17.90021727353092
 30
0.0
 10
-1110.142898889556
 20
-17.8997826058337
 30
0.0
 10
-1110.678776923987
 20
-18.12185974723879
 30
0.0
 10
-1111.465966799281
 20
-18.90779780520969
 30
0.0
 10
-1111.688023317893
 20
-19.44340067051559
 30
0.0
 10
-1111.688020790974
 20
-19.99999999999578
 30
0.0
  0
SPLINE
  5
66
330
1F
100
AcDbEntity
  8
0
  6
Continuous
 62
     7
370
    25
100
AcDbSpline
210
0.0
220
0.0
230
1.0
 70
    11
 71
     3
 72
    22
 73
    18
 74
     0
 42
0.00000001
 43
0.00000001
 40
0.0
 40
0.0
 40
0.0
 40
0.0
 40
0.125
 40
0.125
 40
0.25
 40
0.25
 40
0.375
 40
0.375
 40
0.5
 40
0.5
 40
0.625
 40
0.625
 40
0.75
 40
0.75
 40
0.875
 40
0.875
 40
1.0
 40
1.0
 40
1.0
 40
1.0
 10
-16.78625781423438
 20
265.0000000000016
 30
0.0
 10
-16.78625528731859
 20
264.4434006703528
 30
0.0
 10
-16.5638326363684
 20
263.9079849498719
 30
0.0
 10
-15.77737290092229
 20
263.121660365518
 30
0.0
 10
-15.24111592028393
 20
262.9001763675411
 30
0.0
 10
-14.12884759397437
 20
262.8998236087392
 30
0.0
 10
-13.59299429859107
 20
263.121905278159
 30
0.0
 10
-12.80573994751677
 20
263.9078266256593
 30
0.0
 10
-12.583835092839
 20
264.4438957342807
 30
0.0
 10
-12.58343980755594
 20
265.5561127872576
 30
0.0
 10
-12.80612073550191
 20
266.0919977793186
 30
0.0
 10
-13.59262509476994
 20
266.8782817942005
 30
0.0
 10
-14.12884685978988
 20
267.0997827264459
 30
0.0
 10
-15.24113591281728
 20
267.1002173941842
 30
0.0
 10
-15.77701394732117
 20
266.8781402527765
 30
0.0
 10
-16.56420382246637
 20
266.0922021947692
 30
0.0
 10
-16.78626034115027
 20
265.5565993296503
 30
0.0
 10
-16.78625781423438
 20
265.0000000000016
 30
0.0
  0
SPLINE
  5
67
330
1F
100
AcDbEntity
  8
0
  6
Continuous
 62
     7
370
    25
100
AcDbSpline
210
0.0
220
0.0
230
1.0
 70
    11
 71
     3
 72
    38
 73
    34
 74
     0
 42
0.00000001
 43
0.00000001
 40
0.0
 40
0.0
 40
0.0
 40
0.0
 40
0.0625
 40
0.0625
 40
0.125
 40
0.125
 40
0.1875
 40
0.1875
 40
0.25
 40
0.25
 40
0.3125
 40
0.3125
 40
0.375
 40
0.375
 40
0.4375
 40
0.4375
 40
0.5
 40
0.5
 40
0.5625
 40
0.5625
 40
0.625
 40
0.625
 40
0.6875
 40
0.6875
 40
0.75
 40
0.75
 40
0.8125
 40
0.8125
 40
0.875
 40
0.875
 40
0.9375
 40
0.9375
 40
1.0
 40
1.0
 40
1.0
 40
1.0
 10
-373.1821873785746
 20
63.99999999999835
 30
0.0
 10
-373.1821878159361
 20
62.34213493805181
 30
0.0
 10
-372.8652039235459
 20
60.74819343863509
 30
0.0
 10
-371.5957915860168
 20
57.68459564636159
 30
0.0
 10
-370.6931531979224
 20
56.33353344162585
 30
0.0
 10
-368.3479285166949
 20
53.98879980357287
 30
0.0
 10
-366.9970769418111
 20
53.08598824971368
 30
0.0
 10
-363.9331063193745
 20
51.81707821937998
 30
0.0
 10
-362.339561554772
 20
51.49990041985298
 30
0.0
 10
-359.0233270854064
 20
51.50009961404063
 30
0.0
 10
-357.4296626648052
 20
51.81690986990125
 30
0.0
 10
-354.3659246733165
 20
53.0861535025491
 30
0.0
 10
-353.01484166309
 20
53.98863047175163
 30
0.0
 10
-350.6698455519077
 20
56.33369690969687
 30
0.0
 10
-349.7669452535654
 20
57.6844274068305
 30
0.0
 10
-348.4978255215269
 20
60.74835385995831
 30
0.0
 10
-348.1805950454568
 20
62.34189149426662
 30
0.0
 10
-348.1807932311789
 20
65.65810533035395
 30
0.0
 10
-348.4976777906381
 20
67.25180763383777
 30
0.0
 10
-349.7670906289248
 20
70.31540546875449
 30
0.0
 10
-350.6697275337854
 20
71.66646597787435
 30
0.0
 10
-353.0149536666549
 20
74.0112006738175
 30
0.0
 10
-354.3658037215941
 20
74.91401160488343
 30
0.0
 10
-357.4297751568602
 20
76.18292154101758
 30
0.0
 10
-359.0233235083091
 20
76.500099406443
 30
0.0
 10
-362.3395544134182
 20
76.49990057172663
 30
0.0
 10
-363.9332204511662
 20
76.18308940109165
 30
0.0
 10
-366.996956952425
 20
74.9138465238859
 30
0.0
 10
-368.3480408840245
 20
74.01136846620983
 30
0.0
 10
-370.6930362540901
 20
71.66630283606813
 30
0.0
 10
-371.5960365161552
 20
70.31533069304831
 30
0.0
 10
-372.8649566814199
 20
67.25188576948028
 30
0.0
 10
-373.182186941213
 20
65.65786506194489
 30
0.0
 10
-373.1821873785746
 20
63.99999999999835
 30
0.0
  0
SPLINE
  5
68
330
1F
100
AcDbEntity
  8
0
  6
Continuous
 62
     7
370
    25
100
AcDbSpline
210
0.0
220
0.0
230
1.0
 70
    11
 71
     3
 72
    22
 73
    18
 74
     0
 42
0.00000001
 43
0.00000001
 40
0.0
 40
0.0
 40
0.0
 40
0.0
 40
0.125
 40
0.125
 40
0.25
 40
0.25
 40
0.375
 40
0.375
 40
0.5
 40
0.5
 40
0.625
 40
0.625
 40
0.75
 40
0.75
 40
0.875
 40
0.875
 40
1.0
 40
1.0
 40
1.0
 40
1.0
 10
-16.78625781423432
 20
645.0000000000018
 30
0.0
 10
-16.78625528731731
 20
644.4434006704697
 30
0.0
 10
-16.5638326365089
 20
643.9079849499713
 30
0.0
 10
-15.77737290078179
 20
643.1216603654185
 30
0.0
 10
-15.24111592004296
 20
642.900176367582
 30
0.0
 10
-14.12884759421534
 20
642.899823608698
 30
0.0
 10
-13.59299429848826
 20
643.1219052783231
 30
0.0
 10
-12.80573994761919
 20
643.9078266254949
 30
0.0
 10
-12.58383509288002
 20
644.4438957342805
 30
0.0
 10
-12.58343980751459
 20
645.5561127872577
 30
0.0
 10
-12.80612073556614
 20
646.0919977793625
 30
0.0
 10
-13.59262509470527
 20
646.8782817941567
 30
0.0
 10
-14.12884685997956
 20
647.0997827264872
 30
0.0
 10
-15.24113591262632
 20
647.100217394143
 30
0.0
 10
-15.77701394733572
 20
646.8781402527414
 30
0.0
 10
-16.56420382245138
 20
646.0922021948048
 30
0.0
 10
-16.78626034115133
 20
645.5565993295339
 30
0.0
 10
-16.78625781423432
 20
645.0000000000018
 30
0.0
  0
SPLINE
  5
69
330
1F
100
AcDbEntity
  8
0
  6
Continuous
 62
     7
370
    25
100
AcDbSpline
210
0.0
220
0.0
230
1.0
 70
    11
 71
     3
 72
    22
 73
    18
 74
     0
 42
0.00000001
 43
0.00000001
 40
0.0
 40
0.0
 40
0.0
 40
0.0
 40
0.125
 40
0.125
 40
0.25
 40
0.25
 40
0.375
 40
0.375
 40
0.5
 40
0.5
 40
0.625
 40
0.625
 40
0.75
 40
0.75
 40
0.875
 40
0.875
 40
1.0
 40
1.0
 40
1.0
 40
1.0
 10
-16.78625781423438
 20
-19.99999999999851
 30
0.0
 10
-16.78625528731792
 20
-20.55659932955006
 30
0.0
 10
-16.56383263640993
 20
-21.09201505012814
 30
0.0
 10
-15.77737290088144
 20
-21.8783396344821
 30
0.0
 10
-15.24111592028399
 20
-22.09982363245921
 30
0.0
 10
-14.1288475939747
 20
-22.10017639126105
 30
0.0
 10
-13.59299429860533
 20
-21.87809472187596
 30
0.0
 10
-12.80573994750261
 20
-21.09217337430602
 30
0.0
 10
-12.5838350927982
 20
-20.55610426571963
 30
0.0
 10
-12.58343980759763
 20
-19.4438872127426
 30
0.0
 10
-12.80612073546689
 20
-18.90800222071687
 30
0.0
 10
-13.59262509480535
 20
-18.12171820576425
 30
0.0
 10
-14.12884685988042
 20
-17.90021727353363
 30
0.0
 10
-15.24113591272641
 20
-17.89978260583641
 30
0.0
 10
-15.77701394740677
 20
-18.12185974734981
 30
0.0
 10
-16.56420382238116
 20
-18.9077978051041
 30
0.0
 10
-16.78626034115077
 20
-19.44340067044697
 30
0.0
 10
-16.78625781423438
 20
-19.99999999999851
 30
0.0
  0
SPLINE
  5
6A
330
1F
100
AcDbEntity
  8
0
  6
Continuous
 62
     7
370
    25
100
AcDbSpline
210
0.0
220
0.0
230
1.0
 70
    11
 71
     3
 72
    22
 73
    18
 74
     0
 42
0.00000001
 43
0.00000001
 40
0.0
 40
0.0
 40
0.0
 40
0.0
 40
0.125
 40
0.125
 40
0.25
 40
0.25
 40
0.375
 40
0.375
 40
0.5
 40
0.5
 40
0.625
 40
0.625
 40
0.75
 40
0.75
 40
0.875
 40
0.875
 40
1.0
 40
1.0
 40
1.0
 40
1.0
 10
-1549.648725981666
 20
455.0000000000066
 30
0.0
 10
-1549.648723454744
 20
454.443400670224
 30
0.0
 10
-1549.426300803618
 20
453.9079849497979
 30
0.0
 10
-1548.639841068536
 20
453.1216603656021
 30
0.0
 10
-1548.103584087633
 20
452.9001763675667
 30
0.0
 10
-1546.991315761489
 20
452.8998236087236
 30
0.0
 10
-1546.455462465866
 20
453.1219052784446
 30
0.0
 10
-1545.668208115105
 20
453.9078266253843
 30
0.0
 10
-1545.44630326027
 20
454.4438957342842
 30
0.0
 10
-1545.445907974988
 20
455.5561127872641
 30
0.0
 10
-1545.668588903145
 20
456.0919977794322
 30
0.0
 10
-1546.455093261989
 20
456.8782817940971
 30
0.0
 10
-1546.991315027352
 20
457.0997827264713
 30
0.0
 10
-1548.103604080117
 20
457.1002173941686
 30
0.0
 10
-1548.639482114713
 20
456.8781402527806
 30
0.0
 10
-1549.426671989938
 20
456.0922021947758
 30
0.0
 10
-1549.648728508587
 20
455.5565993297893
 30
0.0
 10
-1549.648725981666
 20
455.0000000000066
 30
0.0
  0
SPLINE
  5
6B
330
1F
100
AcDbEntity
  8
0
  6
Continuous
 62
     7
370
    25
100
AcDbSpline
210
0.0
220
0.0
230
1.0
 70
    11
 71
     3
 72
    22
 73
    18
 74
     0
 42
0.00000001
 43
0.00000001
 40
0.0
 40
0.0
 40
0.0
 40
0.0
 40
0.125
 40
0.125
 40
0.25
 40
0.25
 40
0.375
 40
0.375
 40
0.5
 40
0.5
 40
0.625
 40
0.625
 40
0.75
 40
0.75
 40
0.875
 40
0.875
 40
1.0
 40
1.0
 40
1.0
 40
1.0
 10
-1330.668373386317
 20
930.0000000000057
 30
0.0
 10
-1330.668370859401
 20
929.4434006702872
 30
0.0
 10
-1330.445948208395
 20
928.9079849497793
 30
0.0
 10
-1329.65948847306
 20
928.121660365618
 30
0.0
 10
-1329.123231492226
 20
927.9001763675857
 30
0.0
 10
-1328.010963166197
 20
927.8998236087016
 30
0.0
 10
-1327.475109870791
 20
928.1219052779223
 30
0.0
 10
-1326.687855519482
 20
928.9078266259032
 30
0.0
 10
-1326.465950664921
 20
929.4438957345922
 30
0.0
 10
-1326.465555379638
 20
930.5561127869533
 30
0.0
 10
-1326.688236307698
 20
931.091997779436
 30
0.0
 10
-1327.474740666738
 20
931.8782817940903
 30
0.0
 10
-1328.010962431942
 20
932.099782726491
 30
0.0
 10
-1329.123251484828
 20
932.1002173941471
 30
0.0
 10
-1329.659129519647
 20
931.8781402524753
 30
0.0
 10
-1330.446319394305
 20
931.0922021950788
 30
0.0
 10
-1330.668375913233
 20
930.5565993297241
 30
0.0
 10
-1330.668373386317
 20
930.0000000000057
 30
0.0
  0
LINE
  5
6C
330
1F
100
AcDbEntity
  8
0
  6
Continuous
 62
     7
370
    25
100
AcDbLine
 10
-1724.712624077
 20
-33.0
 30
0.0
 11
-1725.7130168367
 21
-33.0
 31
0.0
  0
LINE
  5
6D
330
1F
100
AcDbEntity
  8
0
  6
Continuous
 62
     7
370
    25
100
AcDbLine
 10
-1724.712624077
 20
-33.5
 30
0.0
 11
-1724.712624077
 21
-33.0
 31
0.0
  0
LINE
  5
6E
330
1F
100
AcDbEntity
  8
0
  6
Continuous
 62
     7
370
    25
100
AcDbLine
 10
-1725.7130168367
 20
-33.5
 30
0.0
 11
-1724.712624077
 21
-33.5
 31
0.0
  0
LINE
  5
6F
330
1F
100
AcDbEntity
  8
0
  6
Continuous
 62
     7
370
    25
100
AcDbLine
 10
-1725.7130168367
 20
-33.0
 30
0.0
 11
-1725.7130168367
 21
-33.5
 31
0.0
  0
LINE
  5
70
330
1F
100
AcDbEntity
  8
0
  6
Continuous
 62
     7
370
    25
100
AcDbLine
 10
-378.6836705429
 20
-33.5
 30
0.0
 11
-378.6836705429
 21
-33.0
 31
0.0
  0
LINE
  5
71
330
1F
100
AcDbEntity
  8
0
  6
Continuous
 62
     7
370
    25
100
AcDbLine
 10
-379.6840633026
 20
-33.5
 30
0.0
 11
-378.6836705429
 21
-33.5
 31
0.0
  0
LINE
  5
72
330
1F
100
AcDbEntity
  8
0
  6
Continuous
 62
     7
370
    25
100
AcDbLine
 10
-379.6840633026
 20
-33.0
 30
0.0
 11
-379.6840633026
 21
-33.5
 31
0.0
  0
LINE
  5
73
330
1F
100
AcDbEntity
  8
0
  6
Continuous
 62
     7
370
    25
100
AcDbLine
 10
-378.6836705429
 20
-33.0
 30
0.0
 11
-379.6840633026
 21
-33.0
 31
0.0
  0
LINE
  5
74
330
1F
100
AcDbEntity
  8
0
  6
Continuous
 62
     7
370
    25
100
AcDbLine
 10
-1070.2005734756
 20
-33.5
 30
0.0
 11
-1070.2005734756
 21
-33.0
 31
0.0
  0
LINE
  5
75
330
1F
100
AcDbEntity
  8
0
  6
Continuous
 62
     7
370
    25
100
AcDbLine
 10
-1071.2009662353
 20
-33.5
 30
0.0
 11
-1070.2005734756
 21
-33.5
 31
0.0
  0
LINE
  5
76
330
1F
100
AcDbEntity
  8
0
  6
Continuous
 62
     7
370
    25
100
AcDbLine
 10
-1071.2009662353
 20
-33.0
 30
0.0
 11
-1071.2009662353
 21
-33.5
 31
0.0
  0
LINE
  5
77
330
1F
100
AcDbEntity
  8
0
  6
Continuous
 62
     7
370
    25
100
AcDbLine
 10
-1070.2005734756
 20
-33.0
 30
0.0
 11
-1071.2009662353
 21
-33.0
 31
0.0
  0
LINE
  5
78
330
1F
100
AcDbEntity
  8
0
  6
Continuous
 62
     7
370
    25
100
AcDbLine
 10
-1034.196113904
 20
-33.5
 30
0.0
 11
-1033.1957211443
 21
-33.5
 31
0.0
  0
LINE
  5
79
330
1F
100
AcDbEntity
  8
0
  6
Continuous
 62
     7
370
    25
100
AcDbLine
 10
-1034.196113904
 20
-33.0
 30
0.0
 11
-1034.196113904
 21
-33.5
 31
0.0
  0
LINE
  5
7A
330
1F
100
AcDbEntity
  8
0
  6
Continuous
 62
     7
370
    25
100
AcDbLine
 10
-1033.1957211443
 20
-33.0
 30
0.0
 11
-1034.196113904
 21
-33.0
 31
0.0
  0
LINE
  5
7B
330
1F
100
AcDbEntity
  8
0
  6
Continuous
 62
     7
370
    25
100
AcDbLine
 10
-1033.1957211443
 20
-33.5
 30
0.0
 11
-1033.1957211443
 21
-33.0
 31
0.0
  0
LINE
  5
7C
330
1F
100
AcDbEntity
  8
0
  6
Continuous
 62
     7
370
    25
100
AcDbLine
 10
-342.6792109713
 20
-33.5
 30
0.0
 11
-341.6788182116
 21
-33.5
 31
0.0
  0
LINE
  5
7D
330
1F
100
AcDbEntity
  8
0
  6
Continuous
 62
     7
370
    25
100
AcDbLine
 10
-342.6792109713
 20
-33.0
 30
0.0
 11
-342.6792109713
 21
-33.5
 31
0.0
  0
LINE
  5
7E
330
1F
100
AcDbEntity
  8
0
  6
Continuous
 62
     7
370
    25
100
AcDbLine
 10
-341.6788182116
 20
-33.0
 30
0.0
 11
-342.6792109713
 21
-33.0
 31
0.0
  0
LINE
  5
7F
330
1F
100
AcDbEntity
  8
0
  6
Continuous
 62
     7
370
    25
100
AcDbLine
 10
-341.6788182116
 20
-33.5
 30
0.0
 11
-341.6788182116
 21
-33.0
 31
0.0
  0
SPLINE
  5
80
330
1F
100
AcDbEntity
  8
0
  6
Continuous
 62
     7
370
    25
100
AcDbSpline
210
0.0
220
0.0
230
1.0
 70
    11
 71
     3
 72
    22
 73
    18
 74
     0
 42
0.00000001
 43
0.00000001
 40
0.0
 40
0.0
 40
0.0
 40
0.0
 40
0.125
 40
0.125
 40
0.25
 40
0.25
 40
0.375
 40
0.375
 40
0.5
 40
0.5
 40
0.625
 40
0.625
 40
0.75
 40
0.75
 40
0.875
 40
0.875
 40
1.0
 40
1.0
 40
1.0
 40
1.0
 10
-892.70766819562
 20
930.0000000000032
 30
0.0
 10
-892.7076656687038
 20
929.4434006707751
 30
0.0
 10
-892.485243017747
 20
928.9079849498058
 30
0.0
 10
-891.6987832823165
 20
928.1216603655876
 30
0.0
 10
-891.162526301415
 20
927.9001763675839
 30
0.0
 10
-890.0502579756159
 20
927.8998236086998
 30
0.0
 10
-889.5144046798396
 20
928.1219052782872
 30
0.0
 10
-888.7271503290405
 20
928.9078266255349
 30
0.0
 10
-888.5052454742182
 20
929.4438957345631
 30
0.0
 10
-888.5048501889494
 20
930.5561127869789
 30
0.0
 10
-888.7275311170183
 20
931.0919977793682
 30
0.0
 10
-889.5140354760255
 20
931.878281794154
 30
0.0
 10
-890.0502572412272
 20
932.0997827264066
 30
0.0
 10
-891.1625462941515
 20
932.1002173942272
 30
0.0
 10
-891.698424328865
 20
931.8781402525825
 30
0.0
 10
-892.4856142036939
 20
931.092202194967
 30
0.0
 10
-892.7076707225364
 20
930.5565993292312
 30
0.0
 10
-892.70766819562
 20
930.0000000000032
 30
0.0
  0
SPLINE
  5
81
330
1F
100
AcDbEntity
  8
0
  6
Continuous
 62
     7
370
    25
100
AcDbSpline
210
0.0
220
0.0
230
1.0
 70
    11
 71
     3
 72
    22
 73
    18
 74
     0
 42
0.00000001
 43
0.00000001
 40
0.0
 40
0.0
 40
0.0
 40
0.0
 40
0.125
 40
0.125
 40
0.25
 40
0.25
 40
0.375
 40
0.375
 40
0.5
 40
0.5
 40
0.625
 40
0.625
 40
0.75
 40
0.75
 40
0.875
 40
0.875
 40
1.0
 40
1.0
 40
1.0
 40
1.0
 10
-1111.688020790971
 20
455.0000000000043
 30
0.0
 10
-1111.688018264055
 20
454.4434006705063
 30
0.0
 10
-1111.465595613484
 20
453.9079849500471
 30
0.0
 10
-1110.679135877281
 20
453.1216603653485
 30
0.0
 10
-1110.142878897044
 20
452.9001763675847
 30
0.0
 10
-1109.030610570689
 20
452.8998236087005
 30
0.0
 10
-1108.494757275357
 20
453.1219052780708
 30
0.0
 10
-1107.707502924224
 20
453.9078266257526
 30
0.0
 10
-1107.485598069555
 20
454.4438957343126
 30
0.0
 10
-1107.485202784314
 20
455.5561127872303
 30
0.0
 10
-1107.707883712272
 20
456.0919977792918
 30
0.0
 10
-1108.494388071474
 20
456.8782817942323
 30
0.0
 10
-1109.030609836384
 20
457.0997827264895
 30
0.0
 10
-1110.142898889696
 20
457.1002173941458
 30
0.0
 10
-1110.678776924272
 20
456.8781402524942
 30
0.0
 10
-1111.46596679899
 20
456.0922021950577
 30
0.0
 10
-1111.688023317889
 20
455.5565993295024
 30
0.0
 10
-1111.688020790971
 20
455.0000000000043
 30
0.0
  0
SPLINE
  5
82
330
1F
100
AcDbEntity
  8
0
  6
Continuous
 62
     7
370
    25
100
AcDbSpline
210
0.0
220
0.0
230
1.0
 70
    11
 71
     3
 72
    22
 73
    18
 74
     0
 42
0.00000001
 43
0.00000001
 40
0.0
 40
0.0
 40
0.0
 40
0.0
 40
0.125
 40
0.125
 40
0.25
 40
0.25
 40
0.375
 40
0.375
 40
0.5
 40
0.5
 40
0.625
 40
0.625
 40
0.75
 40
0.75
 40
0.875
 40
0.875
 40
1.0
 40
1.0
 40
1.0
 40
1.0
 10
-1330.668373386321
 20
-19.99999999999465
 30
0.0
 10
-1330.668370859403
 20
-20.55659932945124
 30
0.0
 10
-1330.445948208623
 20
-21.09201505008028
 30
0.0
 10
-1329.659488472842
 20
-21.87833963452228
 30
0.0
 10
-1329.123231492443
 20
-22.09982363245526
 30
0.0
 10
-1328.010963165991
 20
-22.10017639125726
 30
0.0
 10
-1327.475109870795
 20
-21.8780947221182
 30
0.0
 10
-1326.687855519487
 20
-21.09217337405616
 30
0.0
 10
-1326.465950664988
 20
-20.55610426593678
 30
0.0
 10
-1326.465555379581
 20
-19.44388721251771
 30
0.0
 10
-1326.688236307417
 20
-18.90800222082966
 30
0.0
 10
-1327.474740667029
 20
-18.12171820564372
 30
0.0
 10
-1328.010962432008
 20
-17.90021727352979
 30
0.0
 10
-1329.123251484772
 20
-17.89978260583257
 30
0.0
 10
-1329.659129519643
 20
-18.12185974753604
 30
0.0
 10
-1330.446319394319
 20
-18.90779780491007
 30
0.0
 10
-1330.66837591324
 20
-19.44340067053805
 30
0.0
 10
-1330.668373386321
 20
-19.99999999999465
 30
0.0
  0
SPLINE
  5
83
330
1F
100
AcDbEntity
  8
0
  6
Continuous
 62
     7
370
    25
100
AcDbSpline
210
0.0
220
0.0
230
1.0
 70
    11
 71
     3
 72
    22
 73
    18
 74
     0
 42
0.00000001
 43
0.00000001
 40
0.0
 40
0.0
 40
0.0
 40
0.0
 40
0.125
 40
0.125
 40
0.25
 40
0.25
 40
0.375
 40
0.375
 40
0.5
 40
0.5
 40
0.625
 40
0.625
 40
0.75
 40
0.75
 40
0.875
 40
0.875
 40
1.0
 40
1.0
 40
1.0
 40
1.0
 10
-16.78625781423443
 20
360.0000000000014
 30
0.0
 10
-16.78625528731914
 20
359.4434006703748
 30
0.0
 10
-16.56383263657368
 20
358.9079849499948
 30
0.0
 10
-15.77737290071729
 20
358.1216603653951
 30
0.0
 10
-15.24111592024263
 20
357.9001763675615
 30
0.0
 10
-14.1288475940155
 20
357.8998236087185
 30
0.0
 10
-13.59299429857908
 20
358.1219052781096
 30
0.0
 10
-12.80573994752909
 20
358.9078266257088
 30
0.0
 10
-12.58383509283928
 20
359.4438957343007
 30
0.0
 10
-12.58343980755622
 20
360.5561127872373
 30
0.0
 10
-12.80612073567205
 20
361.0919977793857
 30
0.0
 10
-13.59262509459969
 20
361.8782817941334
 30
0.0
 10
-14.12884685993932
 20
362.0997827264458
 30
0.0
 10
-15.24113591266746
 20
362.1002173941842
 30
0.0
 10
-15.77701394731812
 20
361.8781402528411
 30
0.0
 10
-16.5642038224692
 20
361.0922021947046
 30
0.0
 10
-16.78626034114955
 20
360.5565993296279
 30
0.0
 10
-16.78625781423443
 20
360.0000000000014
 30
0.0
  0
SPLINE
  5
84
330
1F
100
AcDbEntity
  8
0
  6
Continuous
 62
     7
370
    25
100
AcDbSpline
210
0.0
220
0.0
230
1.0
 70
    11
 71
     3
 72
    22
 73
    18
 74
     0
 42
0.00000001
 43
0.00000001
 40
0.0
 40
0.0
 40
0.0
 40
0.0
 40
0.125
 40
0.125
 40
0.25
 40
0.25
 40
0.375
 40
0.375
 40
0.5
 40
0.5
 40
0.625
 40
0.625
 40
0.75
 40
0.75
 40
0.875
 40
0.875
 40
1.0
 40
1.0
 40
1.0
 40
1.0
 10
-16.78625781423465
 20
550.0000000000016
 30
0.0
 10
-16.78625528731942
 20
549.4434006703752
 30
0.0
 10
-16.56383263638045
 20
548.9079849498015
 30
0.0
 10
-15.77737290091025
 20
548.1216603655882
 30
0.0
 10
-15.24111592010136
 20
547.9001763675409
 30
0.0
 10
-14.12884759415667
 20
547.8998236087391
 30
0.0
 10
-13.59299429864652
 20
548.121905278083
 30
0.0
 10
-12.80573994746131
 20
548.907826625735
 30
0.0
 10
-12.5838350929211
 20
549.443895734479
 30
0.0
 10
-12.58343980747362
 20
550.5561127870587
 30
0.0
 10
-12.80612073560705
 20
551.091997779362
 30
0.0
 10
-13.59262509466469
 20
551.8782817941573
 30
0.0
 10
-14.12884685989696
 20
552.0997827264047
 30
0.0
 10
-15.24113591270909
 20
552.1002173942255
 30
0.0
 10
-15.77701394730613
 20
551.8781402528123
 30
0.0
 10
-16.56420382248125
 20
551.0922021947341
 30
0.0
 10
-16.78626034114983
 20
550.5565993296279
 30
0.0
 10
-16.78625781423465
 20
550.0000000000016
 30
0.0
  0
SPLINE
  5
85
330
1F
100
AcDbEntity
  8
0
  6
Continuous
 62
     7
370
    25
100
AcDbSpline
210
0.0
220
0.0
230
1.0
 70
    11
 71
     3
 72
    22
 73
    18
 74
     0
 42
0.00000001
 43
0.00000001
 40
0.0
 40
0.0
 40
0.0
 40
0.0
 40
0.125
 40
0.125
 40
0.25
 40
0.25
 40
0.375
 40
0.375
 40
0.5
 40
0.5
 40
0.625
 40
0.625
 40
0.75
 40
0.75
 40
0.875
 40
0.875
 40
1.0
 40
1.0
 40
1.0
 40
1.0
 10
-1549.648725981669
 20
-19.99999999999335
 30
0.0
 10
-1549.648723454756
 20
-20.55659932943506
 30
0.0
 10
-1549.426300803762
 20
-21.09201505012311
 30
0.0
 10
-1548.639841068398
 20
-21.87833963447691
 30
0.0
 10
-1548.103584087727
 20
-22.09982363245402
 30
0.0
 10
-1546.991315761401
 20
-22.10017639125591
 30
0.0
 10
-1546.455462466063
 20
-21.87809472172933
 30
0.0
 10
-1545.668208114914
 20
-21.09217337444221
 30
0.0
 10
-1545.446303260315
 20
-20.55610426553436
 30
0.0
 10
-1545.445907974949
 20
-19.44388721291759
 30
0.0
 10
-1545.668588903048
 20
-18.90800222064695
 30
0.0
 10
-1546.455093262093
 20
-18.12171820582373
 30
0.0
 10
-1546.991315027388
 20
-17.90021727352844
 30
0.0
 10
-1548.103604080088
 20
-17.89978260583133
 30
0.0
 10
-1548.639482114684
 20
-18.12185974714683
 30
0.0
 10
-1549.426671989972
 20
-18.90779780529697
 30
0.0
 10
-1549.648728508581
 20
-19.44340067055164
 30
0.0
 10
-1549.648725981669
 20
-19.99999999999335
 30
0.0
  0
SPLINE
  5
86
330
1F
100
AcDbEntity
  8
0
  6
Continuous
 62
     7
370
    25
100
AcDbSpline
210
0.0
220
0.0
230
1.0
 70
    11
 71
     3
 72
    22
 73
    18
 74
     0
 42
0.00000001
 43
0.00000001
 40
0.0
 40
0.0
 40
0.0
 40
0.0
 40
0.125
 40
0.125
 40
0.25
 40
0.25
 40
0.375
 40
0.375
 40
0.5
 40
0.5
 40
0.625
 40
0.625
 40
0.75
 40
0.75
 40
0.875
 40
0.875
 40
1.0
 40
1.0
 40
1.0
 40
1.0
 10
-1330.668373386319
 20
455.0000000000053
 30
0.0
 10
-1330.668370859402
 20
454.4434006699865
 30
0.0
 10
-1330.445948208225
 20
453.9079849497298
 30
0.0
 10
-1329.659488473235
 20
453.1216603656676
 30
0.0
 10
-1329.123231492609
 20
452.9001763675036
 30
0.0
 10
-1328.010963165818
 20
452.8998236087839
 30
0.0
 10
-1327.475109870661
 20
453.1219052782178
 30
0.0
 10
-1326.687855519616
 20
453.9078266256079
 30
0.0
 10
-1326.465950664883
 20
454.4438957343244
 30
0.0
 10
-1326.465555379682
 20
455.5561127872212
 30
0.0
 10
-1326.688236307913
 20
456.0919977794852
 30
0.0
 10
-1327.474740666526
 20
456.878281794041
 30
0.0
 10
-1328.010962432056
 20
457.0997827264497
 30
0.0
 10
-1329.123251484719
 20
457.100217394188
 30
0.0
 10
-1329.65912951925
 20
456.878140252936
 30
0.0
 10
-1330.446319394707
 20
456.0922021946172
 30
0.0
 10
-1330.668375913235
 20
455.5565993300242
 30
0.0
 10
-1330.668373386319
 20
455.0000000000053
 30
0.0
  0
SPLINE
  5
87
330
1F
100
AcDbEntity
  8
0
  6
Continuous
 62
     7
370
    25
100
AcDbSpline
210
0.0
220
0.0
230
1.0
 70
    11
 71
     3
 72
    22
 73
    18
 74
     0
 42
0.00000001
 43
0.00000001
 40
0.0
 40
0.0
 40
0.0
 40
0.0
 40
0.125
 40
0.125
 40
0.25
 40
0.25
 40
0.375
 40
0.375
 40
0.5
 40
0.5
 40
0.625
 40
0.625
 40
0.75
 40
0.75
 40
0.875
 40
0.875
 40
1.0
 40
1.0
 40
1.0
 40
1.0
 10
-1111.68802079097
 20
930.0000000000044
 30
0.0
 10
-1111.688018264051
 20
929.4434006703053
 30
0.0
 10
-1111.465595613073
 20
928.9079849498742
 30
0.0
 10
-1110.679135877689
 20
928.121660365521
 30
0.0
 10
-1110.142878896769
 20
927.9001763675845
 30
0.0
 10
-1109.03061057096
 20
927.8998236087004
 30
0.0
 10
-1108.494757275512
 20
928.1219052779152
 30
0.0
 10
-1107.707502924067
 20
928.907826625908
 30
0.0
 10
-1107.485598069554
 20
929.44389573419
 30
0.0
 10
-1107.485202784312
 20
930.5561127873531
 30
0.0
 10
-1107.707883712367
 20
931.091997779359
 30
0.0
 10
-1108.494388071374
 20
931.8782817941643
 30
0.0
 10
-1109.030609836574
 20
932.0997827264897
 30
0.0
 10
-1110.142898889503
 20
932.1002173941456
 30
0.0
 10
-1110.678776924244
 20
931.8781402525921
 30
0.0
 10
-1111.465966799014
 20
931.0922021949591
 30
0.0
 10
-1111.688023317888
 20
930.5565993297034
 30
0.0
 10
-1111.68802079097
 20
930.0000000000044
 30
0.0
  0
LINE
  5
88
330
1F
100
AcDbEntity
  8
0
  6
Continuous
 62
     7
370
    25
100
AcDbLine
 10
-1753.7209325092
 20
276.5
 30
0.0
 11
-1753.7209325092
 21
970.0
 31
0.0
  0
LINE
  5
89
330
1F
100
AcDbEntity
  8
0
  6
Continuous
 62
     7
370
    25
100
AcDbLine
 10
-1743.7152466225
 20
276.5
 30
0.0
 11
-1753.7209325092
 21
276.5
 31
0.0
  0
SPLINE
  5
8A
330
1F
100
AcDbEntity
  8
0
  6
Continuous
 62
     7
370
    25
100
AcDbSpline
210
0.0
220
0.0
230
1.0
 70
     8
 71
     3
 72
    26
 73
    22
 74
     0
 42
0.00000001
 43
0.00000001
 40
0.0
 40
0.0
 40
0.0
 40
0.0
 40
0.0625
 40
0.0625
 40
0.09375
 40
0.09375
 40
0.125
 40
0.125
 40
0.25
 40
0.25
 40
0.375
 40
0.375
 40
0.5
 40
0.5
 40
0.625
 40
0.625
 40
0.75
 40
0.75
 40
0.875
 40
0.875
 40
1.0
 40
1.0
 40
1.0
 40
1.0
 10
-1743.715246622471
 20
251.5000000000042
 30
0.0
 10
-1742.871416379695
 20
251.5062751017097
 30
0.0
 10
-1742.050863753961
 20
251.5887070612332
 30
0.0
 10
-1740.854951240929
 20
251.8265902872455
 30
0.0
 10
-1740.462133140847
 20
251.9249239103708
 30
0.0
 10
-1739.688135749203
 20
252.1596695855303
 30
0.0
 10
-1739.314352066328
 20
252.2930188256459
 30
0.0
 10
-1737.400574586401
 20
253.0855892176843
 30
0.0
 10
-1736.048078905959
 20
253.9894793177216
 30
0.0
 10
-1733.704215143522
 20
256.3328529512867
 30
0.0
 10
-1732.800550409539
 20
257.685429836398
 30
0.0
 10
-1731.531829401562
 20
260.747357957381
 30
0.0
 10
-1731.214599376979
 20
262.3428953821474
 30
0.0
 10
-1731.214400646922
 20
265.6571082999493
 30
0.0
 10
-1731.532051792549
 20
267.2526598820103
 30
0.0
 10
-1732.800330866577
 20
270.3145592359511
 30
0.0
 10
-1733.704385590095
 20
271.6670368586743
 30
0.0
 10
-1736.047913236831
 20
274.0106356883014
 30
0.0
 10
-1737.405040734205
 20
274.916046525827
 30
0.0
 10
-1740.458155932172
 20
276.1808891458506
 30
0.0
 10
-1742.052705361932
 20
276.4980665339058
 30
0.0
 10
-1743.715246622471
 20
276.5000000000043
 30
0.0
  0
LINE
  5
8B
330
1F
100
AcDbEntity
  8
0
  6
Continuous
 62
     7
370
    25
100
AcDbLine
 10
-1753.7209325092
 20
251.5
 30
0.0
 11
-1743.7152466225
 21
251.5
 31
0.0
  0
LINE
  5
8C
330
1F
100
AcDbEntity
  8
0
  6
Continuous
 62
     7
370
    25
100
AcDbLine
 10
-1753.7209325092
 20
76.5
 30
0.0
 11
-1753.7209325092
 21
251.5
 31
0.0
  0
LINE
  5
8D
330
1F
100
AcDbEntity
  8
0
  6
Continuous
 62
     7
370
    25
100
AcDbLine
 10
-1743.7152466225
 20
76.5
 30
0.0
 11
-1753.7209325092
 21
76.5
 31
0.0
  0
SPLINE
  5
8E
330
1F
100
AcDbEntity
  8
0
  6
Continuous
 62
     7
370
    25
100
AcDbSpline
210
0.0
220
0.0
230
1.0
 70
     8
 71
     3
 72
    26
 73
    22
 74
     0
 42
0.00000001
 43
0.00000001
 40
0.0
 40
0.0
 40
0.0
 40
0.0
 40
0.0625
 40
0.0625
 40
0.09375
 40
0.09375
 40
0.125
 40
0.125
 40
0.25
 40
0.25
 40
0.375
 40
0.375
 40
0.5
 40
0.5
 40
0.625
 40
0.625
 40
0.75
 40
0.75
 40
0.875
 40
0.875
 40
1.0
 40
1.0
 40
1.0
 40
1.0
 10
-1743.715246622472
 20
51.50000000000425
 30
0.0
 10
-1742.871416379756
 20
51.50627510170889
 30
0.0
 10
-1742.050863754055
 20
51.58870706123196
 30
0.0
 10
-1740.854951241023
 20
51.82659028724427
 30
0.0
 10
-1740.462133140932
 20
51.92492391036966
 30
0.0
 10
-1739.688135749258
 20
52.15966958552969
 30
0.0
 10
-1739.314352066097
 20
52.29301882575448
 30
0.0
 10
-1737.400574587328
 20
53.08558921725008
 30
0.0
 10
-1736.048078905028
 20
53.98947931914481
 30
0.0
 10
-1733.704215144456
 20
56.33285294986428
 30
0.0
 10
-1732.800550409908
 20
57.68542983633738
 30
0.0
 10
-1731.531829401195
 20
60.74735795744189
 30
0.0
 10
-1731.214599376612
 20
62.34289538119751
 30
0.0
 10
-1731.214400647291
 20
65.65710830089964
 30
0.0
 10
-1731.532051792854
 20
67.25265988280563
 30
0.0
 10
-1732.800330866274
 20
70.31455923515608
 30
0.0
 10
-1733.704385590935
 20
71.66703685902131
 30
0.0
 10
-1736.047913235995
 20
74.0106356879545
 30
0.0
 10
-1737.405040734217
 20
74.91604652583143
 30
0.0
 10
-1740.458155932163
 20
76.18088914584612
 30
0.0
 10
-1742.052705361923
 20
76.49806653390128
 30
0.0
 10
-1743.715246622472
 20
76.50000000000428
 30
0.0
  0
LINE
  5
8F
330
1F
100
AcDbEntity
  8
0
  6
Continuous
 62
     7
370
    25
100
AcDbLine
 10
-1753.7209325092
 20
51.5
 30
0.0
 11
-1743.7152466225
 21
51.5
 31
0.0
  0
LINE
  5
90
330
1F
100
AcDbEntity
  8
0
  6
Continuous
 62
     7
370
    25
100
AcDbLine
 10
-1753.7209325092
 20
-36.0
 30
0.0
 11
-1753.7209325092
 21
51.5
 31
0.0
  0
LINE
  5
91
330
1F
100
AcDbEntity
  8
0
  6
Continuous
 62
     7
370
    25
100
AcDbLine
 10
0.0
 20
-36.0
 30
0.0
 11
-1753.7209325092
 21
-36.0
 31
0.0
  0
LINE
  5
92
330
1F
100
AcDbEntity
  8
0
  6
Continuous
 62
     7
370
    25
100
AcDbLine
 10
0.0
 20
970.0
 30
0.0
 11
0.0
 21
-36.0
 31
0.0
  0
LINE
  5
93
330
1F
100
AcDbEntity
  8
0
  6
Continuous
 62
     7
370
    25
100
AcDbLine
 10
-1753.7209325092
 20
970.0
 30
0.0
 11
0.0
 21
970.0
 31
0.0
  0
SPLINE
  5
94
330
1F
100
AcDbEntity
  8
0
  6
Continuous
 62
     7
370
    25
100
AcDbSpline
210
0.0
220
0.0
230
1.0
 70
    11
 71
     3
 72
    22
 73
    18
 74
     0
 42
0.00000001
 43
0.00000001
 40
0.0
 40
0.0
 40
0.0
 40
0.0
 40
0.125
 40
0.125
 40
0.25
 40
0.25
 40
0.375
 40
0.375
 40
0.5
 40
0.5
 40
0.625
 40
0.625
 40
0.75
 40
0.75
 40
0.875
 40
0.875
 40
1.0
 40
1.0
 40
1.0
 40
1.0
 10
-454.7469630049288
 20
455.0000000000021
 30
0.0
 10
-454.746960478016
 20
454.4434006704317
 30
0.0
 10
-454.5245378271945
 20
453.9079849498806
 30
0.0
 10
-453.738078091485
 20
453.1216603655103
 30
0.0
 10
-453.2018211108245
 20
452.9001763675824
 30
0.0
 10
-452.089552784822
 20
452.8998236086983
 30
0.0
 10
-451.5536994892934
 20
453.1219052781104
 30
0.0
 10
-450.7664451382031
 20
453.9078266257087
 30
0.0
 10
-450.544540283492
 20
454.4438957343016
 30
0.0
 10
-450.5441449982913
 20
455.5561127872369
 30
0.0
 10
-450.7668259262518
 20
456.0919977793332
 30
0.0
 10
-451.5533302854086
 20
456.8782817941865
 30
0.0
 10
-452.0895520504625
 20
457.0997827264873
 30
0.0
 10
-453.2018411035318
 20
457.1002173941434
 30
0.0
 10
-453.7377191381234
 20
456.8781402525869
 30
0.0
 10
-454.5249090130524
 20
456.0922021949601
 30
0.0
 10
-454.7469655318416
 20
455.5565993295725
 30
0.0
 10
-454.7469630049288
 20
455.0000000000021
 30
0.0
  0
SPLINE
  5
95
330
1F
100
AcDbEntity
  8
0
  6
Continuous
 62
     7
370
    25
100
AcDbSpline
210
0.0
220
0.0
230
1.0
 70
    11
 71
     3
 72
    22
 73
    18
 74
     0
 42
0.00000001
 43
0.00000001
 40
0.0
 40
0.0
 40
0.0
 40
0.0
 40
0.125
 40
0.125
 40
0.25
 40
0.25
 40
0.375
 40
0.375
 40
0.5
 40
0.5
 40
0.625
 40
0.625
 40
0.75
 40
0.75
 40
0.875
 40
0.875
 40
1.0
 40
1.0
 40
1.0
 40
1.0
 10
-673.7273156002773
 20
-19.99999999999745
 30
0.0
 10
-673.727313073362
 20
-20.55659932979302
 30
0.0
 10
-673.5048904224875
 20
-21.09201505011248
 30
0.0
 10
-672.7184306868888
 20
-21.8783396344957
 30
0.0
 10
-672.1821737063663
 20
-22.09982363245815
 30
0.0
 10
-671.0699053799777
 20
-22.10017639125999
 30
0.0
 10
-670.5340520845897
 20
-21.87809472173446
 30
0.0
 10
-669.7467977336034
 20
-21.09217337444541
 30
0.0
 10
-669.5248928789539
 20
-20.55610426546688
 30
0.0
 10
-669.5244975935267
 20
-19.44388721299322
 30
0.0
 10
-669.7471785216081
 20
-18.90800222065791
 30
0.0
 10
-670.5336828807486
 20
-18.12171820582086
 30
0.0
 10
-671.0699046457498
 20
-17.90021727353269
 30
0.0
 10
-672.182193698942
 20
-17.89978260583529
 30
0.0
 10
-672.718071733388
 20
-18.12185974725693
 30
0.0
 10
-673.5052616084847
 20
-18.90779780519507
 30
0.0
 10
-673.7273181271926
 20
-19.44340067020188
 30
0.0
 10
-673.7273156002773
 20
-19.99999999999745
 30
0.0
  0
SPLINE
  5
96
330
1F
100
AcDbEntity
  8
0
  6
Continuous
 62
     7
370
    25
100
AcDbSpline
210
0.0
220
0.0
230
1.0
 70
    11
 71
     3
 72
    22
 73
    18
 74
     0
 42
0.00000001
 43
0.00000001
 40
0.0
 40
0.0
 40
0.0
 40
0.0
 40
0.125
 40
0.125
 40
0.25
 40
0.25
 40
0.375
 40
0.375
 40
0.5
 40
0.5
 40
0.625
 40
0.625
 40
0.75
 40
0.75
 40
0.875
 40
0.875
 40
1.0
 40
1.0
 40
1.0
 40
1.0
 10
-16.78625781423471
 20
75.00000000000152
 30
0.0
 10
-16.7862552873182
 20
74.44340067025125
 30
0.0
 10
-16.56383263651573
 20
73.90798494991581
 30
0.0
 10
-15.7773729007758
 20
73.12166036547397
 30
0.0
 10
-15.24111592032529
 20
72.90017636754087
 30
0.0
 10
-14.12884759393368
 20
72.89982360873898
 30
0.0
 10
-13.59299429864697
 20
73.12190527812385
 30
0.0
 10
-12.80573994746104
 20
73.90782662569428
 30
0.0
 10
-12.58383509283933
 20
74.44389573416005
 30
0.0
 10
-12.58343980755644
 20
75.55611278737784
 30
0.0
 10
-12.80612073543175
 20
76.09199777926861
 30
0.0
 10
-13.59262509484055
 20
76.87828179425027
 30
0.0
 10
-14.12884685978921
 20
77.09978272646634
 30
0.0
 10
-15.24113591281778
 20
77.10021739416362
 30
0.0
 10
-15.77701394743564
 20
76.87814025258024
 30
0.0
 10
-16.56420382235207
 20
76.09220219496584
 30
0.0
 10
-16.78626034115122
 20
75.55659932975179
 30
0.0
 10
-16.78625781423471
 20
75.00000000000152
 30
0.0
  0
SPLINE
  5
97
330
1F
100
AcDbEntity
  8
0
  6
Continuous
 62
     7
370
    25
100
AcDbSpline
210
0.0
220
0.0
230
1.0
 70
    11
 71
     3
 72
    22
 73
    18
 74
     0
 42
0.00000001
 43
0.00000001
 40
0.0
 40
0.0
 40
0.0
 40
0.0
 40
0.125
 40
0.125
 40
0.25
 40
0.25
 40
0.375
 40
0.375
 40
0.5
 40
0.5
 40
0.625
 40
0.625
 40
0.75
 40
0.75
 40
0.875
 40
0.875
 40
1.0
 40
1.0
 40
1.0
 40
1.0
 10
-16.78625781423432
 20
835.0000000000011
 30
0.0
 10
-16.78625528731836
 20
834.4434006704727
 30
0.0
 10
-16.56383263645095
 20
833.9079849499132
 30
0.0
 10
-15.77737290083986
 20
833.1216603654765
 30
0.0
 10
-15.24111592024174
 20
832.9001763675816
 30
0.0
 10
-14.12884759401628
 20
832.8998236086975
 30
0.0
 10
-13.59299429850586
 20
833.1219052782639
 30
0.0
 10
-12.80573994760131
 20
833.9078266255538
 30
0.0
 10
-12.58383509279759
 20
834.4438957343378
 30
0.0
 10
-12.5834398075968
 20
835.5561127871996
 30
0.0
 10
-12.80612073546622
 20
836.0919977792627
 30
0.0
 10
-13.59262509480486
 20
836.8782817942564
 30
0.0
 10
-14.12884685982041
 20
837.0997827264047
 30
0.0
 10
-15.2411359127857
 20
837.1002173942253
 30
0.0
 10
-15.77701394724807
 20
836.8781402529113
 30
0.0
 10
-16.56420382253904
 20
836.0922021946349
 30
0.0
 10
-16.78626034115033
 20
835.5565993295297
 30
0.0
 10
-16.78625781423432
 20
835.0000000000011
 30
0.0
  0
SPLINE
  5
98
330
1F
100
AcDbEntity
  8
0
  6
Continuous
 62
     7
370
    25
100
AcDbSpline
210
0.0
220
0.0
230
1.0
 70
    11
 71
     3
 72
    22
 73
    18
 74
     0
 42
0.00000001
 43
0.00000001
 40
0.0
 40
0.0
 40
0.0
 40
0.0
 40
0.125
 40
0.125
 40
0.25
 40
0.25
 40
0.375
 40
0.375
 40
0.5
 40
0.5
 40
0.625
 40
0.625
 40
0.75
 40
0.75
 40
0.875
 40
0.875
 40
1.0
 40
1.0
 40
1.0
 40
1.0
 10
-16.78625781423438
 20
455.0000000000015
 30
0.0
 10
-16.78625528731842
 20
454.4434006705144
 30
0.0
 10
-16.5638326363392
 20
453.9079849498222
 30
0.0
 10
-15.77737290095138
 20
453.1216603655676
 30
0.0
 10
-15.24111592028382
 20
452.900176367541
 30
0.0
 10
-14.1288475939742
 20
452.8998236087391
 30
0.0
 10
-13.59299429860555
 20
453.1219052781034
 30
0.0
 10
-12.80573994750206
 20
453.9078266257152
 30
0.0
 10
-12.58383509279792
 20
454.4438957344004
 30
0.0
 10
-12.5834398075973
 20
455.5561127871375
 30
0.0
 10
-12.80612073570703
 20
456.0919977794413
 30
0.0
 10
-13.5926250945646
 20
456.8782817940776
 30
0.0
 10
-14.12884685984828
 20
457.0997827264458
 30
0.0
 10
-15.24113591275822
 20
457.1002173941841
 30
0.0
 10
-15.77701394735093
 20
456.8781402527056
 30
0.0
 10
-16.56420382243645
 20
456.0922021948402
 30
0.0
 10
-16.78626034115022
 20
455.5565993294885
 30
0.0
 10
-16.78625781423438
 20
455.0000000000015
 30
0.0
  0
SPLINE
  5
99
330
1F
100
AcDbEntity
  8
0
  6
Continuous
 62
     7
370
    25
100
AcDbSpline
210
0.0
220
0.0
230
1.0
 70
    11
 71
     3
 72
    22
 73
    18
 74
     0
 42
0.00000001
 43
0.00000001
 40
0.0
 40
0.0
 40
0.0
 40
0.0
 40
0.125
 40
0.125
 40
0.25
 40
0.25
 40
0.375
 40
0.375
 40
0.5
 40
0.5
 40
0.625
 40
0.625
 40
0.75
 40
0.75
 40
0.875
 40
0.875
 40
1.0
 40
1.0
 40
1.0
 40
1.0
 10
-454.7469630049295
 20
-19.99999999999797
 30
0.0
 10
-454.746960478013
 20
-20.5565993296979
 30
0.0
 10
-454.5245378270902
 20
-21.09201505014231
 30
0.0
 10
-453.7380780915909
 20
-21.8783396344669
 30
0.0
 10
-453.2018211109992
 20
-22.09982363245867
 30
0.0
 10
-452.0895527846492
 20
-22.10017639126051
 30
0.0
 10
-451.5536994893151
 20
-21.87809472191056
 30
0.0
 10
-450.7664451381829
 20
-21.09217337427046
 30
0.0
 10
-450.5445402835752
 20
-20.55610426551986
 30
0.0
 10
-450.5441449982098
 20
-19.44388721294128
 30
0.0
 10
-450.7668259262177
 20
-18.90800222068108
 30
0.0
 10
-451.5533302854446
 20
-18.12171820579896
 30
0.0
 10
-452.0895520505671
 20
-17.90021727353304
 30
0.0
 10
-453.2018411034296
 20
-17.89978260583598
 30
0.0
 10
-453.7377191380219
 20
-18.12185974718734
 30
0.0
 10
-454.5249090131557
 20
-18.9077978052657
 30
0.0
 10
-454.7469655318459
 20
-19.44340067029805
 30
0.0
 10
-454.7469630049295
 20
-19.99999999999797
 30
0.0
  0
SPLINE
  5
9A
330
1F
100
AcDbEntity
  8
0
  6
Continuous
 62
     7
370
    25
100
AcDbSpline
210
0.0
220
0.0
230
1.0
 70
    11
 71
     3
 72
    22
 73
    18
 74
     0
 42
0.00000001
 43
0.00000001
 40
0.0
 40
0.0
 40
0.0
 40
0.0
 40
0.125
 40
0.125
 40
0.25
 40
0.25
 40
0.375
 40
0.375
 40
0.5
 40
0.5
 40
0.625
 40
0.625
 40
0.75
 40
0.75
 40
0.875
 40
0.875
 40
1.0
 40
1.0
 40
1.0
 40
1.0
 10
-235.7666104095812
 20
455.0000000000018
 30
0.0
 10
-235.7666078826667
 20
454.4434006703563
 30
0.0
 10
-235.5441852319263
 20
453.9079849499801
 30
0.0
 10
-234.7577254960581
 20
453.1216603654102
 30
0.0
 10
-234.2214685154991
 20
452.9001763675616
 30
0.0
 10
-233.1092001894534
 20
452.8998236087186
 30
0.0
 10
-232.5733468939229
 20
453.1219052781742
 30
0.0
 10
-231.7860925428789
 20
453.9078266256441
 30
0.0
 10
-231.564187688268
 20
454.443895734459
 30
0.0
 10
-231.5637924028205
 20
455.5561127870789
 30
0.0
 10
-231.7864733311185
 20
456.0919977794645
 30
0.0
 10
-232.572977689847
 20
456.8782817940544
 30
0.0
 10
-233.1091994553261
 20
457.0997827264459
 30
0.0
 10
-234.2214885079736
 20
457.1002173941842
 30
0.0
 10
-234.7573665427527
 20
456.8781402526715
 30
0.0
 10
-235.5445564177283
 20
456.0922021948747
 30
0.0
 10
-235.7666129364956
 20
455.5565993296473
 30
0.0
 10
-235.7666104095812
 20
455.0000000000018
 30
0.0
  0
SPLINE
  5
9B
330
1F
100
AcDbEntity
  8
0
  6
Continuous
 62
     7
370
    25
100
AcDbSpline
210
0.0
220
0.0
230
1.0
 70
    11
 71
     3
 72
    22
 73
    18
 74
     0
 42
0.00000001
 43
0.00000001
 40
0.0
 40
0.0
 40
0.0
 40
0.0
 40
0.125
 40
0.125
 40
0.25
 40
0.25
 40
0.375
 40
0.375
 40
0.5
 40
0.5
 40
0.625
 40
0.625
 40
0.75
 40
0.75
 40
0.875
 40
0.875
 40
1.0
 40
1.0
 40
1.0
 40
1.0
 10
-454.7469630049277
 20
930.0000000000022
 30
0.0
 10
-454.7469604780122
 20
929.4434006704163
 30
0.0
 10
-454.5245378272994
 20
928.9079849499043
 30
0.0
 10
-453.7380780913778
 20
928.1216603654868
 30
0.0
 10
-453.2018211111358
 20
927.9001763674592
 30
0.0
 10
-452.0895527845089
 20
927.899823608822
 30
0.0
 10
-451.5536994892482
 20
928.1219052781952
 30
0.0
 10
-450.7664451382455
 20
928.907826625624
 30
0.0
 10
-450.5445402835526
 20
929.4438957343302
 30
0.0
 10
-450.5441449982286
 20
930.5561127872087
 30
0.0
 10
-450.7668259263917
 20
931.0919977794337
 30
0.0
 10
-451.5533302852658
 20
931.8782817940865
 30
0.0
 10
-452.0895520505726
 20
932.0997827264875
 30
0.0
 10
-453.2018411034199
 20
932.1002173941434
 30
0.0
 10
-453.7377191380555
 20
931.8781402526947
 30
0.0
 10
-454.5249090131181
 20
931.0922021948522
 30
0.0
 10
-454.7469655318432
 20
930.556599329588
 30
0.0
 10
-454.7469630049277
 20
930.0000000000022
 30
0.0
  0
SPLINE
  5
9C
330
1F
100
AcDbEntity
  8
0
  6
Continuous
 62
     7
370
    25
100
AcDbSpline
210
0.0
220
0.0
230
1.0
 70
    11
 71
     3
 72
    22
 73
    18
 74
     0
 42
0.00000001
 43
0.00000001
 40
0.0
 40
0.0
 40
0.0
 40
0.0
 40
0.125
 40
0.125
 40
0.25
 40
0.25
 40
0.375
 40
0.375
 40
0.5
 40
0.5
 40
0.625
 40
0.625
 40
0.75
 40
0.75
 40
0.875
 40
0.875
 40
1.0
 40
1.0
 40
1.0
 40
1.0
 10
-673.7273156002756
 20
455.0000000000025
 30
0.0
 10
-673.7273130733591
 20
454.443400670228
 30
0.0
 10
-673.5048904225429
 20
453.9079849499238
 30
0.0
 10
-672.7184306868304
 20
453.1216603654681
 30
0.0
 10
-672.182173706156
 20
452.900176367583
 30
0.0
 10
-671.0699053801848
 20
452.8998236086988
 30
0.0
 10
-670.5340520846288
 20
453.121905278184
 30
0.0
 10
-669.7467977335614
 20
453.9078266256362
 30
0.0
 10
-669.5248928789008
 20
454.4438957344308
 30
0.0
 10
-669.5244975935767
 20
455.556112787109
 30
0.0
 10
-669.7471785216429
 20
456.0919977793781
 30
0.0
 10
-670.5336828807111
 20
456.8782817941428
 30
0.0
 10
-671.069904645782
 20
457.0997827265082
 30
0.0
 10
-672.1821936989064
 20
457.1002173941232
 30
0.0
 10
-672.7180717333033
 20
456.8781402529392
 30
0.0
 10
-673.5052616085663
 20
456.0922021946086
 30
0.0
 10
-673.727318127192
 20
455.556599329777
 30
0.0
 10
-673.7273156002756
 20
455.0000000000025
 30
0.0
  0
SPLINE
  5
9D
330
1F
100
AcDbEntity
  8
0
  6
Continuous
 62
     7
370
    25
100
AcDbSpline
210
0.0
220
0.0
230
1.0
 70
    11
 71
     3
 72
    22
 73
    18
 74
     0
 42
0.00000001
 43
0.00000001
 40
0.0
 40
0.0
 40
0.0
 40
0.0
 40
0.125
 40
0.125
 40
0.25
 40
0.25
 40
0.375
 40
0.375
 40
0.5
 40
0.5
 40
0.625
 40
0.625
 40
0.75
 40
0.75
 40
0.875
 40
0.875
 40
1.0
 40
1.0
 40
1.0
 40
1.0
 10
-892.7076681956247
 20
-19.99999999999671
 30
0.0
 10
-892.7076656687087
 20
-20.55659932967777
 30
0.0
 10
-892.4852430177856
 20
-21.09201505013855
 30
0.0
 10
-891.6987832822856
 20
-21.87833963446825
 30
0.0
 10
-891.1625263016194
 20
-22.09982363245741
 30
0.0
 10
-890.0502579754198
 20
-22.10017639125925
 30
0.0
 10
-889.5144046800842
 20
-21.87809472190125
 30
0.0
 10
-888.7271503288046
 20
-21.09217337427696
 30
0.0
 10
-888.5052454741159
 20
-20.55610426592177
 30
0.0
 10
-888.5048501890594
 20
-19.4438872125369
 30
0.0
 10
-888.7275311167873
 20
-18.9080022207497
 30
0.0
 10
-889.5140354762648
 20
-18.12171820572781
 30
0.0
 10
-890.0502572411756
 20
-17.90021727353189
 30
0.0
 10
-891.1625462942108
 20
-17.89978260583466
 30
0.0
 10
-891.6984243285826
 20
-18.12185974711536
 30
0.0
 10
-892.4856142039856
 20
-18.90779780533494
 30
0.0
 10
-892.7076707225408
 20
-19.44340067031566
 30
0.0
 10
-892.7076681956247
 20
-19.99999999999671
 30
0.0
  0
SPLINE
  5
9E
330
1F
100
AcDbEntity
  8
0
  6
Continuous
 62
     7
370
    25
100
AcDbSpline
210
0.0
220
0.0
230
1.0
 70
    11
 71
     3
 72
    22
 73
    18
 74
     0
 42
0.00000001
 43
0.00000001
 40
0.0
 40
0.0
 40
0.0
 40
0.0
 40
0.125
 40
0.125
 40
0.25
 40
0.25
 40
0.375
 40
0.375
 40
0.5
 40
0.5
 40
0.625
 40
0.625
 40
0.75
 40
0.75
 40
0.875
 40
0.875
 40
1.0
 40
1.0
 40
1.0
 40
1.0
 10
-16.78625781423443
 20
170.0000000000015
 30
0.0
 10
-16.78625528731931
 20
169.4434006702755
 30
0.0
 10
-16.56383263654432
 20
168.907984949945
 30
0.0
 10
-15.77737290074632
 20
168.1216603654449
 30
0.0
 10
-15.24111592024285
 20
167.9001763675614
 30
0.0
 10
-14.12884759401573
 20
167.8998236087183
 30
0.0
 10
-13.59299429867594
 20
168.1219052780536
 30
0.0
 10
-12.80573994743212
 20
168.9078266257644
 30
0.0
 10
-12.58383509283911
 20
169.4438957342808
 30
0.0
 10
-12.58343980755605
 20
170.556112787257
 30
0.0
 10
-12.80612073556664
 20
171.0919977793622
 30
0.0
 10
-13.5926250947056
 20
171.8782817941565
 30
0.0
 10
-14.12884685979754
 20
172.0997827264457
 30
0.0
 10
-15.24113591280862
 20
172.1002173941841
 30
0.0
 10
-15.77701394739145
 20
171.8781402527063
 30
0.0
 10
-16.5642038223961
 20
171.0922021948397
 30
0.0
 10
-16.78626034114944
 20
170.5565993297276
 30
0.0
 10
-16.78625781423443
 20
170.0000000000015
 30
0.0
  0
SPLINE
  5
9F
330
1F
100
AcDbEntity
  8
0
  6
Continuous
 62
     7
370
    25
100
AcDbSpline
210
0.0
220
0.0
230
1.0
 70
    11
 71
     3
 72
    38
 73
    34
 74
     0
 42
0.00000001
 43
0.00000001
 40
0.0
 40
0.0
 40
0.0
 40
0.0
 40
0.0625
 40
0.0625
 40
0.125
 40
0.125
 40
0.1875
 40
0.1875
 40
0.25
 40
0.25
 40
0.3125
 40
0.3125
 40
0.375
 40
0.375
 40
0.4375
 40
0.4375
 40
0.5
 40
0.5
 40
0.5625
 40
0.5625
 40
0.625
 40
0.625
 40
0.6875
 40
0.6875
 40
0.75
 40
0.75
 40
0.8125
 40
0.8125
 40
0.875
 40
0.875
 40
0.9375
 40
0.9375
 40
1.0
 40
1.0
 40
1.0
 40
1.0
 10
-373.1821873785739
 20
263.9999999999983
 30
0.0
 10
-373.1821878159336
 20
262.3421349380465
 30
0.0
 10
-372.8652039237626
 20
260.748193439159
 30
0.0
 10
-371.5957915857994
 20
257.6845956458377
 30
0.0
 10
-370.6931531986196
 20
256.3335334420159
 30
0.0
 10
-368.3479285159975
 20
253.9887998031827
 30
0.0
 10
-366.9970769419083
 20
253.0859882496523
 30
0.0
 10
-363.9331063192766
 20
251.8170782194413
 30
0.0
 10
-362.3395615548942
 20
251.4999004199143
 30
0.0
 10
-359.0233270852836
 20
251.5000996139792
 30
0.0
 10
-357.4296626646826
 20
251.8169098698397
 30
0.0
 10
-354.3659246734384
 20
253.0861535026106
 30
0.0
 10
-353.0148416629592
 20
253.9886304720659
 30
0.0
 10
-350.6698455520374
 20
256.3336969093825
 30
0.0
 10
-349.7669452533196
 20
257.6844274074231
 30
0.0
 10
-348.4978255217718
 20
260.7483538593655
 30
0.0
 10
-348.1805950457021
 20
262.3418914947365
 30
0.0
 10
-348.1807932309332
 20
265.6581053298841
 30
0.0
 10
-348.4976777903775
 20
267.2518076333319
 30
0.0
 10
-349.767090629185
 20
270.3154054692606
 30
0.0
 10
-350.6697275334525
 20
271.6664659777877
 30
0.0
 10
-353.0149536669865
 20
274.0112006739043
 30
0.0
 10
-354.3658037217165
 20
274.9140116048835
 30
0.0
 10
-357.4297751567373
 20
276.1829215410176
 30
0.0
 10
-359.0233235080635
 20
276.500099406443
 30
0.0
 10
-362.3395544136637
 20
276.4999005717266
 30
0.0
 10
-363.9332204507834
 20
276.183089401352
 30
0.0
 10
-366.9969569528077
 20
274.9138465236258
 30
0.0
 10
-368.3480408841899
 20
274.0113684661666
 30
0.0
 10
-370.6930362539237
 20
271.6663028361114
 30
0.0
 10
-371.596036516153
 20
270.3153306926948
 30
0.0
 10
-372.8649566814212
 20
267.2518857698338
 30
0.0
 10
-373.1821869412141
 20
265.6578650619501
 30
0.0
 10
-373.1821873785739
 20
263.9999999999983
 30
0.0
  0
SPLINE
  5
A0
330
1F
100
AcDbEntity
  8
0
  6
Continuous
 62
     7
370
    25
100
AcDbSpline
210
0.0
220
0.0
230
1.0
 70
    11
 71
     3
 72
    22
 73
    18
 74
     0
 42
0.00000001
 43
0.00000001
 40
0.0
 40
0.0
 40
0.0
 40
0.0
 40
0.125
 40
0.125
 40
0.25
 40
0.25
 40
0.375
 40
0.375
 40
0.5
 40
0.5
 40
0.625
 40
0.625
 40
0.75
 40
0.75
 40
0.875
 40
0.875
 40
1.0
 40
1.0
 40
1.0
 40
1.0
 10
-16.78625781423426
 20
740.0000000000015
 30
0.0
 10
-16.78625528731909
 20
739.4434006704744
 30
0.0
 10
-16.56383263645122
 20
738.9079849498723
 30
0.0
 10
-15.77737290083958
 20
738.1216603655174
 30
0.0
 10
-15.24111592024235
 20
737.9001763674995
 30
0.0
 10
-14.12884759401534
 20
737.8998236087801
 30
0.0
 10
-13.59299429857602
 20
738.1219052782353
 30
0.0
 10
-12.80573994753126
 20
738.9078266255824
 30
0.0
 10
-12.58383509283895
 20
739.443895734321
 30
0.0
 10
-12.58343980755577
 20
740.5561127872166
 30
0.0
 10
-12.80612073538373
 20
741.0919977791799
 30
0.0
 10
-13.59262509488757
 20
741.8782817943388
 30
0.0
 10
-14.12884685983862
 20
742.0997827264457
 30
0.0
 10
-15.24113591276743
 20
742.1002173941841
 30
0.0
 10
-15.77701394730618
 20
741.8781402527297
 30
0.0
 10
-16.56420382248092
 20
741.0922021948165
 30
0.0
 10
-16.78626034114944
 20
740.5565993295285
 30
0.0
 10
-16.78625781423426
 20
740.0000000000015
 30
0.0
  0
SPLINE
  5
A1
330
1F
100
AcDbEntity
  8
0
  6
Continuous
 62
     7
370
    25
100
AcDbSpline
210
0.0
220
0.0
230
1.0
 70
    11
 71
     3
 72
    22
 73
    18
 74
     0
 42
0.00000001
 43
0.00000001
 40
0.0
 40
0.0
 40
0.0
 40
0.0
 40
0.125
 40
0.125
 40
0.25
 40
0.25
 40
0.375
 40
0.375
 40
0.5
 40
0.5
 40
0.625
 40
0.625
 40
0.75
 40
0.75
 40
0.875
 40
0.875
 40
1.0
 40
1.0
 40
1.0
 40
1.0
 10
-16.78625781423415
 20
930.0000000000014
 30
0.0
 10
-16.7862552873177
 20
929.4434006703309
 30
0.0
 10
-16.56383263647981
 20
928.9079849499013
 30
0.0
 10
-15.77737290080999
 20
928.1216603654883
 30
0.0
 10
-15.24111592014177
 20
927.9001763675818
 30
0.0
 10
-14.12884759411587
 20
927.8998236086977
 30
0.0
 10
-13.59299429864624
 20
928.121905278124
 30
0.0
 10
-12.80573994746092
 20
928.9078266256936
 30
0.0
 10
-12.58383509287958
 20
929.4438957345619
 30
0.0
 10
-12.58343980751425
 20
930.5561127869761
 30
0.0
 10
-12.80612073553655
 20
931.0919977792918
 30
0.0
 10
-13.59262509473463
 20
931.8782817942273
 30
0.0
 10
-14.12884686012006
 20
932.0997827264457
 30
0.0
 10
-15.24113591248538
 20
932.1002173941839
 30
0.0
 10
-15.77701394737618
 20
931.8781402527417
 30
0.0
 10
-16.56420382241036
 20
931.092202194804
 30
0.0
 10
-16.78626034115072
 20
930.5565993296718
 30
0.0
 10
-16.78625781423415
 20
930.0000000000014
 30
0.0
  0
SPLINE
  5
A2
330
1F
100
AcDbEntity
  8
0
  6
Continuous
 62
     7
370
    25
100
AcDbSpline
210
0.0
220
0.0
230
1.0
 70
    11
 71
     3
 72
    22
 73
    18
 74
     0
 42
0.00000001
 43
0.00000001
 40
0.0
 40
0.0
 40
0.0
 40
0.0
 40
0.125
 40
0.125
 40
0.25
 40
0.25
 40
0.375
 40
0.375
 40
0.5
 40
0.5
 40
0.625
 40
0.625
 40
0.75
 40
0.75
 40
0.875
 40
0.875
 40
1.0
 40
1.0
 40
1.0
 40
1.0
 10
-235.7666104095818
 20
-19.99999999999833
 30
0.0
 10
-235.7666078826649
 20
-20.55659932955082
 30
0.0
 10
-235.5441852318629
 20
-21.09201505008432
 30
0.0
 10
-234.7577254961235
 20
-21.87833963452549
 30
0.0
 10
-234.2214685156314
 20
-22.09982363243843
 30
0.0
 10
-233.1092001893224
 20
-22.10017639128145
 30
0.0
 10
-232.5733468940236
 20
-21.87809472194622
 30
0.0
 10
-231.7860925427793
 20
-21.09217337423517
 30
0.0
 10
-231.5641876881453
 20
-20.55610426552066
 30
0.0
 10
-231.5637924029449
 20
-19.44388721294108
 30
0.0
 10
-231.786473330914
 20
-18.90800222065817
 30
0.0
 10
-232.5729776900533
 20
-18.12171820582246
 30
0.0
 10
-233.1091994552276
 20
-17.90021727353345
 30
0.0
 10
-234.2214885080737
 20
-17.89978260583617
 30
0.0
 10
-234.7573665428093
 20
-18.12185974736366
 30
0.0
 10
-235.5445564176731
 20
-18.90779780508986
 30
0.0
 10
-235.7666129364989
 20
-19.44340067044584
 30
0.0
 10
-235.7666104095818
 20
-19.99999999999833
 30
0.0
  0
SPLINE
  5
A3
330
1F
100
AcDbEntity
  8
0
  6
Continuous
 62
     7
370
    25
100
AcDbSpline
210
0.0
220
0.0
230
1.0
 70
    11
 71
     3
 72
    22
 73
    18
 74
     0
 42
0.00000001
 43
0.00000001
 40
0.0
 40
0.0
 40
0.0
 40
0.0
 40
0.125
 40
0.125
 40
0.25
 40
0.25
 40
0.375
 40
0.375
 40
0.5
 40
0.5
 40
0.625
 40
0.625
 40
0.75
 40
0.75
 40
0.875
 40
0.875
 40
1.0
 40
1.0
 40
1.0
 40
1.0
 10
-1549.648725981664
 20
930.0000000000069
 30
0.0
 10
-1549.648723454756
 20
929.4434006705573
 30
0.0
 10
-1549.426300803909
 20
928.9079849498239
 30
0.0
 10
-1548.63984106824
 20
928.1216603655765
 30
0.0
 10
-1548.103584087412
 20
927.9001763675868
 30
0.0
 10
-1546.991315761703
 20
927.8998236087027
 30
0.0
 10
-1546.455462465922
 20
928.1219052781996
 30
0.0
 10
-1545.668208115043
 20
928.9078266256287
 30
0.0
 10
-1545.446303260226
 20
929.4438957342846
 30
0.0
 10
-1545.445907975026
 20
930.5561127872631
 30
0.0
 10
-1545.66858890297
 20
931.091997779342
 30
0.0
 10
-1546.45509326216
 20
931.8782817941869
 30
0.0
 10
-1546.991315027451
 20
932.0997827264922
 30
0.0
 10
-1548.103604080014
 20
932.1002173941481
 30
0.0
 10
-1548.639482115205
 20
931.8781402522251
 30
0.0
 10
-1549.426671989441
 20
931.0922021953309
 30
0.0
 10
-1549.648728508572
 20
930.5565993294565
 30
0.0
 10
-1549.648725981664
 20
930.0000000000069
 30
0.0
  0
SPLINE
  5
A4
330
1F
100
AcDbEntity
  8
0
  6
Continuous
 62
     7
370
    25
100
AcDbSpline
210
0.0
220
0.0
230
1.0
 70
    11
 71
     3
 72
    22
 73
    18
 74
     0
 42
0.00000001
 43
0.00000001
 40
0.0
 40
0.0
 40
0.0
 40
0.0
 40
0.125
 40
0.125
 40
0.25
 40
0.25
 40
0.375
 40
0.375
 40
0.5
 40
0.5
 40
0.625
 40
0.625
 40
0.75
 40
0.75
 40
0.875
 40
0.875
 40
1.0
 40
1.0
 40
1.0
 40
1.0
 10
-235.7666104095805
 20
930.0000000000017
 30
0.0
 10
-235.7666078826653
 20
929.4434006704159
 30
0.0
 10
-235.5441852318977
 20
928.9079849499728
 30
0.0
 10
-234.757725496086
 20
928.1216603654178
 30
0.0
 10
-234.2214685159127
 20
927.9001763675825
 30
0.0
 10
-233.1092001890384
 20
927.899823608698
 30
0.0
 10
-232.5733468940112
 20
928.1219052779006
 30
0.0
 10
-231.7860925427895
 20
928.9078266259186
 30
0.0
 10
-231.5641876882265
 20
929.44389573448
 30
0.0
 10
-231.5637924028611
 20
930.5561127870587
 30
0.0
 10
-231.7864733309833
 20
931.0919977793508
 30
0.0
 10
-232.5729776899811
 20
931.8782817941686
 30
0.0
 10
-233.1091994551854
 20
932.099782726487
 30
0.0
 10
-234.2214885081133
 20
932.1002173941431
 30
0.0
 10
-234.7573665427824
 20
931.8781402526006
 30
0.0
 10
-235.5445564176979
 20
931.0922021949461
 30
0.0
 10
-235.7666129364958
 20
930.5565993295875
 30
0.0
 10
-235.7666104095805
 20
930.0000000000017
 30
0.0
  0
ENDSEC
  0
SECTION
  2
OBJECTS
  0
DICTIONARY
  5
C
330
0
100
AcDbDictionary
281
     1
  3
ACAD_GROUP
350
D
  3
ACAD_LAYOUT
350
1A
  3
ACAD_MLINESTYLE
350
17
  3
ACAD_PLOTSETTINGS
350
19
  3
ACAD_PLOTSTYLENAME
350
E
  3
ACAD_SCALELIST
350
47
  3
DWGPROPS
350
A5
  0
DICTIONARY
  5
D
102
{ACAD_REACTORS
330
C
102
}
330
C
100
AcDbDictionary
281
     1
  0
DICTIONARY
  5
1A
102
{ACAD_REACTORS
330
C
102
}
330
C
100
AcDbDictionary
281
     1
  3
Layout1
350
1E
  3
Layout2
350
26
  3
Model
350
22
  0
DICTIONARY
  5
17
102
{ACAD_REACTORS
330
C
102
}
330
C
100
AcDbDictionary
281
     1
  3
Standard
350
18
  0
DICTIONARY
  5
19
102
{ACAD_REACTORS
330
C
102
}
330
C
100
AcDbDictionary
281
     1
  0
ACDBDICTIONARYWDFLT
  5
E
102
{ACAD_REACTORS
330
C
102
}
330
C
100
AcDbDictionary
281
     1
  3
Normal
350
F
100
AcDbDictionaryWithDefault
340
F
  0
DICTIONARY
  5
47
102
{ACAD_REACTORS
330
C
102
}
330
C
100
AcDbDictionary
281
     1
  3
A0
350
48
  3
A1
350
49
  3
A2
350
4A
  3
A3
350
4B
  3
A4
350
4C
  3
A5
350
4D
  3
A6
350
4E
  3
A7
350
4F
  3
A8
350
50
  3
A9
350
51
  3
B0
350
52
  3
B1
350
53
  3
B2
350
54
  3
B3
350
55
  3
B4
350
56
  3
B5
350
57
  3
B6
350
58
  0
XRECORD
  5
A5
102
{ACAD_REACTORS
330
C
102
}
330
C
100
AcDbXrecord
280
     1
  1
DWGPROPS COOKIE
  2

  3

  4

  6

  7

  8
ademathieu
  9

300
=
301
=
302
=
303
=
304
=
305
=
306
=
307
=
308
=
309
=
 40
0.0
 41
2460137.406760868
 42
2460137.406785914
  1

 90
        0
  0
LAYOUT
  5
1E
102
{ACAD_REACTORS
330
1A
102
}
330
1A
100
AcDbPlotSettings
  1

  2
none_device
  4

  6

 40
0.0
 41
0.0
 42
0.0
 43
0.0
 44
0.0
 45
0.0
 46
0.0
 47
0.0
 48
0.0
 49
0.0
140
0.0
141
0.0
142
1.0
143
1.0
 70
   688
 72
     1
 73
     0
 74
     5
  7

 75
    16
147
1.0
148
0.0
149
0.0
100
AcDbLayout
  1
Layout1
 70
     1
 71
     1
 10
0.0
 20
0.0
 11
420.0
 21
297.0
 12
0.0
 22
0.0
 32
0.0
 14
1.0000000000E+20
 24
1.0000000000E+20
 34
1.0000000000E+20
 15
-1.0000000000E+20
 25
-1.0000000000E+20
 35
-1.0000000000E+20
146
0.0
 13
0.0
 23
0.0
 33
0.0
 16
1.0
 26
0.0
 36
0.0
 17
0.0
 27
1.0
 37
0.0
 76
     0
330
1B
  0
LAYOUT
  5
26
102
{ACAD_REACTORS
330
1A
102
}
330
1A
100
AcDbPlotSettings
  1

  2
none_device
  4

  6

 40
0.0
 41
0.0
 42
0.0
 43
0.0
 44
0.0
 45
0.0
 46
0.0
 47
0.0
 48
0.0
 49
0.0
140
0.0
141
0.0
142
1.0
143
1.0
 70
   688
 72
     1
 73
     0
 74
     5
  7

 75
    16
147
1.0
148
0.0
149
0.0
100
AcDbLayout
  1
Layout2
 70
     1
 71
     2
 10
0.0
 20
0.0
 11
0.0
 21
0.0
 12
0.0
 22
0.0
 32
0.0
 14
0.0
 24
0.0
 34
0.0
 15
0.0
 25
0.0
 35
0.0
146
0.0
 13
0.0
 23
0.0
 33
0.0
 16
1.0
 26
0.0
 36
0.0
 17
0.0
 27
1.0
 37
0.0
 76
     0
330
23
  0
LAYOUT
  5
22
102
{ACAD_REACTORS
330
1A
102
}
330
1A
100
AcDbPlotSettings
  1

  2
none_device
  4
ANSI_A_(11.00_x_8.50_Inches)
  6

 40
6.35
 41
19.05
 42
6.35000508
 43
19.05000254
 44
279.4
 45
215.9
 46
271.65299746
 47
15.2423262888
 48
0.0
 49
0.0
140
0.0
141
0.0
142
0.0062096539
143
1.0
 70
  1696
 72
     0
 73
     0
 74
     0
  7

 75
     0
147
0.0179189148
148
-1300.4909072572
149
0.0
100
AcDbLayout
  1
Model
 70
     1
 71
     0
 10
0.0
 20
0.0
 11
420.0
 21
297.0
 12
0.0
 22
0.0
 32
0.0
 14
-1753.7209325092
 24
-36.0
 34
0.0
 15
0.0
 25
970.0
 35
0.0
146
0.0
 13
0.0
 23
0.0
 33
0.0
 16
1.0
 26
0.0
 36
0.0
 17
0.0
 27
1.0
 37
0.0
 76
     0
330
1F
331
29
  0
MLINESTYLE
  5
18
102
{ACAD_REACTORS
330
17
102
}
330
17
100
AcDbMlineStyle
  2
Standard
 70
     0
  3

 62
   256
 51
90.0
 52
90.0
 71
     2
 49
0.5
 62
   256
  6
BYLAYER
 49
-0.5
 62
   256
  6
BYLAYER
  0
ACDBPLACEHOLDER
  5
F
102
{ACAD_REACTORS
330
E
102
}
330
E
  0
SCALE
  5
48
102
{ACAD_REACTORS
330
47
102
}
330
47
100
AcDbScale
 70
     0
300
1:1
140
1.0
141
1.0
290
     1
  0
SCALE
  5
49
102
{ACAD_REACTORS
330
47
102
}
330
47
100
AcDbScale
 70
     0
300
1:2
140
1.0
141
2.0
290
     0
  0
SCALE
  5
4A
102
{ACAD_REACTORS
330
47
102
}
330
47
100
AcDbScale
 70
     0
300
1:4
140
1.0
141
4.0
290
     0
  0
SCALE
  5
4B
102
{ACAD_REACTORS
330
47
102
}
330
47
100
AcDbScale
 70
     0
300
1:5
140
1.0
141
5.0
290
     0
  0
SCALE
  5
4C
102
{ACAD_REACTORS
330
47
102
}
330
47
100
AcDbScale
 70
     0
300
1:8
140
1.0
141
8.0
290
     0
  0
SCALE
  5
4D
102
{ACAD_REACTORS
330
47
102
}
330
47
100
AcDbScale
 70
     0
300
1:10
140
1.0
141
10.0
290
     0
  0
SCALE
  5
4E
102
{ACAD_REACTORS
330
47
102
}
330
47
100
AcDbScale
 70
     0
300
1:16
140
1.0
141
16.0
290
     0
  0
SCALE
  5
4F
102
{ACAD_REACTORS
330
47
102
}
330
47
100
AcDbScale
 70
     0
300
1:20
140
1.0
141
20.0
290
     0
  0
SCALE
  5
50
102
{ACAD_REACTORS
330
47
102
}
330
47
100
AcDbScale
 70
     0
300
1:30
140
1.0
141
30.0
290
     0
  0
SCALE
  5
51
102
{ACAD_REACTORS
330
47
102
}
330
47
100
AcDbScale
 70
     0
300
1:40
140
1.0
141
40.0
290
     0
  0
SCALE
  5
52
102
{ACAD_REACTORS
330
47
102
}
330
47
100
AcDbScale
 70
     0
300
1:50
140
1.0
141
50.0
290
     0
  0
SCALE
  5
53
102
{ACAD_REACTORS
330
47
102
}
330
47
100
AcDbScale
 70
     0
300
1:100
140
1.0
141
100.0
290
     0
  0
SCALE
  5
54
102
{ACAD_REACTORS
330
47
102
}
330
47
100
AcDbScale
 70
     0
300
2:1
140
2.0
141
1.0
290
     0
  0
SCALE
  5
55
102
{ACAD_REACTORS
330
47
102
}
330
47
100
AcDbScale
 70
     0
300
4:1
140
4.0
141
1.0
290
     0
  0
SCALE
  5
56
102
{ACAD_REACTORS
330
47
102
}
330
47
100
AcDbScale
 70
     0
300
8:1
140
8.0
141
1.0
290
     0
  0
SCALE
  5
57
102
{ACAD_REACTORS
330
47
102
}
330
47
100
AcDbScale
 70
     0
300
10:1
140
10.0
141
1.0
290
     0
  0
SCALE
  5
58
102
{ACAD_REACTORS
330
47
102
}
330
47
100
AcDbScale
 70
     0
300
100:1
140
100.0
141
1.0
290
     0
  0
ENDSEC
  0
EOF
