  0
SECTION
  2
HEADER
  9
$ACADVER
  1
AC1015
  9
$ACADMAINTVER
 70
     6
  9
$DWGCODEPAGE
  3
ANSI_1252
  9
$INSBASE
 10
0.0
 20
0.0
 30
0.0
  9
$EXTMIN
 10
-532.0
 20
-578.887726593
 30
0.0
  9
$EXTMAX
 10
532.0
 20
532.0
 30
0.0
  9
$LIMMIN
 10
0.0
 20
0.0
  9
$LIMMAX
 10
420.0
 20
297.0
  9
$ORTHOMODE
 70
     0
  9
$REGENMODE
 70
     1
  9
$FILLMODE
 70
     1
  9
$QTEXTMODE
 70
     0
  9
$MIRRTEXT
 70
     1
  9
$LTSCALE
 40
1.0
  9
$ATTMODE
 70
     1
  9
$TEXTSIZE
 40
3.5
  9
$TRACEWID
 40
1.0
  9
$TEXTSTYLE
  7
Standard
  9
$CLAYER
  8
0
  9
$CELTYPE
  6
ByLayer
  9
$CECOLOR
 62
   256
  9
$CELTSCALE
 40
1.0
  9
$DISPSILH
 70
     0
  9
$DIMSCALE
 40
1.0
  9
$DIMASZ
 40
3.302
  9
$DIMEXO
 40
0.0
  9
$DIMDLI
 40
3.75
  9
$DIMRND
 40
0.0
  9
$DIMDLE
 40
0.0
  9
$DIMEXE
 40
1.0
  9
$DIMTP
 40
0.0
  9
$DIMTM
 40
0.0
  9
$DIMTXT
 40
3.5
  9
$DIMCEN
 40
2.5
  9
$DIMTSZ
 40
0.0
  9
$DIMTOL
 70
     0
  9
$DIMLIM
 70
     0
  9
$DIMTIH
 70
     1
  9
$DIMTOH
 70
     1
  9
$DIMSE1
 70
     0
  9
$DIMSE2
 70
     0
  9
$DIMTAD
 70
     1
  9
$DIMZIN
 70
     1
  9
$DIMBLK
  1

  9
$DIMASO
 70
     1
  9
$DIMSHO
 70
     1
  9
$DIMPOST
  1

  9
$DIMAPOST
  1

  9
$DIMALT
 70
     0
  9
$DIMALTD
 70
     3
  9
$DIMALTF
 40
0.0393700787
  9
$DIMLFAC
 40
1.0
  9
$DIMTOFL
 70
     1
  9
$DIMTVP
 40
0.0
  9
$DIMTIX
 70
     0
  9
$DIMSOXD
 70
     0
  9
$DIMSAH
 70
     0
  9
$DIMBLK1
  1

  9
$DIMBLK2
  1

  9
$DIMSTYLE
  2
ISO-25
  9
$DIMCLRD
 70
     0
  9
$DIMCLRE
 70
     0
  9
$DIMCLRT
 70
     0
  9
$DIMTFAC
 40
1.0
  9
$DIMGAP
 40
1.524
  9
$DIMJUST
 70
     0
  9
$DIMSD1
 70
     0
  9
$DIMSD2
 70
     0
  9
$DIMTOLJ
 70
     0
  9
$DIMTZIN
 70
     1
  9
$DIMALTZ
 70
     0
  9
$DIMALTTZ
 70
     0
  9
$DIMUPT
 70
     0
  9
$DIMDEC
 70
     2
  9
$DIMTDEC
 70
     2
  9
$DIMALTU
 70
     2
  9
$DIMALTTD
 70
     3
  9
$DIMTXSTY
  7
Standard
  9
$DIMAUNIT
 70
     0
  9
$DIMADEC
 70
     2
  9
$DIMALTRND
 40
0.0
  9
$DIMAZIN
 70
     0
  9
$DIMDSEP
 70
    44
  9
$DIMATFIT
 70
     3
  9
$DIMFRAC
 70
     0
  9
$DIMLDRBLK
  1

  9
$DIMLUNIT
 70
     2
  9
$DIMLWD
 70
    -2
  9
$DIMLWE
 70
    -2
  9
$DIMTMOVE
 70
     0
  9
$LUNITS
 70
     2
  9
$LUPREC
 70
     3
  9
$SKETCHINC
 40
1.0
  9
$FILLETRAD
 40
0.0
  9
$AUNITS
 70
     0
  9
$AUPREC
 70
     2
  9
$MENU
  1
.
  9
$ELEVATION
 40
0.0
  9
$PELEVATION
 40
0.0
  9
$THICKNESS
 40
0.0
  9
$LIMCHECK
 70
     0
  9
$CHAMFERA
 40
0.0
  9
$CHAMFERB
 40
0.0
  9
$CHAMFERC
 40
0.0
  9
$CHAMFERD
 40
0.0
  9
$SKPOLY
 70
     0
  9
$TDCREATE
 40
2459886.72481691
  9
$TDUCREATE
 40
2459886.683150243
  9
$TDUPDATE
 40
2459886.725273079
  9
$TDUUPDATE
 40
2459886.683606412
  9
$TDINDWG
 40
0.0000000116
  9
$TDUSRTIMER
 40
0.0000000116
  9
$USRTIMER
 70
     1
  9
$ANGBASE
 50
0.0
  9
$ANGDIR
 70
     0
  9
$PDMODE
 70
     0
  9
$PDSIZE
 40
-1.0
  9
$PLINEWID
 40
0.0
  9
$SPLFRAME
 70
     0
  9
$SPLINETYPE
 70
     6
  9
$SPLINESEGS
 70
     8
  9
$HANDSEED
  5
AC
  9
$SURFTAB1
 70
     6
  9
$SURFTAB2
 70
     6
  9
$SURFTYPE
 70
     6
  9
$SURFU
 70
     6
  9
$SURFV
 70
     6
  9
$UCSBASE
  2

  9
$UCSNAME
  2

  9
$UCSORG
 10
0.0
 20
0.0
 30
0.0
  9
$UCSXDIR
 10
1.0
 20
0.0
 30
0.0
  9
$UCSYDIR
 10
0.0
 20
1.0
 30
0.0
  9
$UCSORTHOREF
  2

  9
$UCSORTHOVIEW
 70
     0
  9
$UCSORGTOP
 10
0.0
 20
0.0
 30
0.0
  9
$UCSORGBOTTOM
 10
0.0
 20
0.0
 30
0.0
  9
$UCSORGLEFT
 10
0.0
 20
0.0
 30
0.0
  9
$UCSORGRIGHT
 10
0.0
 20
0.0
 30
0.0
  9
$UCSORGFRONT
 10
0.0
 20
0.0
 30
0.0
  9
$UCSORGBACK
 10
0.0
 20
0.0
 30
0.0
  9
$PUCSBASE
  2

  9
$PUCSNAME
  2

  9
$PUCSORG
 10
0.0
 20
0.0
 30
0.0
  9
$PUCSXDIR
 10
1.0
 20
0.0
 30
0.0
  9
$PUCSYDIR
 10
0.0
 20
1.0
 30
0.0
  9
$PUCSORTHOREF
  2

  9
$PUCSORTHOVIEW
 70
     0
  9
$PUCSORGTOP
 10
0.0
 20
0.0
 30
0.0
  9
$PUCSORGBOTTOM
 10
0.0
 20
0.0
 30
0.0
  9
$PUCSORGLEFT
 10
0.0
 20
0.0
 30
0.0
  9
$PUCSORGRIGHT
 10
0.0
 20
0.0
 30
0.0
  9
$PUCSORGFRONT
 10
0.0
 20
0.0
 30
0.0
  9
$PUCSORGBACK
 10
0.0
 20
0.0
 30
0.0
  9
$USERI1
 70
     0
  9
$USERI2
 70
     0
  9
$USERI3
 70
     0
  9
$USERI4
 70
     0
  9
$USERI5
 70
     0
  9
$USERR1
 40
0.0
  9
$USERR2
 40
0.0
  9
$USERR3
 40
0.0
  9
$USERR4
 40
0.0
  9
$USERR5
 40
0.0
  9
$WORLDVIEW
 70
     1
  9
$SHADEDGE
 70
     3
  9
$SHADEDIF
 70
    70
  9
$TILEMODE
 70
     1
  9
$MAXACTVP
 70
    64
  9
$PINSBASE
 10
0.0
 20
0.0
 30
0.0
  9
$PLIMCHECK
 70
     0
  9
$PEXTMIN
 10
1.0000000000E+20
 20
1.0000000000E+20
 30
1.0000000000E+20
  9
$PEXTMAX
 10
-1.0000000000E+20
 20
-1.0000000000E+20
 30
-1.0000000000E+20
  9
$PLIMMIN
 10
0.0
 20
0.0
  9
$PLIMMAX
 10
420.0
 20
297.0
  9
$UNITMODE
 70
     0
  9
$VISRETAIN
 70
     1
  9
$PLINEGEN
 70
     0
  9
$PSLTSCALE
 70
     1
  9
$TREEDEPTH
 70
  3020
  9
$CMLSTYLE
  2
Standard
  9
$CMLJUST
 70
     0
  9
$CMLSCALE
 40
20.0
  9
$PROXYGRAPHICS
 70
     1
  9
$MEASUREMENT
 70
     1
  9
$CELWEIGHT
370
    -1
  9
$ENDCAPS
280
     0
  9
$JOINSTYLE
280
     0
  9
$LWDISPLAY
290
     1
  9
$INSUNITS
 70
     4
  9
$HYPERLINKBASE
  1

  9
$STYLESHEET
  1

  9
$XEDIT
290
     1
  9
$CEPSNTYPE
380
     0
  9
$PSTYLEMODE
290
     1
  9
$FINGERPRINTGUID
  2
{d4311892-d59d-40ea-854f-fff21c6d4e25}
  9
$VERSIONGUID
  2
{FAEB1C32-E019-11D5-929B-00C0DF256EC4}
  9
$EXTNAMES
290
     1
  9
$PSVPSCALE
 40
0.0
  9
$OLESTARTUP
290
     0
  0
ENDSEC
  0
SECTION
  2
CLASSES
  0
CLASS
  1
ACDBDICTIONARYWDFLT
  2
AcDbDictionaryWithDefault
  3
ObjectDBX Classes
 90
        0
280
     0
281
     0
  0
CLASS
  1
VISUALSTYLE
  2
AcDbVisualStyle
  3
ObjectDBX Classes
 90
     4095
280
     0
281
     0
  0
CLASS
  1
MATERIAL
  2
AcDbMaterial
  3
ObjectDBX Classes
 90
     1153
280
     0
281
     0
  0
CLASS
  1
SCALE
  2
AcDbScale
  3
ObjectDBX Classes
 90
     1153
280
     0
281
     0
  0
CLASS
  1
TABLESTYLE
  2
AcDbTableStyle
  3
ObjectDBX Classes
 90
     4095
280
     0
281
     0
  0
CLASS
  1
MLEADERSTYLE
  2
AcDbMLeaderStyle
  3
ACDB_MLEADERSTYLE_CLASS
 90
     4095
280
     0
281
     0
  0
CLASS
  1
SUN
  2
AcDbSun
  3
SCENEOE
 90
     1153
280
     0
281
     0
  0
CLASS
  1
ACDBPLACEHOLDER
  2
AcDbPlaceHolder
  3
ObjectDBX Classes
 90
        0
280
     0
281
     0
  0
CLASS
  1
LAYOUT
  2
AcDbLayout
  3
ObjectDBX Classes
 90
        0
280
     0
281
     0
  0
ENDSEC
  0
SECTION
  2
TABLES
  0
TABLE
  2
VPORT
  5
8
330
0
100
AcDbSymbolTable
 70
     1
  0
VPORT
  5
29
330
8
100
AcDbSymbolTableRecord
100
AcDbViewportTableRecord
  2
*Active
 70
     0
 10
0.0
 20
0.0
 11
1.0
 21
1.0
 12
0.0
 22
-23.4438632965
 13
0.0
 23
0.0
 14
10.0
 24
10.0
 15
10.0
 25
10.0
 16
0.0
 26
0.0
 36
1.0
 17
0.0
 27
0.0
 37
0.0
 40
1133.1054811249
 41
0.9577925604
 42
50.0
 43
0.0
 44
0.0
 50
0.0
 51
0.0
 71
     0
 72
   100
 73
     1
 74
     3
 75
     0
 76
     0
 77
     0
 78
     0
281
     0
 65
     1
110
0.0
120
0.0
130
0.0
111
1.0
121
0.0
131
0.0
112
0.0
122
1.0
132
0.0
 79
     0
146
0.0
  0
ENDTAB
  0
TABLE
  2
LTYPE
  5
5
330
0
100
AcDbSymbolTable
 70
     6
  0
LTYPE
  5
14
330
5
100
AcDbSymbolTableRecord
100
AcDbLinetypeTableRecord
  2
ByBlock
 70
     0
  3

 72
    65
 73
     0
 40
0.0
  0
LTYPE
  5
15
330
5
100
AcDbSymbolTableRecord
100
AcDbLinetypeTableRecord
  2
ByLayer
 70
     0
  3

 72
    65
 73
     0
 40
0.0
  0
LTYPE
  5
16
330
5
100
AcDbSymbolTableRecord
100
AcDbLinetypeTableRecord
  2
Continuous
 70
     0
  3
Solid line
 72
    65
 73
     0
 40
0.0
  0
LTYPE
  5
5E
330
5
100
AcDbSymbolTableRecord
100
AcDbLinetypeTableRecord
  2
HIDDEN
 70
     0
  3
Hidden __ __ __ __ __ __ __ __ __ __ __ __ __ __
 72
    65
 73
     2
 40
1.905
 49
1.27
 74
     0
 49
-0.635
 74
     0
  0
LTYPE
  5
5F
330
5
100
AcDbSymbolTableRecord
100
AcDbLinetypeTableRecord
  2
PHANTOM
 70
     0
  3
Phantom ______  __  __  ______  __  __  ______
 72
    65
 73
     6
 40
12.7
 49
6.35
 74
     0
 49
-1.27
 74
     0
 49
1.27
 74
     0
 49
-1.27
 74
     0
 49
1.27
 74
     0
 49
-1.27
 74
     0
  0
LTYPE
  5
60
330
5
100
AcDbSymbolTableRecord
100
AcDbLinetypeTableRecord
  2
CENTER
 70
     0
  3
Center ____ _ ____ _ ____ _ ____ _ ____ _ ____
 72
    65
 73
     4
 40
10.16
 49
6.35
 74
     0
 49
-1.27
 74
     0
 49
1.27
 74
     0
 49
-1.27
 74
     0
  0
LTYPE
  5
61
330
5
100
AcDbSymbolTableRecord
100
AcDbLinetypeTableRecord
  2
CENTERX2
 70
     0
  3
Center (2x) ________  __  ________  __  _____
 72
    65
 73
     4
 40
20.32
 49
12.7
 74
     0
 49
-2.54
 74
     0
 49
2.54
 74
     0
 49
-2.54
 74
     0
  0
LTYPE
  5
62
330
5
100
AcDbSymbolTableRecord
100
AcDbLinetypeTableRecord
  2
DOT2
 70
     0
  3
Dot (.5x) ........................................
 72
    65
 73
     2
 40
0.635
 49
0.0
 74
     0
 49
-0.635
 74
     0
  0
ENDTAB
  0
TABLE
  2
LAYER
  5
2
330
0
100
AcDbSymbolTable
 70
     1
  0
LAYER
  5
10
330
2
100
AcDbSymbolTableRecord
100
AcDbLayerTableRecord
  2
0
 70
     0
 62
     7
  6
Continuous
370
    -3
390
F
  0
ENDTAB
  0
TABLE
  2
STYLE
  5
3
330
0
100
AcDbSymbolTable
 70
     1
  0
STYLE
  5
11
330
3
100
AcDbSymbolTableRecord
100
AcDbTextStyleTableRecord
  2
Standard
 70
     0
 40
0.0
 41
1.0
 50
0.0
 71
     0
 42
3.5
  3
txt
  4

  0
ENDTAB
  0
TABLE
  2
VIEW
  5
6
330
0
100
AcDbSymbolTable
 70
     0
  0
ENDTAB
  0
TABLE
  2
UCS
  5
7
330
0
100
AcDbSymbolTable
 70
     0
  0
ENDTAB
  0
TABLE
  2
APPID
  5
9
330
0
100
AcDbSymbolTable
 70
     1
  0
APPID
  5
12
330
9
100
AcDbSymbolTableRecord
100
AcDbRegAppTableRecord
  2
ACAD
 70
     0
  0
ENDTAB
  0
TABLE
  2
DIMSTYLE
  5
A
330
0
100
AcDbSymbolTable
 70
     1
100
AcDbDimStyleTable
  0
DIMSTYLE
105
27
330
A
100
AcDbSymbolTableRecord
100
AcDbDimStyleTableRecord
  2
ISO-25
 70
     0
 41
2.5
 42
0.625
 43
3.75
 44
1.25
 73
     0
 74
     0
 77
     1
 78
     8
140
2.5
141
2.5
143
0.0393700787
147
0.625
171
     3
172
     1
178
     0
271
     2
272
     2
274
     3
278
    44
283
     0
284
     8
340
11
  0
ENDTAB
  0
TABLE
  2
BLOCK_RECORD
  5
1
330
0
100
AcDbSymbolTable
 70
     1
  0
BLOCK_RECORD
  5
1F
330
1
100
AcDbSymbolTableRecord
100
AcDbBlockTableRecord
  2
*Model_Space
340
22
  0
BLOCK_RECORD
  5
1B
330
1
100
AcDbSymbolTableRecord
100
AcDbBlockTableRecord
  2
*Paper_Space
340
1E
  0
BLOCK_RECORD
  5
23
330
1
100
AcDbSymbolTableRecord
100
AcDbBlockTableRecord
  2
*Paper_Space0
340
26
  0
ENDTAB
  0
ENDSEC
  0
SECTION
  2
BLOCKS
  0
BLOCK
  5
20
330
1F
100
AcDbEntity
  8
0
100
AcDbBlockBegin
  2
*Model_Space
 70
     0
 10
0.0
 20
0.0
 30
0.0
  3
*Model_Space
  1

  0
ENDBLK
  5
21
330
1F
100
AcDbEntity
  8
0
100
AcDbBlockEnd
  0
BLOCK
  5
1C
330
1B
100
AcDbEntity
 67
     1
  8
0
100
AcDbBlockBegin
  2
*Paper_Space
 70
     0
 10
0.0
 20
0.0
 30
0.0
  3
*Paper_Space
  1

  0
ENDBLK
  5
1D
330
1B
100
AcDbEntity
 67
     1
  8
0
100
AcDbBlockEnd
  0
BLOCK
  5
24
330
23
100
AcDbEntity
  8
0
100
AcDbBlockBegin
  2
*Paper_Space0
 70
     0
 10
0.0
 20
0.0
 30
0.0
  3
*Paper_Space0
  1

  0
ENDBLK
  5
25
330
23
100
AcDbEntity
  8
0
100
AcDbBlockEnd
  0
ENDSEC
  0
SECTION
  2
ENTITIES
  0
CIRCLE
  5
83
330
1F
100
AcDbEntity
  8
0
  6
Continuous
 62
     7
370
    25
100
AcDbCircle
 10
0.0
 20
0.0
 30
0.0
 40
21.0
  0
SPLINE
  5
85
330
1F
100
AcDbEntity
  8
0
  6
Continuous
 62
     7
370
    25
100
AcDbSpline
210
0.0
220
0.0
230
1.0
 70
     8
 71
     3
 72
   116
 73
   112
 74
     0
 42
0.00000001
 43
0.00000001
 40
0.0
 40
0.0
 40
0.0
 40
0.0
 40
0.0312499999999999
 40
0.0312499999999999
 40
0.0468749999999999
 40
0.0468749999999999
 40
0.0624999999999998
 40
0.0624999999999998
 40
0.0781249999999998
 40
0.0781249999999998
 40
0.0937499999999998
 40
0.0937499999999998
 40
0.1093749999999997
 40
0.1093749999999997
 40
0.1249999999999997
 40
0.1249999999999997
 40
0.1406249999999997
 40
0.1406249999999997
 40
0.1562499999999996
 40
0.1562499999999996
 40
0.1718749999999996
 40
0.1718749999999996
 40
0.1874999999999995
 40
0.1874999999999995
 40
0.2031249999999995
 40
0.2031249999999995
 40
0.2187499999999994
 40
0.2187499999999994
 40
0.2499999999999994
 40
0.2499999999999994
 40
0.2656249999999993
 40
0.2656249999999993
 40
0.2812499999999993
 40
0.2812499999999993
 40
0.2968749999999993
 40
0.2968749999999993
 40
0.3124999999999993
 40
0.3124999999999993
 40
0.3281249999999993
 40
0.3281249999999993
 40
0.3437499999999993
 40
0.3437499999999993
 40
0.3593749999999993
 40
0.3593749999999993
 40
0.3749999999999993
 40
0.3749999999999993
 40
0.4062499999999993
 40
0.4062499999999993
 40
0.4218749999999993
 40
0.4218749999999993
 40
0.4374999999999993
 40
0.4374999999999993
 40
0.4531249999999993
 40
0.4531249999999993
 40
0.4687499999999993
 40
0.4687499999999993
 40
0.4843749999999993
 40
0.4843749999999993
 40
0.4999999999999993
 40
0.4999999999999993
 40
0.5156249999999993
 40
0.5156249999999993
 40
0.5312499999999992
 40
0.5312499999999992
 40
0.5624999999999993
 40
0.5624999999999993
 40
0.5781249999999992
 40
0.5781249999999992
 40
0.5937499999999992
 40
0.5937499999999992
 40
0.6249999999999991
 40
0.6249999999999991
 40
0.6562499999999991
 40
0.6562499999999991
 40
0.671874999999999
 40
0.671874999999999
 40
0.687499999999999
 40
0.687499999999999
 40
0.703124999999999
 40
0.703124999999999
 40
0.7187499999999989
 40
0.7187499999999989
 40
0.7499999999999989
 40
0.7499999999999989
 40
0.765624999999999
 40
0.765624999999999
 40
0.7812499999999991
 40
0.7812499999999991
 40
0.7968749999999991
 40
0.7968749999999991
 40
0.8124999999999992
 40
0.8124999999999992
 40
0.8281249999999993
 40
0.8281249999999993
 40
0.8437499999999993
 40
0.8437499999999993
 40
0.8593749999999994
 40
0.8593749999999994
 40
0.8749999999999996
 40
0.8749999999999996
 40
0.8906249999999996
 40
0.8906249999999996
 40
0.9062499999999997
 40
0.9062499999999997
 40
0.9374999999999998
 40
0.9374999999999998
 40
0.9531249999999999
 40
0.9531249999999999
 40
0.96875
 40
0.96875
 40
1.0
 40
1.0
 40
1.0
 40
1.0
 10
268.9999999954825
 20
-454.3379370532971
 30
0.0
 10
293.6761402985175
 20
-439.7258597413791
 30
0.0
 10
317.1600354236372
 20
-423.1036130018758
 30
0.0
 10
350.127412618615
 20
-395.4720908949037
 30
0.0
 10
360.7425369470437
 20
-385.8150520919509
 30
0.0
 10
381.1518191680025
 20
-365.6689439278525
 30
0.0
 10
390.9430078387453
 20
-355.1774162175357
 30
0.0
 10
409.6436505134649
 20
-333.4363166149323
 30
0.0
 10
418.5514585335827
 20
-322.185114515145
 30
0.0
 10
435.4197477067465
 20
-298.9929666559215
 30
0.0
 10
443.3817771294651
 20
-287.053704628247
 30
0.0
 10
458.3079402143853
 20
-262.5672437284623
 30
0.0
 10
465.2730166592395
 20
-250.0200840616238
 30
0.0
 10
478.1550735411495
 20
-224.3986497324828
 30
0.0
 10
484.0761029255764
 20
-211.3266767105062
 30
0.0
 10
494.8336852707761
 20
-184.743094112198
 30
0.0
 10
499.6673796340249
 20
-171.2311383324789
 30
0.0
 10
508.2248107634297
 20
-143.8601307953532
 30
0.0
 10
511.9458683527005
 20
-130.0005323423512
 30
0.0
 10
518.2463561501055
 20
-102.0233076312891
 30
0.0
 10
520.8266488922808
 20
-87.90682292621372
 30
0.0
 10
524.8308461062969
 20
-59.51011042523533
 30
0.0
 10
526.2536889336012
 20
-45.23017092843926
 30
0.0
 10
527.9328294369269
 20
-16.60200618774453
 30
0.0
 10
528.1901794142104
 20
-2.253427764873403
 30
0.0
 10
527.5331831656054
 20
26.41624066333502
 30
0.0
 10
526.6215281916997
 20
40.73772540644172
 30
0.0
 10
522.1403723248694
 20
83.5204812972353
 30
0.0
 10
516.8258406068394
 20
111.7975344143478
 30
0.0
 10
505.462374582708
 20
153.2855309162465
 30
0.0
 10
501.1112580595423
 20
166.9608012430516
 30
0.0
 10
491.3127802423953
 20
193.911872689377
 30
0.0
 10
485.8627304248958
 20
207.1866588481354
 30
0.0
 10
473.9013442417576
 20
233.2501072071056
 30
0.0
 10
467.3914681408752
 20
246.0383347652604
 30
0.0
 10
453.3492304897528
 20
271.0424999044787
 30
0.0
 10
445.8169136306458
 20
283.258026102015
 30
0.0
 10
429.7874734064854
 20
307.0359760731865
 30
0.0
 10
421.2891996389311
 20
318.5993568153722
 30
0.0
 10
403.3756538965825
 20
340.9933042383228
 30
0.0
 10
393.9631502446532
 20
351.8244923314333
 30
0.0
 10
374.2886505059346
 20
372.6891289324073
 30
0.0
 10
364.0267648239153
 20
382.7193442799725
 30
0.0
 10
342.717615105749
 20
401.9105206450067
 30
0.0
 10
331.6733712697103
 20
411.0724247120605
 30
0.0
 10
297.4764729511323
 20
437.1676855716283
 30
0.0
 10
273.2568074218368
 20
452.6977040505216
 30
0.0
 10
235.2798610547968
 20
472.8993037695578
 30
0.0
 10
222.3456416072624
 20
479.1140973598951
 30
0.0
 10
196.0146202643428
 20
490.4752253379325
 30
0.0
 10
182.6178534085974
 20
495.6213029661749
 30
0.0
 10
155.4519611613588
 20
504.8010073749146
 30
0.0
 10
141.6793421904574
 20
508.8365362371421
 30
0.0
 10
113.854607525767
 20
515.7769143724662
 30
0.0
 10
99.80182994103927
 20
518.6804991529891
 30
0.0
 10
71.50362595868941
 20
523.3312528301894
 30
0.0
 10
57.26100266034751
 20
525.0801244663811
 30
0.0
 10
28.67910588759427
 20
527.4159775098325
 30
0.0
 10
14.3402461322863
 20
527.9994960150364
 30
0.0
 10
-14.33722780125823
 20
527.9989368520736
 30
0.0
 10
-28.67505067770159
 20
527.4157098276446
 30
0.0
 10
-57.25745461558602
 20
525.0820833786444
 30
0.0
 10
-71.50102215678903
 20
523.3318917166073
 30
0.0
 10
-113.9473264548462
 20
516.3556014057867
 30
0.0
 10
-141.8651233571743
 20
509.3924746375966
 30
0.0
 10
-182.6171585351453
 20
495.6213895573727
 30
0.0
 10
-196.0144847251493
 20
490.4778727511807
 30
0.0
 10
-222.3450644936148
 20
479.1162023809645
 30
0.0
 10
-235.2792368513369
 20
472.8988642999067
 30
0.0
 10
-273.257356423868
 20
452.6993605137421
 30
0.0
 10
-297.4774093141513
 20
437.1661098328494
 30
0.0
 10
-343.0747935530247
 20
402.3749205190944
 30
0.0
 10
-364.4544923877107
 20
383.1188435182508
 30
0.0
 10
-393.9662423855408
 20
351.8232311796207
 30
0.0
 10
-403.3791636468915
 20
340.9910786058581
 30
0.0
 10
-421.2915239282255
 20
318.595406290364
 30
0.0
 10
-429.7904069197822
 20
307.0322473428815
 30
0.0
 10
-445.8209024264921
 20
283.2538978925705
 30
0.0
 10
-453.3519359328774
 20
271.0390809188469
 30
0.0
 10
-467.3922243324404
 20
246.0339015296665
 30
0.0
 10
-473.9037233767199
 20
233.2457073638331
 30
0.0
 10
-491.8473902351661
 20
194.1502202368671
 30
0.0
 10
-501.6776696307579
 20
167.1102319633748
 30
0.0
 10
-513.0389026573328
 20
125.621381790774
 30
0.0
 10
-516.2602967825782
 20
111.6379670906805
 30
0.0
 10
-521.5592301189522
 20
83.45433574717146
 30
0.0
 10
-523.6350350549844
 20
69.255467638107
 30
0.0
 10
-526.6201522891324
 20
40.73407827665482
 30
0.0
 10
-527.5321504387421
 20
26.41259318583247
 30
0.0
 10
-528.1899438039459
 20
-2.257719306805805
 30
0.0
 10
-527.9330083354503
 20
-16.60502757817422
 30
0.0
 10
-526.2523484229949
 20
-45.23300316307233
 30
0.0
 10
-524.8305184498074
 20
-59.51220519898835
 30
0.0
 10
-520.8284470786799
 20
-87.90890907010356
 30
0.0
 10
-518.2461637468896
 20
-102.0243292617191
 30
0.0
 10
-511.9450950053443
 20
-130.0012647962185
 30
0.0
 10
-508.2263917747233
 20
-143.861711368782
 30
0.0
 10
-499.6681299414695
 20
-171.2320752681271
 30
0.0
 10
-494.8315511207911
 20
-184.7421660663948
 30
0.0
 10
-484.0767911083331
 20
-211.3267101896801
 30
0.0
 10
-478.1570505669791
 20
-224.3998228000098
 30
0.0
 10
-465.2727122382675
 20
-250.0190932704516
 30
0.0
 10
-458.3098683298844
 20
-262.566874956
 30
0.0
 10
-435.9219301543837
 20
-299.2975031873792
 30
0.0
 10
-418.9968531570936
 20
-322.5663174366821
 30
0.0
 10
-390.9451208477074
 20
-355.1771291905564
 30
0.0
 10
-381.1518537274736
 20
-365.6668965074755
 30
0.0
 10
-360.7448773446134
 20
-385.8149796642457
 30
0.0
 10
-350.1293869231832
 20
-395.4716575042199
 30
0.0
 10
-317.1562201476535
 20
-423.0975764586875
 30
0.0
 10
-293.6760991138197
 20
-439.725698399369
 30
0.0
 10
-269.0000000000006
 20
-454.3379333609705
 30
0.0
  0
SPLINE
  5
87
330
1F
100
AcDbEntity
  8
0
  6
Continuous
 62
     7
370
    25
100
AcDbSpline
210
0.0
220
0.0
230
1.0
 70
     8
 71
     3
 72
   114
 73
   110
 74
     0
 42
0.00000001
 43
0.00000001
 40
0.0
 40
0.0
 40
0.0
 40
0.0
 40
0.0312499999999998
 40
0.0312499999999998
 40
0.0468749999999997
 40
0.0468749999999997
 40
0.0624999999999996
 40
0.0624999999999996
 40
0.0937499999999995
 40
0.0937499999999995
 40
0.1093749999999994
 40
0.1093749999999994
 40
0.1249999999999994
 40
0.1249999999999994
 40
0.1406249999999993
 40
0.1406249999999993
 40
0.1562499999999993
 40
0.1562499999999993
 40
0.1718749999999992
 40
0.1718749999999992
 40
0.1874999999999992
 40
0.1874999999999992
 40
0.2031249999999991
 40
0.2031249999999991
 40
0.2187499999999991
 40
0.2187499999999991
 40
0.2343749999999991
 40
0.2343749999999991
 40
0.249999999999999
 40
0.249999999999999
 40
0.281249999999999
 40
0.281249999999999
 40
0.296874999999999
 40
0.296874999999999
 40
0.312499999999999
 40
0.312499999999999
 40
0.3281249999999991
 40
0.3281249999999991
 40
0.3437499999999991
 40
0.3437499999999991
 40
0.3749999999999991
 40
0.3749999999999991
 40
0.4062499999999992
 40
0.4062499999999992
 40
0.4218749999999992
 40
0.4218749999999992
 40
0.4374999999999993
 40
0.4374999999999993
 40
0.4687499999999993
 40
0.4687499999999993
 40
0.4843749999999994
 40
0.4843749999999994
 40
0.4999999999999994
 40
0.4999999999999994
 40
0.5156249999999994
 40
0.5156249999999994
 40
0.5312499999999994
 40
0.5312499999999994
 40
0.5624999999999996
 40
0.5624999999999996
 40
0.5781249999999996
 40
0.5781249999999996
 40
0.5937499999999996
 40
0.5937499999999996
 40
0.6249999999999996
 40
0.6249999999999996
 40
0.6406249999999996
 40
0.6406249999999996
 40
0.6562499999999997
 40
0.6562499999999997
 40
0.6718749999999997
 40
0.6718749999999997
 40
0.6874999999999997
 40
0.6874999999999997
 40
0.7031249999999997
 40
0.7031249999999997
 40
0.7187499999999997
 40
0.7187499999999997
 40
0.7343749999999997
 40
0.7343749999999997
 40
0.7499999999999997
 40
0.7499999999999997
 40
0.7812499999999998
 40
0.7812499999999998
 40
0.7968749999999998
 40
0.7968749999999998
 40
0.8124999999999998
 40
0.8124999999999998
 40
0.8281249999999998
 40
0.8281249999999998
 40
0.8437499999999998
 40
0.8437499999999998
 40
0.8593749999999999
 40
0.8593749999999999
 40
0.8749999999999999
 40
0.8749999999999999
 40
0.8906249999999999
 40
0.8906249999999999
 40
0.9062499999999999
 40
0.9062499999999999
 40
0.9218749999999999
 40
0.9218749999999999
 40
0.9374999999999999
 40
0.9374999999999999
 40
0.953125
 40
0.953125
 40
0.96875
 40
0.96875
 40
1.0
 40
1.0
 40
1.0
 40
1.0
 10
-269.0000000105922
 20
-453.1753674830877
 30
0.0
 10
-293.6022370250161
 20
-438.5693015718823
 30
0.0
 10
-317.0096259223024
 20
-421.954730236948
 30
0.0
 10
-349.8773597321295
 20
-394.3581875731202
 30
0.0
 10
-360.4580752170351
 20
-384.7130229019535
 30
0.0
 10
-380.7969911456944
 20
-364.5910637795857
 30
0.0
 10
-390.5570856352719
 20
-354.1159855348765
 30
0.0
 10
-418.5116168505676
 20
-321.5533875940614
 30
0.0
 10
-435.3753440145267
 20
-298.3228469526142
 30
0.0
 10
-457.6776061843894
 20
-261.657186907852
 30
0.0
 10
-464.6129303295846
 20
-249.1327687354463
 30
0.0
 10
-477.4452381941188
 20
-223.5611239740576
 30
0.0
 10
-483.3397745329412
 20
-210.5136307012518
 30
0.0
 10
-494.0471993361252
 20
-183.9818990238665
 30
0.0
 10
-498.8614754604456
 20
-170.4992727080199
 30
0.0
 10
-507.3777235943321
 20
-143.1856470862224
 30
0.0
 10
-511.0770802734075
 20
-129.3534137526891
 30
0.0
 10
-517.3413664531806
 20
-101.4395974650487
 30
0.0
 10
-519.907438240491
 20
-87.3532882613843
 30
0.0
 10
-523.8792011030082
 20
-59.01961114386453
 30
0.0
 10
-525.2875605667475
 20
-44.77261898031367
 30
0.0
 10
-526.9443074000749
 20
-16.21007531256781
 30
0.0
 10
-527.1907968946504
 20
-1.895966708014493
 30
0.0
 10
-526.5154763797481
 20
26.70726445729657
 30
0.0
 10
-525.5963759084506
 20
40.99482794397125
 30
0.0
 10
-522.6002270073745
 20
69.4480697836675
 30
0.0
 10
-520.5205053527956
 20
83.61266027956044
 30
0.0
 10
-515.2171919944867
 20
111.7274790675671
 30
0.0
 10
-511.9952387574626
 20
125.6764474800628
 30
0.0
 10
-500.63712400437
 20
167.0627934887217
 30
0.0
 10
-490.8155076535613
 20
194.0347051237274
 30
0.0
 10
-472.8945742131122
 20
233.0301137513836
 30
0.0
 10
-466.3922182076726
 20
245.7855467586868
 30
0.0
 10
-452.3731199812117
 20
270.726409690628
 30
0.0
 10
-444.8542681036496
 20
282.9094567585775
 30
0.0
 10
-428.8511519877908
 20
306.6257239625883
 30
0.0
 10
-420.3673476228408
 20
318.1586530245906
 30
0.0
 10
-402.488113419148
 20
340.4952515979078
 30
0.0
 10
-393.0931292027278
 20
351.298787963558
 30
0.0
 10
-363.6388997389538
 20
382.5115128648306
 30
0.0
 10
-342.3036341388139
 20
401.7154818126861
 30
0.0
 10
-296.8015096651931
 20
436.4139187062934
 30
0.0
 10
-272.634765733358
 20
451.9046026284444
 30
0.0
 10
-234.7404163908054
 20
472.0494075732278
 30
0.0
 10
-221.835468067238
 20
478.2496659647215
 30
0.0
 10
-195.5637206288125
 20
489.5805371667294
 30
0.0
 10
-182.1968921069135
 20
494.7099397218844
 30
0.0
 10
-141.5378618312765
 20
508.4433243295244
 30
0.0
 10
-113.6845675554422
 20
515.3873444532812
 30
0.0
 10
-71.33598426390287
 20
522.3446115349353
 30
0.0
 10
-57.12545481422472
 20
524.0900033393227
 30
0.0
 10
-28.60975698419276
 20
526.4172425094158
 30
0.0
 10
-14.30323189092588
 20
526.9989177481665
 30
0.0
 10
14.30483159380736
 20
526.9995150535239
 30
0.0
 10
28.6111539554167
 20
526.4176623262366
 30
0.0
 10
57.126855498521
 20
524.0882876070873
 30
0.0
 10
71.33665321517249
 20
522.3442233551302
 30
0.0
 10
113.6849082057508
 20
515.3875353160569
 30
0.0
 10
141.53749401775
 20
508.4430010450307
 30
0.0
 10
182.1968097484313
 20
494.7101878825851
 30
0.0
 10
195.561984057075
 20
489.5786361830204
 30
0.0
 10
221.8336606685017
 20
478.2486469666528
 30
0.0
 10
234.7388512878684
 20
472.0509210247721
 30
0.0
 10
272.6325908132613
 20
451.9040100635816
 30
0.0
 10
296.7991654687854
 20
436.4164076441489
 30
0.0
 10
330.924005164012
 20
410.3914341663969
 30
0.0
 10
341.9452025739313
 20
401.2542257443791
 30
0.0
 10
363.2111421060395
 20
382.1142258729541
 30
0.0
 10
373.4526584230489
 20
372.1106648237138
 30
0.0
 10
393.0882958560898
 20
351.301968061895
 30
0.0
 10
402.4842663284346
 20
340.4978066338383
 30
0.0
 10
420.363260485448
 20
318.1648522211989
 30
0.0
 10
428.847220173998
 20
306.6308913014732
 30
0.0
 10
444.849937467134
 20
282.9141506516408
 30
0.0
 10
452.3694075556411
 20
270.7314346927014
 30
0.0
 10
466.3903999285695
 20
245.791978561609
 30
0.0
 10
472.8911043271716
 20
233.0368325121769
 30
0.0
 10
484.8378699212898
 20
207.0390871550512
 30
0.0
 10
490.2822180523102
 20
193.7975373691595
 30
0.0
 10
500.0721509534575
 20
166.914050937241
 30
0.0
 10
504.4202584264054
 20
153.2738858397335
 30
0.0
 10
515.7806992217611
 20
111.8887957190673
 30
0.0
 10
521.0998469813708
 20
83.67983072192595
 30
0.0
 10
525.5975672271311
 20
41.00039397883541
 30
0.0
 10
526.5164354845188
 20
26.71257988961835
 30
0.0
 10
527.1910539235262
 20
-1.890321873747661
 30
0.0
 10
526.9441533097955
 20
-16.20566320907842
 30
0.0
 10
525.2889989359221
 20
-44.768377703268
 30
0.0
 10
523.8797496687266
 20
-59.01648947217137
 30
0.0
 10
519.9058409448097
 20
-87.34968635207241
 30
0.0
 10
517.3421509051641
 20
-101.4356562123749
 30
0.0
 10
511.0779013432434
 20
-129.3526963897798
 30
0.0
 10
507.3764506630554
 20
-143.1831745403618
 30
0.0
 10
498.8610085731084
 20
-170.4972376786878
 30
0.0
 10
494.0495576630466
 20
-183.981995703717
 30
0.0
 10
483.3396213705496
 20
-210.5127848494187
 30
0.0
 10
477.4433322687142
 20
-223.5596853001021
 30
0.0
 10
464.6138468119841
 20
-249.1324471784974
 30
0.0
 10
457.6762651818284
 20
-261.6567518649535
 30
0.0
 10
442.8068244023869
 20
-286.1003151697365
 30
0.0
 10
434.8743645611236
 20
-298.0192599518165
 30
0.0
 10
418.0674468782821
 20
-321.1731429735473
 30
0.0
 10
409.1910950614582
 20
-332.4070478741043
 30
0.0
 10
390.5552818343076
 20
-354.1158143938488
 30
0.0
 10
380.7972967859239
 20
-364.5927642841551
 30
0.0
 10
360.4558599819578
 20
-384.7131390622147
 30
0.0
 10
349.8753781836036
 20
-394.3585146670981
 30
0.0
 10
317.0134692194535
 20
-421.9605633322892
 30
0.0
 10
293.6023735378951
 20
-438.569495250761
 30
0.0
 10
269.0000000000011
 20
-453.1753758250824
 30
0.0
  0
CIRCLE
  5
88
330
1F
100
AcDbEntity
  8
0
  6
Continuous
 62
     7
370
    25
100
AcDbCircle
 10
0.0
 20
0.0
 30
0.0
 40
20.00000000000001
  0
LINE
  5
89
330
1F
100
AcDbEntity
  8
0
  6
Continuous
 62
     7
370
    25
100
AcDbLine
 10
-193.5
 20
-210.0
 30
0.0
 11
-193.5
 21
-250.0
 31
0.0
  0
LINE
  5
8A
330
1F
100
AcDbEntity
  8
0
  6
Continuous
 62
     7
370
    25
100
AcDbLine
 10
-201.5
 20
-210.0
 30
0.0
 11
-193.5
 21
-210.0
 31
0.0
  0
LINE
  5
8B
330
1F
100
AcDbEntity
  8
0
  6
Continuous
 62
     7
370
    25
100
AcDbLine
 10
-201.5
 20
-250.0
 30
0.0
 11
-201.5
 21
-210.0
 31
0.0
  0
LINE
  5
8C
330
1F
100
AcDbEntity
  8
0
  6
Continuous
 62
     7
370
    25
100
AcDbLine
 10
-193.5
 20
-250.0
 30
0.0
 11
-201.5
 21
-250.0
 31
0.0
  0
LINE
  5
8D
330
1F
100
AcDbEntity
  8
0
  6
Continuous
 62
     7
370
    25
100
AcDbLine
 10
-193.5
 20
250.0
 30
0.0
 11
-193.5
 21
210.0
 31
0.0
  0
LINE
  5
8E
330
1F
100
AcDbEntity
  8
0
  6
Continuous
 62
     7
370
    25
100
AcDbLine
 10
-201.5
 20
250.0
 30
0.0
 11
-193.5
 21
250.0
 31
0.0
  0
LINE
  5
8F
330
1F
100
AcDbEntity
  8
0
  6
Continuous
 62
     7
370
    25
100
AcDbLine
 10
-201.5
 20
210.0
 30
0.0
 11
-201.5
 21
250.0
 31
0.0
  0
LINE
  5
90
330
1F
100
AcDbEntity
  8
0
  6
Continuous
 62
     7
370
    25
100
AcDbLine
 10
-193.5
 20
210.0
 30
0.0
 11
-201.5
 21
210.0
 31
0.0
  0
LINE
  5
91
330
1F
100
AcDbEntity
  8
0
  6
Continuous
 62
     7
370
    25
100
AcDbLine
 10
269.0
 20
-488.6931225757
 30
0.0
 11
269.0
 21
-458.980391738
 31
0.0
  0
LINE
  5
92
330
1F
100
AcDbEntity
  8
0
  6
Continuous
 62
     7
370
    25
100
AcDbLine
 10
267.0
 20
-488.6931225757
 30
0.0
 11
269.0
 21
-488.6931225757
 31
0.0
  0
LINE
  5
93
330
1F
100
AcDbEntity
  8
0
  6
Continuous
 62
     7
370
    25
100
AcDbLine
 10
267.0
 20
-538.6931225757
 30
0.0
 11
267.0
 21
-488.6931225757
 31
0.0
  0
LINE
  5
94
330
1F
100
AcDbEntity
  8
0
  6
Continuous
 62
     7
370
    25
100
AcDbLine
 10
269.0
 20
-538.6931225757
 30
0.0
 11
267.0
 21
-538.6931225757
 31
0.0
  0
LINE
  5
95
330
1F
100
AcDbEntity
  8
0
  6
Continuous
 62
     7
370
    25
100
AcDbLine
 10
269.0
 20
-558.6931225757
 30
0.0
 11
269.0
 21
-538.6931225757
 31
0.0
  0
LINE
  5
96
330
1F
100
AcDbEntity
  8
0
  6
Continuous
 62
     7
370
    25
100
AcDbLine
 10
267.0
 20
-558.6931225757
 30
0.0
 11
269.0
 21
-558.6931225757
 31
0.0
  0
LINE
  5
97
330
1F
100
AcDbEntity
  8
0
  6
Continuous
 62
     7
370
    25
100
AcDbLine
 10
267.0
 20
-578.887726593
 30
0.0
 11
267.0
 21
-558.6931225757
 31
0.0
  0
LINE
  5
98
330
1F
100
AcDbEntity
  8
0
  6
Continuous
 62
     7
370
    25
100
AcDbLine
 10
-267.0
 20
-578.887726593
 30
0.0
 11
267.0
 21
-578.887726593
 31
0.0
  0
LINE
  5
99
330
1F
100
AcDbEntity
  8
0
  6
Continuous
 62
     7
370
    25
100
AcDbLine
 10
-267.0
 20
-558.6931225757
 30
0.0
 11
-267.0
 21
-578.887726593
 31
0.0
  0
LINE
  5
9A
330
1F
100
AcDbEntity
  8
0
  6
Continuous
 62
     7
370
    25
100
AcDbLine
 10
-269.0
 20
-558.6931225757
 30
0.0
 11
-267.0
 21
-558.6931225757
 31
0.0
  0
LINE
  5
9B
330
1F
100
AcDbEntity
  8
0
  6
Continuous
 62
     7
370
    25
100
AcDbLine
 10
-269.0
 20
-538.6931225757
 30
0.0
 11
-269.0
 21
-558.6931225757
 31
0.0
  0
LINE
  5
9C
330
1F
100
AcDbEntity
  8
0
  6
Continuous
 62
     7
370
    25
100
AcDbLine
 10
-267.0
 20
-538.6931225757
 30
0.0
 11
-269.0
 21
-538.6931225757
 31
0.0
  0
LINE
  5
9D
330
1F
100
AcDbEntity
  8
0
  6
Continuous
 62
     7
370
    25
100
AcDbLine
 10
-267.0
 20
-488.6931225757
 30
0.0
 11
-267.0
 21
-538.6931225757
 31
0.0
  0
LINE
  5
9E
330
1F
100
AcDbEntity
  8
0
  6
Continuous
 62
     7
370
    25
100
AcDbLine
 10
-269.0
 20
-488.6931225757
 30
0.0
 11
-267.0
 21
-488.6931225757
 31
0.0
  0
LINE
  5
9F
330
1F
100
AcDbEntity
  8
0
  6
Continuous
 62
     7
370
    25
100
AcDbLine
 10
-269.0
 20
-458.980391738
 30
0.0
 11
-269.0
 21
-488.6931225757
 31
0.0
  0
LINE
  5
A0
330
1F
100
AcDbEntity
  8
0
  6
Continuous
 62
     7
370
    25
100
AcDbLine
 10
201.5
 20
250.0
 30
0.0
 11
193.5
 21
250.0
 31
0.0
  0
LINE
  5
A1
330
1F
100
AcDbEntity
  8
0
  6
Continuous
 62
     7
370
    25
100
AcDbLine
 10
193.5
 20
250.0
 30
0.0
 11
193.5
 21
210.0
 31
0.0
  0
LINE
  5
A2
330
1F
100
AcDbEntity
  8
0
  6
Continuous
 62
     7
370
    25
100
AcDbLine
 10
193.5
 20
210.0
 30
0.0
 11
201.5
 21
210.0
 31
0.0
  0
LINE
  5
A3
330
1F
100
AcDbEntity
  8
0
  6
Continuous
 62
     7
370
    25
100
AcDbLine
 10
201.5
 20
210.0
 30
0.0
 11
201.5
 21
250.0
 31
0.0
  0
LINE
  5
A4
330
1F
100
AcDbEntity
  8
0
  6
Continuous
 62
     7
370
    25
100
AcDbLine
 10
201.5
 20
-210.0
 30
0.0
 11
193.5
 21
-210.0
 31
0.0
  0
LINE
  5
A5
330
1F
100
AcDbEntity
  8
0
  6
Continuous
 62
     7
370
    25
100
AcDbLine
 10
193.5
 20
-210.0
 30
0.0
 11
193.5
 21
-250.0
 31
0.0
  0
LINE
  5
A6
330
1F
100
AcDbEntity
  8
0
  6
Continuous
 62
     7
370
    25
100
AcDbLine
 10
193.5
 20
-250.0
 30
0.0
 11
201.5
 21
-250.0
 31
0.0
  0
LINE
  5
A7
330
1F
100
AcDbEntity
  8
0
  6
Continuous
 62
     7
370
    25
100
AcDbLine
 10
201.5
 20
-250.0
 30
0.0
 11
201.5
 21
-210.0
 31
0.0
  0
LINE
  5
A8
330
1F
100
AcDbEntity
  8
0
  6
Continuous
 62
     7
370
    25
100
AcDbLine
 10
269.0
 20
-453.1753758251
 30
0.0
 11
268.9999999955
 21
-454.3379370533
 31
0.0
  0
LINE
  5
A9
330
1F
100
AcDbEntity
  8
0
  6
Continuous
 62
     7
370
    25
100
AcDbLine
 10
-269.0
 20
-454.337933361
 30
0.0
 11
-269.0
 21
-453.1753674894
 31
0.0
  0
ARC
  5
AA
330
1F
100
AcDbEntity
  8
0
  6
Continuous
 62
     7
370
    25
100
AcDbCircle
 10
0.0
 20
0.0
 30
0.0
 40
532.0000000000016
100
AcDbArc
 50
300.373786289
 51
239.626213711
  0
ENDSEC
  0
SECTION
  2
OBJECTS
  0
DICTIONARY
  5
C
330
0
100
AcDbDictionary
281
     1
  3
ACAD_GROUP
350
D
  3
ACAD_LAYOUT
350
1A
  3
ACAD_MLINESTYLE
350
17
  3
ACAD_PLOTSETTINGS
350
19
  3
ACAD_PLOTSTYLENAME
350
E
  3
ACAD_SCALELIST
350
47
  3
DWGPROPS
350
AB
  0
DICTIONARY
  5
D
102
{ACAD_REACTORS
330
C
102
}
330
C
100
AcDbDictionary
281
     1
  0
DICTIONARY
  5
1A
102
{ACAD_REACTORS
330
C
102
}
330
C
100
AcDbDictionary
281
     1
  3
Layout1
350
1E
  3
Layout2
350
26
  3
Model
350
22
  0
DICTIONARY
  5
17
102
{ACAD_REACTORS
330
C
102
}
330
C
100
AcDbDictionary
281
     1
  3
Standard
350
18
  0
DICTIONARY
  5
19
102
{ACAD_REACTORS
330
C
102
}
330
C
100
AcDbDictionary
281
     1
  0
ACDBDICTIONARYWDFLT
  5
E
102
{ACAD_REACTORS
330
C
102
}
330
C
100
AcDbDictionary
281
     1
  3
Normal
350
F
100
AcDbDictionaryWithDefault
340
F
  0
DICTIONARY
  5
47
102
{ACAD_REACTORS
330
C
102
}
330
C
100
AcDbDictionary
281
     1
  3
A0
350
48
  3
A1
350
49
  3
A2
350
4A
  3
A3
350
4B
  3
A4
350
4C
  3
A5
350
4D
  3
A6
350
4E
  3
A7
350
4F
  3
A8
350
50
  3
A9
350
51
  3
B0
350
52
  3
B1
350
53
  3
B2
350
54
  3
B3
350
55
  3
B4
350
56
  3
B5
350
57
  3
B6
350
58
  0
XRECORD
  5
AB
102
{ACAD_REACTORS
330
C
102
}
330
C
100
AcDbXrecord
280
     1
  1
DWGPROPS COOKIE
  2

  3

  4

  6

  7

  8
libre
  9

300
=
301
=
302
=
303
=
304
=
305
=
306
=
307
=
308
=
309
=
 40
0.0
 41
2459886.683150243
 42
2459886.683606412
  1

 90
        0
  0
LAYOUT
  5
1E
102
{ACAD_REACTORS
330
1A
102
}
330
1A
100
AcDbPlotSettings
  1

  2
none_device
  4

  6

 40
0.0
 41
0.0
 42
0.0
 43
0.0
 44
0.0
 45
0.0
 46
0.0
 47
0.0
 48
0.0
 49
0.0
140
0.0
141
0.0
142
1.0
143
1.0
 70
   688
 72
     1
 73
     0
 74
     5
  7

 75
    16
147
1.0
148
0.0
149
0.0
100
AcDbLayout
  1
Layout1
 70
     1
 71
     1
 10
0.0
 20
0.0
 11
420.0
 21
297.0
 12
0.0
 22
0.0
 32
0.0
 14
1.0000000000E+20
 24
1.0000000000E+20
 34
1.0000000000E+20
 15
-1.0000000000E+20
 25
-1.0000000000E+20
 35
-1.0000000000E+20
146
0.0
 13
0.0
 23
0.0
 33
0.0
 16
1.0
 26
0.0
 36
0.0
 17
0.0
 27
1.0
 37
0.0
 76
     0
330
1B
  0
LAYOUT
  5
26
102
{ACAD_REACTORS
330
1A
102
}
330
1A
100
AcDbPlotSettings
  1

  2
none_device
  4

  6

 40
0.0
 41
0.0
 42
0.0
 43
0.0
 44
0.0
 45
0.0
 46
0.0
 47
0.0
 48
0.0
 49
0.0
140
0.0
141
0.0
142
1.0
143
1.0
 70
   688
 72
     1
 73
     0
 74
     5
  7

 75
    16
147
1.0
148
0.0
149
0.0
100
AcDbLayout
  1
Layout2
 70
     1
 71
     2
 10
0.0
 20
0.0
 11
0.0
 21
0.0
 12
0.0
 22
0.0
 32
0.0
 14
0.0
 24
0.0
 34
0.0
 15
0.0
 25
0.0
 35
0.0
146
0.0
 13
0.0
 23
0.0
 33
0.0
 16
1.0
 26
0.0
 36
0.0
 17
0.0
 27
1.0
 37
0.0
 76
     0
330
23
  0
LAYOUT
  5
22
102
{ACAD_REACTORS
330
1A
102
}
330
1A
100
AcDbPlotSettings
  1

  2
none_device
  4
ANSI_A_(11.00_x_8.50_Inches)
  6

 40
6.35
 41
19.05
 42
6.35000508
 43
19.05000254
 44
279.4
 45
215.9
 46
133.34999746
 47
93.4107289009
 48
0.0
 49
0.0
140
0.0
141
0.0
142
0.0075750229
143
1.0
 70
  1696
 72
     0
 73
     0
 74
     0
  7

 75
     0
147
0.0179189148
148
-1300.4909072572
149
0.0
100
AcDbLayout
  1
Model
 70
     1
 71
     0
 10
0.0
 20
0.0
 11
420.0
 21
297.0
 12
0.0
 22
0.0
 32
0.0
 14
-532.0
 24
-578.887726593
 34
0.0
 15
532.0
 25
532.0
 35
0.0
146
0.0
 13
0.0
 23
0.0
 33
0.0
 16
1.0
 26
0.0
 36
0.0
 17
0.0
 27
1.0
 37
0.0
 76
     0
330
1F
331
29
  0
MLINESTYLE
  5
18
102
{ACAD_REACTORS
330
17
102
}
330
17
100
AcDbMlineStyle
  2
Standard
 70
     0
  3

 62
   256
 51
90.0
 52
90.0
 71
     2
 49
0.5
 62
   256
  6
BYLAYER
 49
-0.5
 62
   256
  6
BYLAYER
  0
ACDBPLACEHOLDER
  5
F
102
{ACAD_REACTORS
330
E
102
}
330
E
  0
SCALE
  5
48
102
{ACAD_REACTORS
330
47
102
}
330
47
100
AcDbScale
 70
     0
300
1:1
140
1.0
141
1.0
290
     1
  0
SCALE
  5
49
102
{ACAD_REACTORS
330
47
102
}
330
47
100
AcDbScale
 70
     0
300
1:2
140
1.0
141
2.0
290
     0
  0
SCALE
  5
4A
102
{ACAD_REACTORS
330
47
102
}
330
47
100
AcDbScale
 70
     0
300
1:4
140
1.0
141
4.0
290
     0
  0
SCALE
  5
4B
102
{ACAD_REACTORS
330
47
102
}
330
47
100
AcDbScale
 70
     0
300
1:5
140
1.0
141
5.0
290
     0
  0
SCALE
  5
4C
102
{ACAD_REACTORS
330
47
102
}
330
47
100
AcDbScale
 70
     0
300
1:8
140
1.0
141
8.0
290
     0
  0
SCALE
  5
4D
102
{ACAD_REACTORS
330
47
102
}
330
47
100
AcDbScale
 70
     0
300
1:10
140
1.0
141
10.0
290
     0
  0
SCALE
  5
4E
102
{ACAD_REACTORS
330
47
102
}
330
47
100
AcDbScale
 70
     0
300
1:16
140
1.0
141
16.0
290
     0
  0
SCALE
  5
4F
102
{ACAD_REACTORS
330
47
102
}
330
47
100
AcDbScale
 70
     0
300
1:20
140
1.0
141
20.0
290
     0
  0
SCALE
  5
50
102
{ACAD_REACTORS
330
47
102
}
330
47
100
AcDbScale
 70
     0
300
1:30
140
1.0
141
30.0
290
     0
  0
SCALE
  5
51
102
{ACAD_REACTORS
330
47
102
}
330
47
100
AcDbScale
 70
     0
300
1:40
140
1.0
141
40.0
290
     0
  0
SCALE
  5
52
102
{ACAD_REACTORS
330
47
102
}
330
47
100
AcDbScale
 70
     0
300
1:50
140
1.0
141
50.0
290
     0
  0
SCALE
  5
53
102
{ACAD_REACTORS
330
47
102
}
330
47
100
AcDbScale
 70
     0
300
1:100
140
1.0
141
100.0
290
     0
  0
SCALE
  5
54
102
{ACAD_REACTORS
330
47
102
}
330
47
100
AcDbScale
 70
     0
300
2:1
140
2.0
141
1.0
290
     0
  0
SCALE
  5
55
102
{ACAD_REACTORS
330
47
102
}
330
47
100
AcDbScale
 70
     0
300
4:1
140
4.0
141
1.0
290
     0
  0
SCALE
  5
56
102
{ACAD_REACTORS
330
47
102
}
330
47
100
AcDbScale
 70
     0
300
8:1
140
8.0
141
1.0
290
     0
  0
SCALE
  5
57
102
{ACAD_REACTORS
330
47
102
}
330
47
100
AcDbScale
 70
     0
300
10:1
140
10.0
141
1.0
290
     0
  0
SCALE
  5
58
102
{ACAD_REACTORS
330
47
102
}
330
47
100
AcDbScale
 70
     0
300
100:1
140
100.0
141
1.0
290
     0
  0
ENDSEC
  0
EOF
